ISO-10303-21;
HEADER;
FILE_DESCRIPTION (( 'STEP AP214' ),
    '1' );
FILE_NAME ('83299.STEP',
    '2023-06-30T23:02:21',
    ( '' ),
    ( '' ),
    'SwSTEP 2.0',
    'SolidWorks 2023',
    '' );
FILE_SCHEMA (( 'AUTOMOTIVE_DESIGN' ));
ENDSEC;

DATA;
#1 = DIRECTION ( 'NONE',  ( 1.000000000000000000, 0.000000000000000000, 0.000000000000000000 ) ) ;
#2 = AXIS2_PLACEMENT_3D ( 'NONE', #338, #35, #1 ) ;
#3 = VERTEX_POINT ( 'NONE', #70 ) ;
#4 = CARTESIAN_POINT ( 'NONE',  ( -0.2500000000000000000, 0.2500000000000000000, 3.061616997868382402E-17 ) ) ;
#5 = DIMENSIONAL_EXPONENTS ( 1.000000000000000000, 0.000000000000000000, 0.000000000000000000, 0.000000000000000000, 0.000000000000000000, 0.000000000000000000, 0.000000000000000000 ) ;
#6 = ORIENTED_EDGE ( 'NONE', *, *, #123, .T. ) ;
#7 = DIRECTION ( 'NONE',  ( -1.836970198721029441E-16, 1.000000000000000000, -0.000000000000000000 ) ) ;
#8 = ORIENTED_EDGE ( 'NONE', *, *, #131, .T. ) ;
#9 = PLANE ( 'NONE',  #50 ) ;
#10 = COLOUR_RGB ( '',1.000000000000000000, 0.000000000000000000, 0.000000000000000000 ) ;
#11 =( LENGTH_UNIT ( ) NAMED_UNIT ( * ) SI_UNIT ( $, .METRE. ) );
#12 = FILL_AREA_STYLE ('',( #128 ) ) ;
#13 = DIRECTION ( 'NONE',  ( -1.000000000000000000, 0.000000000000000000, 0.000000000000000000 ) ) ;
#14 = CARTESIAN_POINT ( 'NONE',  ( 0.2499999999999995837, 4.000000000000000000, 3.061616997868379320E-17 ) ) ;
#15 = VERTEX_POINT ( 'NONE', #359 ) ;
#16 = PRESENTATION_STYLE_ASSIGNMENT (( #73 ) ) ;
#17 = DIRECTION ( 'NONE',  ( -0.000000000000000000, -1.000000000000000000, -0.000000000000000000 ) ) ;
#18 = MECHANICAL_DESIGN_GEOMETRIC_PRESENTATION_REPRESENTATION (  '', ( #39 ), #65 ) ;
#19 = DIRECTION ( 'NONE',  ( 0.000000000000000000, -0.000000000000000000, 1.000000000000000000 ) ) ;
#20 = SURFACE_STYLE_USAGE ( .BOTH. , #209 ) ;
#21 = EDGE_CURVE ( 'NONE', #309, #311, #165, .T. ) ;
#22 = AXIS2_PLACEMENT_3D ( 'NONE', #66, #233, #122 ) ;
#23 = PRESENTATION_STYLE_ASSIGNMENT (( #162 ) ) ;
#24 = PRODUCT_RELATED_PRODUCT_CATEGORY ( 'part', '', ( #144 ) ) ;
#25 = SURFACE_STYLE_USAGE ( .BOTH. , #220 ) ;
#26 = DIMENSIONAL_EXPONENTS ( 1.000000000000000000, 0.000000000000000000, 0.000000000000000000, 0.000000000000000000, 0.000000000000000000, 0.000000000000000000, 0.000000000000000000 ) ;
#27 = DIRECTION ( 'NONE',  ( 1.000000000000000000, 0.000000000000000000, 0.000000000000000000 ) ) ;
#28 = FACE_OUTER_BOUND ( 'NONE', #198, .T. ) ;
#29 =( CONVERSION_BASED_UNIT ( 'INCH', #277 ) LENGTH_UNIT ( ) NAMED_UNIT ( #225 ) );
#30 = DIRECTION ( 'NONE',  ( -1.000000000000000000, -1.836970198721029441E-16, 0.000000000000000000 ) ) ;
#31 = VERTEX_POINT ( 'NONE', #48 ) ;
#32 = DIRECTION ( 'NONE',  ( -1.836970198721029441E-16, 1.000000000000000000, -0.000000000000000000 ) ) ;
#33 = EDGE_LOOP ( 'NONE', ( #8, #6 ) ) ;
#34 = FILL_AREA_STYLE ('',( #226 ) ) ;
#35 = DIRECTION ( 'NONE',  ( 0.000000000000000000, 0.000000000000000000, 1.000000000000000000 ) ) ;
#36 = FACE_OUTER_BOUND ( 'NONE', #154, .T. ) ;
#37 = VERTEX_POINT ( 'NONE', #78 ) ;
#38 = SURFACE_STYLE_USAGE ( .BOTH. , #355 ) ;
#39 = STYLED_ITEM ( 'NONE', ( #268 ), #186 ) ;
#40 = VECTOR ( 'NONE', #169, 39.37007874015748143 ) ;
#41 = ORIENTED_EDGE ( 'NONE', *, *, #21, .F. ) ;
#42 = CYLINDRICAL_SURFACE ( 'NONE', #111, 0.2499999999999998612 ) ;
#43 = DIRECTION ( 'NONE',  ( -0.000000000000000000, -1.000000000000000000, -0.000000000000000000 ) ) ;
#44 = CARTESIAN_POINT ( 'NONE',  ( -1.530808498934191509E-17, 0.000000000000000000, 0.000000000000000000 ) ) ;
#45 = EDGE_CURVE ( 'NONE', #168, #31, #291, .T. ) ;
#46 = SURFACE_SIDE_STYLE ('',( #100 ) ) ;
#47 = DIRECTION ( 'NONE',  ( 1.836970198721029441E-16, -1.000000000000000000, 0.000000000000000000 ) ) ;
#48 = CARTESIAN_POINT ( 'NONE',  ( 3.061616997868383018E-17, 0.2500000000000000000, 0.2499999999999999722 ) ) ;
#49 = CARTESIAN_POINT ( 'NONE',  ( -1.224646799147352468E-16, 4.000000000000000000, 0.000000000000000000 ) ) ;
#50 = AXIS2_PLACEMENT_3D ( 'NONE', #155, #47, #160 ) ;
#51 = ORIENTED_EDGE ( 'NONE', *, *, #217, .F. ) ;
#52 = DIRECTION ( 'NONE',  ( 0.000000000000000000, 1.000000000000000000, 0.000000000000000000 ) ) ;
#53 = SURFACE_STYLE_FILL_AREA ( #83 ) ;
#54 = SURFACE_SIDE_STYLE ('',( #212 ) ) ;
#55 =( NAMED_UNIT ( * ) PLANE_ANGLE_UNIT ( ) SI_UNIT ( $, .RADIAN. ) );
#56 = PRESENTATION_LAYER_ASSIGNMENT (  '', '', ( #306 ) ) ;
#57 =( GEOMETRIC_REPRESENTATION_CONTEXT ( 3 ) GLOBAL_UNCERTAINTY_ASSIGNED_CONTEXT ( ( #59 ) ) GLOBAL_UNIT_ASSIGNED_CONTEXT ( ( #191, #219, #109 ) ) REPRESENTATION_CONTEXT ( 'NONE', 'WORKASPACE' ) );
#58 = LENGTH_MEASURE_WITH_UNIT ( LENGTH_MEASURE( 0.02539999999999999897 ), #297 );
#59 = UNCERTAINTY_MEASURE_WITH_UNIT (LENGTH_MEASURE( 1.000000000000000082E-05 ), #191, 'distance_accuracy_value', 'NONE');
#60 = CLOSED_SHELL ( 'NONE', ( #208, #143, #188, #221, #332 ) ) ;
#61 = MECHANICAL_DESIGN_GEOMETRIC_PRESENTATION_REPRESENTATION (  '', ( #256 ), #129 ) ;
#62 = EDGE_CURVE ( 'NONE', #234, #168, #156, .T. ) ;
#63 = DIRECTION ( 'NONE',  ( -0.000000000000000000, -1.000000000000000000, -0.000000000000000000 ) ) ;
#64 = DIRECTION ( 'NONE',  ( 0.000000000000000000, 0.000000000000000000, -1.000000000000000000 ) ) ;
#65 =( GEOMETRIC_REPRESENTATION_CONTEXT ( 3 ) GLOBAL_UNCERTAINTY_ASSIGNED_CONTEXT ( ( #363 ) ) GLOBAL_UNIT_ASSIGNED_CONTEXT ( ( #293, #187, #250 ) ) REPRESENTATION_CONTEXT ( 'NONE', 'WORKASPACE' ) );
#66 = CARTESIAN_POINT ( 'NONE',  ( 0.000000000000000000, 0.2500000000000000000, 0.000000000000000000 ) ) ;
#67 = DIRECTION ( 'NONE',  ( 0.000000000000000000, 0.000000000000000000, -1.000000000000000000 ) ) ;
#68 = EDGE_LOOP ( 'NONE', ( #173, #259, #94, #72, #345 ) ) ;
#69 = CYLINDRICAL_SURFACE ( 'NONE', #334, 0.2499999999999997224 ) ;
#70 = CARTESIAN_POINT ( 'NONE',  ( -0.2499999999999992784, 2.000000000000000000, 0.000000000000000000 ) ) ;
#71 = CARTESIAN_POINT ( 'NONE',  ( 0.000000000000000000, 0.2500000000000000000, 0.000000000000000000 ) ) ;
#72 = ORIENTED_EDGE ( 'NONE', *, *, #319, .F. ) ;
#73 = SURFACE_STYLE_USAGE ( .BOTH. , #46 ) ;
#74 = VECTOR ( 'NONE', #43, 39.37007874015748143 ) ;
#75 = AXIS2_PLACEMENT_3D ( 'NONE', #230, #206, #262 ) ;
#76 = DIRECTION ( 'NONE',  ( -0.000000000000000000, -1.000000000000000000, -0.000000000000000000 ) ) ;
#77 = FILL_AREA_STYLE_COLOUR ( '', #367 ) ;
#78 = CARTESIAN_POINT ( 'NONE',  ( 0.2500000000000000000, 0.2500000000000000000, 0.000000000000000000 ) ) ;
#79 = APPLICATION_PROTOCOL_DEFINITION ( 'draft international standard', 'automotive_design', 1998, #339 ) ;
#80 = MANIFOLD_SOLID_BREP ( 'Revolve - Tool Body (Straight Shanked)', #181 ) ;
#81 = LENGTH_MEASURE_WITH_UNIT ( LENGTH_MEASURE( 0.02539999999999999897 ), #350 );
#82 = CARTESIAN_POINT ( 'NONE',  ( -3.061616997868383018E-17, 0.2500000000000000000, 0.000000000000000000 ) ) ;
#83 = FILL_AREA_STYLE ('',( #292 ) ) ;
#84 = EDGE_CURVE ( 'NONE', #309, #130, #255, .T. ) ;
#85 = PRODUCT_DEFINITION_CONTEXT ( 'detailed design', #339, 'design' ) ;
#86 = COLOUR_RGB ( '',1.000000000000000000, 0.000000000000000000, 0.000000000000000000 ) ;
#87 =( NAMED_UNIT ( * ) PLANE_ANGLE_UNIT ( ) SI_UNIT ( $, .RADIAN. ) );
#88 =( LENGTH_UNIT ( ) NAMED_UNIT ( * ) SI_UNIT ( $, .METRE. ) );
#89 = AXIS2_PLACEMENT_3D ( 'NONE', #204, #200, #321 ) ;
#90 = PRESENTATION_LAYER_ASSIGNMENT (  '', '', ( #249 ) ) ;
#91 = CIRCLE ( 'NONE', #289, 0.2499999999999997502 ) ;
#92 = AXIS2_PLACEMENT_3D ( 'NONE', #305, #119, #192 ) ;
#93 = DIRECTION ( 'NONE',  ( -0.000000000000000000, -1.000000000000000000, -0.000000000000000000 ) ) ;
#94 = ORIENTED_EDGE ( 'NONE', *, *, #229, .F. ) ;
#95 = DIRECTION ( 'NONE',  ( -1.836970198721029441E-16, 1.000000000000000000, -0.000000000000000000 ) ) ;
#96 = CARTESIAN_POINT ( 'NONE',  ( -0.2499999999999998612, 4.000000000000000000, 0.000000000000000000 ) ) ;
#97 = AXIS2_PLACEMENT_3D ( 'NONE', #49, #360, #240 ) ;
#98 = DIRECTION ( 'NONE',  ( -1.836970198721029441E-16, 1.000000000000000000, 0.000000000000000000 ) ) ;
#99 = ORIENTED_EDGE ( 'NONE', *, *, #238, .T. ) ;
#100 = SURFACE_STYLE_FILL_AREA ( #336 ) ;
#101 = LENGTH_MEASURE_WITH_UNIT ( LENGTH_MEASURE( 0.02539999999999999897 ), #11 );
#102 = ORIENTED_EDGE ( 'NONE', *, *, #327, .F. ) ;
#103 = CARTESIAN_POINT ( 'NONE',  ( -1.224646799147352714E-16, 4.000000000000000000, 0.000000000000000000 ) ) ;
#104 = CARTESIAN_POINT ( 'NONE',  ( -1.224646799147352714E-16, 4.000000000000000000, 0.000000000000000000 ) ) ;
#105 = AXIS2_PLACEMENT_3D ( 'NONE', #103, #32, #205 ) ;
#106 = AXIS2_PLACEMENT_3D ( 'NONE', #82, #232, #170 ) ;
#107 = DIRECTION ( 'NONE',  ( -1.000000000000000000, 0.000000000000000000, 0.000000000000000000 ) ) ;
#108 = FILL_AREA_STYLE_COLOUR ( '', #281 ) ;
#109 =( NAMED_UNIT ( * ) SI_UNIT ( $, .STERADIAN. ) SOLID_ANGLE_UNIT ( ) );
#110 = AXIS2_PLACEMENT_3D ( 'NONE', #270, #17, #356 ) ;
#111 = AXIS2_PLACEMENT_3D ( 'NONE', #278, #148, #64 ) ;
#112 = AXIS2_PLACEMENT_3D ( 'NONE', #183, #136, #27 ) ;
#113 = SPHERICAL_SURFACE ( 'NONE', #112, 0.2500000000000000000 ) ;
#114 =( LENGTH_UNIT ( ) NAMED_UNIT ( * ) SI_UNIT ( $, .METRE. ) );
#115 = UNCERTAINTY_MEASURE_WITH_UNIT (LENGTH_MEASURE( 1.000000000000000082E-05 ), #29, 'distance_accuracy_value', 'NONE');
#116 = SURFACE_STYLE_FILL_AREA ( #329 ) ;
#117 =( NAMED_UNIT ( * ) SI_UNIT ( $, .STERADIAN. ) SOLID_ANGLE_UNIT ( ) );
#118 = CIRCLE ( 'NONE', #145, 0.2500000000000000000 ) ;
#119 = DIRECTION ( 'NONE',  ( 0.000000000000000000, 0.000000000000000000, 1.000000000000000000 ) ) ;
#120 = EDGE_CURVE ( 'NONE', #3, #239, #301, .T. ) ;
#121 = VECTOR ( 'NONE', #7, 39.37007874015748143 ) ;
#122 = DIRECTION ( 'NONE',  ( 0.000000000000000000, 0.000000000000000000, -1.000000000000000000 ) ) ;
#123 = EDGE_CURVE ( 'NONE', #15, #269, #157, .T. ) ;
#124 = ORIENTED_EDGE ( 'NONE', *, *, #21, .T. ) ;
#125 = ORIENTED_EDGE ( 'NONE', *, *, #84, .T. ) ;
#126 = DIMENSIONAL_EXPONENTS ( 1.000000000000000000, 0.000000000000000000, 0.000000000000000000, 0.000000000000000000, 0.000000000000000000, 0.000000000000000000, 0.000000000000000000 ) ;
#127 = DIRECTION ( 'NONE',  ( -1.836970198721029441E-16, 1.000000000000000000, -0.000000000000000000 ) ) ;
#128 = FILL_AREA_STYLE_COLOUR ( '', #86 ) ;
#129 =( GEOMETRIC_REPRESENTATION_CONTEXT ( 3 ) GLOBAL_UNCERTAINTY_ASSIGNED_CONTEXT ( ( #137 ) ) GLOBAL_UNIT_ASSIGNED_CONTEXT ( ( #218, #87, #117 ) ) REPRESENTATION_CONTEXT ( 'NONE', 'WORKASPACE' ) );
#130 = VERTEX_POINT ( 'NONE', #44 ) ;
#131 = EDGE_CURVE ( 'NONE', #269, #15, #190, .T. ) ;
#132 = CARTESIAN_POINT ( 'NONE',  ( 0.000000000000000000, 0.2500000000000000000, 0.000000000000000000 ) ) ;
#133 = ORIENTED_EDGE ( 'NONE', *, *, #319, .T. ) ;
#134 = DIRECTION ( 'NONE',  ( -1.836970198721029441E-16, 1.000000000000000000, -0.000000000000000000 ) ) ;
#135 = CARTESIAN_POINT ( 'NONE',  ( 3.061616997868381785E-17, 0.000000000000000000, 0.2499999999999998612 ) ) ;
#136 = DIRECTION ( 'NONE',  ( 0.000000000000000000, 0.000000000000000000, 1.000000000000000000 ) ) ;
#137 = UNCERTAINTY_MEASURE_WITH_UNIT (LENGTH_MEASURE( 1.000000000000000082E-05 ), #218, 'distance_accuracy_value', 'NONE');
#138 = SURFACE_STYLE_USAGE ( .BOTH. , #294 ) ;
#139 = MECHANICAL_DESIGN_GEOMETRIC_PRESENTATION_REPRESENTATION (  '', ( #249 ), #325 ) ;
#140 = PRESENTATION_LAYER_ASSIGNMENT (  '', '', ( #222 ) ) ;
#141 = DIRECTION ( 'NONE',  ( 0.000000000000000000, 0.000000000000000000, -1.000000000000000000 ) ) ;
#142 =( CONVERSION_BASED_UNIT ( 'INCH', #147 ) LENGTH_UNIT ( ) NAMED_UNIT ( #314 ) );
#143 = ADVANCED_FACE ( 'NONE', ( #353 ), #271, .T. ) ;
#144 = PRODUCT ( '83299', '83299', '', ( #361 ) ) ;
#145 = AXIS2_PLACEMENT_3D ( 'NONE', #245, #365, #107 ) ;
#146 = DIMENSIONAL_EXPONENTS ( 1.000000000000000000, 0.000000000000000000, 0.000000000000000000, 0.000000000000000000, 0.000000000000000000, 0.000000000000000000, 0.000000000000000000 ) ;
#147 = LENGTH_MEASURE_WITH_UNIT ( LENGTH_MEASURE( 0.02539999999999999897 ), #182 );
#148 = DIRECTION ( 'NONE',  ( -0.000000000000000000, -1.000000000000000000, -0.000000000000000000 ) ) ;
#149 = ORIENTED_EDGE ( 'NONE', *, *, #229, .T. ) ;
#150 =( NAMED_UNIT ( * ) SI_UNIT ( $, .STERADIAN. ) SOLID_ANGLE_UNIT ( ) );
#151 = FACE_OUTER_BOUND ( 'NONE', #290, .T. ) ;
#152 = FACE_OUTER_BOUND ( 'NONE', #180, .T. ) ;
#153 = FACE_OUTER_BOUND ( 'NONE', #317, .T. ) ;
#154 = EDGE_LOOP ( 'NONE', ( #196, #124, #133, #263 ) ) ;
#155 = CARTESIAN_POINT ( 'NONE',  ( 0.2499999999999998335, 4.000000000000000000, 0.000000000000000000 ) ) ;
#156 = CIRCLE ( 'NONE', #110, 0.2499999999999997502 ) ;
#157 = CIRCLE ( 'NONE', #89, 0.2499999999999999722 ) ;
#158 = ADVANCED_FACE ( 'NONE', ( #372 ), #69, .T. ) ;
#159 = ORIENTED_EDGE ( 'NONE', *, *, #45, .F. ) ;
#160 = DIRECTION ( 'NONE',  ( 1.000000000000000000, 1.836970198721029441E-16, 0.000000000000000000 ) ) ;
#161 = MECHANICAL_DESIGN_GEOMETRIC_PRESENTATION_REPRESENTATION (  '', ( #337 ), #216 ) ;
#162 = SURFACE_STYLE_USAGE ( .BOTH. , #54 ) ;
#163 = FACE_OUTER_BOUND ( 'NONE', #189, .T. ) ;
#164 = LENGTH_MEASURE_WITH_UNIT ( LENGTH_MEASURE( 0.02539999999999999897 ), #248 );
#165 = CIRCLE ( 'NONE', #264, 0.2500000000000000000 ) ;
#166 = AXIS2_PLACEMENT_3D ( 'NONE', #335, #52, #19 ) ;
#167 = ADVANCED_BREP_SHAPE_REPRESENTATION ( '83299', ( #186, #80, #92 ), #280 ) ;
#168 = VERTEX_POINT ( 'NONE', #213 ) ;
#169 = DIRECTION ( 'NONE',  ( -0.000000000000000000, -1.000000000000000000, -0.000000000000000000 ) ) ;
#170 = DIRECTION ( 'NONE',  ( 1.000000000000000000, 0.000000000000000000, -1.224646799147353207E-16 ) ) ;
#171 = PRODUCT_DEFINITION ( 'UNKNOWN', '', #267, #85 ) ;
#172 = CARTESIAN_POINT ( 'NONE',  ( -0.2500000000000001110, 4.000000000000000000, 0.000000000000000000 ) ) ;
#173 = ORIENTED_EDGE ( 'NONE', *, *, #62, .T. ) ;
#174 = PRESENTATION_LAYER_ASSIGNMENT (  '', '', ( #39 ) ) ;
#175 =( CONVERSION_BASED_UNIT ( 'INCH', #101 ) LENGTH_UNIT ( ) NAMED_UNIT ( #126 ) );
#176 = CARTESIAN_POINT ( 'NONE',  ( 0.000000000000000000, 2.000000000000000000, -0.2499999999999997502 ) ) ;
#177 = ORIENTED_EDGE ( 'NONE', *, *, #62, .F. ) ;
#178 = DIRECTION ( 'NONE',  ( -1.000000000000000000, 0.000000000000000000, 0.000000000000000000 ) ) ;
#179 = ORIENTED_EDGE ( 'NONE', *, *, #252, .F. ) ;
#180 = EDGE_LOOP ( 'NONE', ( #159, #284, #316, #41, #102 ) ) ;
#181 = CLOSED_SHELL ( 'NONE', ( #357, #299, #158, #184 ) ) ;
#182 =( LENGTH_UNIT ( ) NAMED_UNIT ( * ) SI_UNIT ( $, .METRE. ) );
#183 = CARTESIAN_POINT ( 'NONE',  ( -3.061616997868383018E-17, 0.2500000000000000000, 0.000000000000000000 ) ) ;
#184 = ADVANCED_FACE ( 'NONE', ( #235 ), #9, .F. ) ;
#185 = SURFACE_STYLE_FILL_AREA ( #211 ) ;
#186 = MANIFOLD_SOLID_BREP ( 'Revolve - Cutting Edge', #60 ) ;
#187 =( NAMED_UNIT ( * ) PLANE_ANGLE_UNIT ( ) SI_UNIT ( $, .RADIAN. ) );
#188 = ADVANCED_FACE ( 'NONE', ( #163 ), #331, .T. ) ;
#189 = EDGE_LOOP ( 'NONE', ( #177, #51 ) ) ;
#190 = CIRCLE ( 'NONE', #97, 0.2499999999999999722 ) ;
#191 =( CONVERSION_BASED_UNIT ( 'INCH', #164 ) LENGTH_UNIT ( ) NAMED_UNIT ( #26 ) );
#192 = DIRECTION ( 'NONE',  ( 1.000000000000000000, 0.000000000000000000, 0.000000000000000000 ) ) ;
#193 = APPLICATION_PROTOCOL_DEFINITION ( 'draft international standard', 'automotive_design', 1998, #300 ) ;
#194 = COLOUR_RGB ( '',1.000000000000000000, 0.000000000000000000, 0.000000000000000000 ) ;
#195 = AXIS2_PLACEMENT_3D ( 'NONE', #322, #98, #30 ) ;
#196 = ORIENTED_EDGE ( 'NONE', *, *, #84, .F. ) ;
#197 = CARTESIAN_POINT ( 'NONE',  ( 0.2499999999999997502, 2.000000000000000000, 3.061616997868381169E-17 ) ) ;
#198 = EDGE_LOOP ( 'NONE', ( #296, #313, #227, #342 ) ) ;
#199 = EDGE_CURVE ( 'NONE', #37, #130, #118, .T. ) ;
#200 = DIRECTION ( 'NONE',  ( -1.836970198721029441E-16, 1.000000000000000000, -0.000000000000000000 ) ) ;
#201 = CARTESIAN_POINT ( 'NONE',  ( 0.000000000000000000, 2.000000000000000000, 0.000000000000000000 ) ) ;
#202 = ORIENTED_EDGE ( 'NONE', *, *, #123, .F. ) ;
#203 = FILL_AREA_STYLE_COLOUR ( '', #10 ) ;
#204 = CARTESIAN_POINT ( 'NONE',  ( -1.224646799147352468E-16, 4.000000000000000000, 0.000000000000000000 ) ) ;
#205 = DIRECTION ( 'NONE',  ( -1.000000000000000000, 0.000000000000000000, 0.000000000000000000 ) ) ;
#206 = DIRECTION ( 'NONE',  ( -1.836970198721029441E-16, 1.000000000000000000, -0.000000000000000000 ) ) ;
#207 =( GEOMETRIC_REPRESENTATION_CONTEXT ( 3 ) GLOBAL_UNCERTAINTY_ASSIGNED_CONTEXT ( ( #246 ) ) GLOBAL_UNIT_ASSIGNED_CONTEXT ( ( #298, #330, #285 ) ) REPRESENTATION_CONTEXT ( 'NONE', 'WORKASPACE' ) );
#208 = ADVANCED_FACE ( 'NONE', ( #151 ), #304, .T. ) ;
#209 = SURFACE_SIDE_STYLE ('',( #53 ) ) ;
#210 = FILL_AREA_STYLE_COLOUR ( '', #194 ) ;
#211 = FILL_AREA_STYLE ('',( #108 ) ) ;
#212 = SURFACE_STYLE_FILL_AREA ( #12 ) ;
#213 = CARTESIAN_POINT ( 'NONE',  ( 3.061616997868381169E-17, 2.000000000000000000, 0.2499999999999997502 ) ) ;
#214 = UNCERTAINTY_MEASURE_WITH_UNIT (LENGTH_MEASURE( 1.000000000000000082E-05 ), #362, 'distance_accuracy_value', 'NONE');
#215 = LENGTH_MEASURE_WITH_UNIT ( LENGTH_MEASURE( 0.02539999999999999897 ), #88 );
#216 =( GEOMETRIC_REPRESENTATION_CONTEXT ( 3 ) GLOBAL_UNCERTAINTY_ASSIGNED_CONTEXT ( ( #115 ) ) GLOBAL_UNIT_ASSIGNED_CONTEXT ( ( #29, #55, #364 ) ) REPRESENTATION_CONTEXT ( 'NONE', 'WORKASPACE' ) );
#217 = EDGE_CURVE ( 'NONE', #168, #234, #91, .T. ) ;
#218 =( CONVERSION_BASED_UNIT ( 'INCH', #58 ) LENGTH_UNIT ( ) NAMED_UNIT ( #373 ) );
#219 =( NAMED_UNIT ( * ) PLANE_ANGLE_UNIT ( ) SI_UNIT ( $, .RADIAN. ) );
#220 = SURFACE_SIDE_STYLE ('',( #116 ) ) ;
#221 = ADVANCED_FACE ( 'NONE', ( #152 ), #42, .T. ) ;
#222 = STYLED_ITEM ( 'NONE', ( #358 ), #143 ) ;
#223 = CARTESIAN_POINT ( 'NONE',  ( 0.000000000000000000, 0.000000000000000000, -0.2499999999999998612 ) ) ;
#224 = MECHANICAL_DESIGN_GEOMETRIC_PRESENTATION_REPRESENTATION (  '', ( #222 ), #57 ) ;
#225 = DIMENSIONAL_EXPONENTS ( 1.000000000000000000, 0.000000000000000000, 0.000000000000000000, 0.000000000000000000, 0.000000000000000000, 0.000000000000000000, 0.000000000000000000 ) ;
#226 = FILL_AREA_STYLE_COLOUR ( '', #308 ) ;
#227 = ORIENTED_EDGE ( 'NONE', *, *, #131, .F. ) ;
#228 = ORIENTED_EDGE ( 'NONE', *, *, #274, .T. ) ;
#229 = EDGE_CURVE ( 'NONE', #37, #31, #266, .T. ) ;
#230 = CARTESIAN_POINT ( 'NONE',  ( 2.449293598294706414E-16, 2.000000000000000000, 0.000000000000000000 ) ) ;
#231 = EDGE_LOOP ( 'NONE', ( #179, #99, #228, #202 ) ) ;
#232 = DIRECTION ( 'NONE',  ( 1.224646799147353207E-16, -0.000000000000000000, 1.000000000000000000 ) ) ;
#233 = DIRECTION ( 'NONE',  ( -0.000000000000000000, -1.000000000000000000, -0.000000000000000000 ) ) ;
#234 = VERTEX_POINT ( 'NONE', #176 ) ;
#235 = FACE_OUTER_BOUND ( 'NONE', #33, .T. ) ;
#236 = CARTESIAN_POINT ( 'NONE',  ( 0.000000000000000000, 0.2500000000000000000, 0.000000000000000000 ) ) ;
#237 =( NAMED_UNIT ( * ) PLANE_ANGLE_UNIT ( ) SI_UNIT ( $, .RADIAN. ) );
#238 = EDGE_CURVE ( 'NONE', #239, #3, #307, .T. ) ;
#239 = VERTEX_POINT ( 'NONE', #197 ) ;
#240 = DIRECTION ( 'NONE',  ( -1.000000000000000000, 0.000000000000000000, 0.000000000000000000 ) ) ;
#241 = FILL_AREA_STYLE ('',( #77 ) ) ;
#242 = PRESENTATION_LAYER_ASSIGNMENT (  '', '', ( #256 ) ) ;
#243 = SHAPE_DEFINITION_REPRESENTATION ( #303, #167 ) ;
#244 = LENGTH_MEASURE_WITH_UNIT ( LENGTH_MEASURE( 0.02539999999999999897 ), #114 );
#245 = CARTESIAN_POINT ( 'NONE',  ( -3.061616997868383018E-17, 0.2500000000000000000, 0.000000000000000000 ) ) ;
#246 = UNCERTAINTY_MEASURE_WITH_UNIT (LENGTH_MEASURE( 1.000000000000000082E-05 ), #298, 'distance_accuracy_value', 'NONE');
#247 = PRESENTATION_STYLE_ASSIGNMENT (( #138 ) ) ;
#248 =( LENGTH_UNIT ( ) NAMED_UNIT ( * ) SI_UNIT ( $, .METRE. ) );
#249 = STYLED_ITEM ( 'NONE', ( #265 ), #332 ) ;
#250 =( NAMED_UNIT ( * ) SI_UNIT ( $, .STERADIAN. ) SOLID_ANGLE_UNIT ( ) );
#251 = UNCERTAINTY_MEASURE_WITH_UNIT (LENGTH_MEASURE( 1.000000000000000082E-05 ), #175, 'distance_accuracy_value', 'NONE');
#252 = EDGE_CURVE ( 'NONE', #239, #15, #346, .T. ) ;
#253 = AXIS2_PLACEMENT_3D ( 'NONE', #340, #95, #13 ) ;
#254 = AXIS2_PLACEMENT_3D ( 'NONE', #132, #260, #352 ) ;
#255 = CIRCLE ( 'NONE', #106, 0.2500000000000000000 ) ;
#256 = STYLED_ITEM ( 'NONE', ( #369 ), #188 ) ;
#257 = LINE ( 'NONE', #223, #40 ) ;
#258 = CIRCLE ( 'NONE', #22, 0.2500000000000000000 ) ;
#259 = ORIENTED_EDGE ( 'NONE', *, *, #45, .T. ) ;
#260 = DIRECTION ( 'NONE',  ( -0.000000000000000000, -1.000000000000000000, -0.000000000000000000 ) ) ;
#261 = ORIENTED_EDGE ( 'NONE', *, *, #199, .F. ) ;
#262 = DIRECTION ( 'NONE',  ( -1.000000000000000000, 0.000000000000000000, 0.000000000000000000 ) ) ;
#263 = ORIENTED_EDGE ( 'NONE', *, *, #199, .T. ) ;
#264 = AXIS2_PLACEMENT_3D ( 'NONE', #236, #328, #326 ) ;
#265 = PRESENTATION_STYLE_ASSIGNMENT (( #344 ) ) ;
#266 = CIRCLE ( 'NONE', #273, 0.2500000000000000000 ) ;
#267 = PRODUCT_DEFINITION_FORMATION_WITH_SPECIFIED_SOURCE ( 'ANY', '', #144, .NOT_KNOWN. ) ;
#268 = PRESENTATION_STYLE_ASSIGNMENT (( #38 ) ) ;
#269 = VERTEX_POINT ( 'NONE', #172 ) ;
#270 = CARTESIAN_POINT ( 'NONE',  ( 0.000000000000000000, 2.000000000000000000, 0.000000000000000000 ) ) ;
#271 = CYLINDRICAL_SURFACE ( 'NONE', #283, 0.2499999999999998612 ) ;
#272 = SURFACE_STYLE_FILL_AREA ( #241 ) ;
#273 = AXIS2_PLACEMENT_3D ( 'NONE', #71, #76, #312 ) ;
#274 = EDGE_CURVE ( 'NONE', #3, #269, #287, .T. ) ;
#275 = CARTESIAN_POINT ( 'NONE',  ( 0.000000000000000000, 0.000000000000000000, 0.000000000000000000 ) ) ;
#276 = MECHANICAL_DESIGN_GEOMETRIC_PRESENTATION_REPRESENTATION (  '', ( #371 ), #354 ) ;
#277 = LENGTH_MEASURE_WITH_UNIT ( LENGTH_MEASURE( 0.02539999999999999897 ), #324 );
#278 = CARTESIAN_POINT ( 'NONE',  ( 0.000000000000000000, 0.000000000000000000, 0.000000000000000000 ) ) ;
#279 = ORIENTED_EDGE ( 'NONE', *, *, #120, .F. ) ;
#280 =( GEOMETRIC_REPRESENTATION_CONTEXT ( 3 ) GLOBAL_UNCERTAINTY_ASSIGNED_CONTEXT ( ( #370 ) ) GLOBAL_UNIT_ASSIGNED_CONTEXT ( ( #142, #282, #343 ) ) REPRESENTATION_CONTEXT ( 'NONE', 'WORKASPACE' ) );
#281 = COLOUR_RGB ( '',0.7921568627450980005, 0.8196078431372548767, 0.9333333333333333481 ) ;
#282 =( NAMED_UNIT ( * ) PLANE_ANGLE_UNIT ( ) SI_UNIT ( $, .RADIAN. ) );
#283 = AXIS2_PLACEMENT_3D ( 'NONE', #275, #63, #141 ) ;
#284 = ORIENTED_EDGE ( 'NONE', *, *, #217, .T. ) ;
#285 =( NAMED_UNIT ( * ) SI_UNIT ( $, .STERADIAN. ) SOLID_ANGLE_UNIT ( ) );
#286 = PLANE ( 'NONE',  #195 ) ;
#287 = LINE ( 'NONE', #96, #323 ) ;
#288 = CARTESIAN_POINT ( 'NONE',  ( 0.000000000000000000, 0.2500000000000000000, -0.2500000000000000000 ) ) ;
#289 = AXIS2_PLACEMENT_3D ( 'NONE', #201, #93, #67 ) ;
#290 = EDGE_LOOP ( 'NONE', ( #347, #125, #261, #149 ) ) ;
#291 = LINE ( 'NONE', #135, #74 ) ;
#292 = FILL_AREA_STYLE_COLOUR ( '', #295 ) ;
#293 =( CONVERSION_BASED_UNIT ( 'INCH', #81 ) LENGTH_UNIT ( ) NAMED_UNIT ( #146 ) );
#294 = SURFACE_SIDE_STYLE ('',( #185 ) ) ;
#295 = COLOUR_RGB ( '',1.000000000000000000, 0.000000000000000000, 0.000000000000000000 ) ;
#296 = ORIENTED_EDGE ( 'NONE', *, *, #120, .T. ) ;
#297 =( LENGTH_UNIT ( ) NAMED_UNIT ( * ) SI_UNIT ( $, .METRE. ) );
#298 =( CONVERSION_BASED_UNIT ( 'INCH', #215 ) LENGTH_UNIT ( ) NAMED_UNIT ( #310 ) );
#299 = ADVANCED_FACE ( 'NONE', ( #153 ), #286, .F. ) ;
#300 = APPLICATION_CONTEXT ( 'automotive_design' ) ;
#301 = CIRCLE ( 'NONE', #253, 0.2499999999999995282 ) ;
#302 = PRESENTATION_LAYER_ASSIGNMENT (  '', '', ( #371 ) ) ;
#303 = PRODUCT_DEFINITION_SHAPE ( 'NONE', 'NONE',  #171 ) ;
#304 = SPHERICAL_SURFACE ( 'NONE', #2, 0.2500000000000000000 ) ;
#305 = CARTESIAN_POINT ( 'NONE',  ( 0.000000000000000000, 0.000000000000000000, 0.000000000000000000 ) ) ;
#306 = STYLED_ITEM ( 'NONE', ( #247 ), #80 ) ;
#307 = CIRCLE ( 'NONE', #75, 0.2499999999999995282 ) ;
#308 = COLOUR_RGB ( '',1.000000000000000000, 0.000000000000000000, 0.000000000000000000 ) ;
#309 = VERTEX_POINT ( 'NONE', #4 ) ;
#310 = DIMENSIONAL_EXPONENTS ( 1.000000000000000000, 0.000000000000000000, 0.000000000000000000, 0.000000000000000000, 0.000000000000000000, 0.000000000000000000, 0.000000000000000000 ) ;
#311 = VERTEX_POINT ( 'NONE', #288 ) ;
#312 = DIRECTION ( 'NONE',  ( 0.000000000000000000, 0.000000000000000000, -1.000000000000000000 ) ) ;
#313 = ORIENTED_EDGE ( 'NONE', *, *, #252, .T. ) ;
#314 = DIMENSIONAL_EXPONENTS ( 1.000000000000000000, 0.000000000000000000, 0.000000000000000000, 0.000000000000000000, 0.000000000000000000, 0.000000000000000000, 0.000000000000000000 ) ;
#315 = PRESENTATION_LAYER_ASSIGNMENT (  '', '', ( #337 ) ) ;
#316 = ORIENTED_EDGE ( 'NONE', *, *, #348, .T. ) ;
#317 = EDGE_LOOP ( 'NONE', ( #279, #320 ) ) ;
#318 =( NAMED_UNIT ( * ) SI_UNIT ( $, .STERADIAN. ) SOLID_ANGLE_UNIT ( ) );
#319 = EDGE_CURVE ( 'NONE', #311, #37, #258, .T. ) ;
#320 = ORIENTED_EDGE ( 'NONE', *, *, #238, .F. ) ;
#321 = DIRECTION ( 'NONE',  ( -1.000000000000000000, 0.000000000000000000, 0.000000000000000000 ) ) ;
#322 = CARTESIAN_POINT ( 'NONE',  ( 2.449293598294706414E-16, 2.000000000000000000, 0.000000000000000000 ) ) ;
#323 = VECTOR ( 'NONE', #127, 39.37007874015748143 ) ;
#324 =( LENGTH_UNIT ( ) NAMED_UNIT ( * ) SI_UNIT ( $, .METRE. ) );
#325 =( GEOMETRIC_REPRESENTATION_CONTEXT ( 3 ) GLOBAL_UNCERTAINTY_ASSIGNED_CONTEXT ( ( #251 ) ) GLOBAL_UNIT_ASSIGNED_CONTEXT ( ( #175, #237, #150 ) ) REPRESENTATION_CONTEXT ( 'NONE', 'WORKASPACE' ) );
#326 = DIRECTION ( 'NONE',  ( 0.000000000000000000, 0.000000000000000000, -1.000000000000000000 ) ) ;
#327 = EDGE_CURVE ( 'NONE', #31, #309, #333, .T. ) ;
#328 = DIRECTION ( 'NONE',  ( -0.000000000000000000, -1.000000000000000000, -0.000000000000000000 ) ) ;
#329 = FILL_AREA_STYLE ('',( #210 ) ) ;
#330 =( NAMED_UNIT ( * ) PLANE_ANGLE_UNIT ( ) SI_UNIT ( $, .RADIAN. ) );
#331 = PLANE ( 'NONE',  #166 ) ;
#332 = ADVANCED_FACE ( 'NONE', ( #36 ), #113, .T. ) ;
#333 = CIRCLE ( 'NONE', #254, 0.2500000000000000000 ) ;
#334 = AXIS2_PLACEMENT_3D ( 'NONE', #104, #134, #178 ) ;
#335 = CARTESIAN_POINT ( 'NONE',  ( 0.000000000000000000, 2.000000000000000000, 0.000000000000000000 ) ) ;
#336 = FILL_AREA_STYLE ('',( #203 ) ) ;
#337 = STYLED_ITEM ( 'NONE', ( #16 ), #221 ) ;
#338 = CARTESIAN_POINT ( 'NONE',  ( -3.061616997868383018E-17, 0.2500000000000000000, 0.000000000000000000 ) ) ;
#339 = APPLICATION_CONTEXT ( 'automotive_design' ) ;
#340 = CARTESIAN_POINT ( 'NONE',  ( 2.449293598294706414E-16, 2.000000000000000000, 0.000000000000000000 ) ) ;
#341 = SURFACE_STYLE_FILL_AREA ( #34 ) ;
#342 = ORIENTED_EDGE ( 'NONE', *, *, #274, .F. ) ;
#343 =( NAMED_UNIT ( * ) SI_UNIT ( $, .STERADIAN. ) SOLID_ANGLE_UNIT ( ) );
#344 = SURFACE_STYLE_USAGE ( .BOTH. , #349 ) ;
#345 = ORIENTED_EDGE ( 'NONE', *, *, #348, .F. ) ;
#346 = LINE ( 'NONE', #14, #121 ) ;
#347 = ORIENTED_EDGE ( 'NONE', *, *, #327, .T. ) ;
#348 = EDGE_CURVE ( 'NONE', #234, #311, #257, .T. ) ;
#349 = SURFACE_SIDE_STYLE ('',( #341 ) ) ;
#350 =( LENGTH_UNIT ( ) NAMED_UNIT ( * ) SI_UNIT ( $, .METRE. ) );
#351 = CYLINDRICAL_SURFACE ( 'NONE', #105, 0.2499999999999997224 ) ;
#352 = DIRECTION ( 'NONE',  ( 0.000000000000000000, 0.000000000000000000, -1.000000000000000000 ) ) ;
#353 = FACE_OUTER_BOUND ( 'NONE', #68, .T. ) ;
#354 =( GEOMETRIC_REPRESENTATION_CONTEXT ( 3 ) GLOBAL_UNCERTAINTY_ASSIGNED_CONTEXT ( ( #214 ) ) GLOBAL_UNIT_ASSIGNED_CONTEXT ( ( #362, #368, #318 ) ) REPRESENTATION_CONTEXT ( 'NONE', 'WORKASPACE' ) );
#355 = SURFACE_SIDE_STYLE ('',( #272 ) ) ;
#356 = DIRECTION ( 'NONE',  ( 0.000000000000000000, 0.000000000000000000, -1.000000000000000000 ) ) ;
#357 = ADVANCED_FACE ( 'NONE', ( #28 ), #351, .T. ) ;
#358 = PRESENTATION_STYLE_ASSIGNMENT (( #20 ) ) ;
#359 = CARTESIAN_POINT ( 'NONE',  ( 0.2499999999999998335, 4.000000000000000000, 3.061616997868381169E-17 ) ) ;
#360 = DIRECTION ( 'NONE',  ( -1.836970198721029441E-16, 1.000000000000000000, -0.000000000000000000 ) ) ;
#361 = PRODUCT_CONTEXT ( 'NONE', #300, 'mechanical' ) ;
#362 =( CONVERSION_BASED_UNIT ( 'INCH', #244 ) LENGTH_UNIT ( ) NAMED_UNIT ( #5 ) );
#363 = UNCERTAINTY_MEASURE_WITH_UNIT (LENGTH_MEASURE( 1.000000000000000082E-05 ), #293, 'distance_accuracy_value', 'NONE');
#364 =( NAMED_UNIT ( * ) SI_UNIT ( $, .STERADIAN. ) SOLID_ANGLE_UNIT ( ) );
#365 = DIRECTION ( 'NONE',  ( 0.000000000000000000, 0.000000000000000000, -1.000000000000000000 ) ) ;
#366 = MECHANICAL_DESIGN_GEOMETRIC_PRESENTATION_REPRESENTATION (  '', ( #306 ), #207 ) ;
#367 = COLOUR_RGB ( '',0.7921568627450980005, 0.8196078431372548767, 0.9333333333333333481 ) ;
#368 =( NAMED_UNIT ( * ) PLANE_ANGLE_UNIT ( ) SI_UNIT ( $, .RADIAN. ) );
#369 = PRESENTATION_STYLE_ASSIGNMENT (( #25 ) ) ;
#370 = UNCERTAINTY_MEASURE_WITH_UNIT (LENGTH_MEASURE( 1.000000000000000082E-05 ), #142, 'distance_accuracy_value', 'NONE');
#371 = STYLED_ITEM ( 'NONE', ( #23 ), #208 ) ;
#372 = FACE_OUTER_BOUND ( 'NONE', #231, .T. ) ;
#373 = DIMENSIONAL_EXPONENTS ( 1.000000000000000000, 0.000000000000000000, 0.000000000000000000, 0.000000000000000000, 0.000000000000000000, 0.000000000000000000, 0.000000000000000000 ) ;
ENDSEC;
END-ISO-10303-21;
