ISO-10303-21;
HEADER;
FILE_DESCRIPTION (( 'STEP AP214' ),
    '1' );
FILE_NAME ('Micro_RME-010-2X.STEP',
    '2021-09-01T22:22:29',
    ( '' ),
    ( '' ),
    'SwSTEP 2.0',
    'SolidWorks 2020',
    '' );
FILE_SCHEMA (( 'AUTOMOTIVE_DESIGN' ));
ENDSEC;

DATA;
#1 = ADVANCED_FACE ( 'NONE', ( #33 ), #70, .T. ) ;
#2 = EDGE_LOOP ( 'NONE', ( #49, #122, #50, #209 ) ) ;
#3 = VERTEX_POINT ( 'NONE', #106 ) ;
#4 = CARTESIAN_POINT ( 'NONE',  ( -0.04750000000000064587, 0.0000000000000000000, 1.500000000000000222 ) ) ;
#5 = PLANE ( 'NONE',  #143 ) ;
#6 = ADVANCED_FACE ( 'NONE', ( #75 ), #130, .T. ) ;
#7 = DIRECTION ( 'NONE',  ( -0.0000000000000000000, -0.0000000000000000000, -1.000000000000000000 ) ) ;
#8 = CONICAL_SURFACE ( 'NONE', #180, 0.04750000000000064587, 0.7853981633974466137 ) ;
#9 = AXIS2_PLACEMENT_3D ( 'NONE', #76, #40, #282 ) ;
#10 = PLANE ( 'NONE',  #21 ) ;
#11 = EDGE_LOOP ( 'NONE', ( #141, #257 ) ) ;
#12 = FACE_OUTER_BOUND ( 'NONE', #11, .T. ) ;
#13 = DIRECTION ( 'NONE',  ( -1.000000000000000000, 0.0000000000000000000, 0.0000000000000000000 ) ) ;
#14 = ADVANCED_FACE ( 'NONE', ( #16 ), #115, .T. ) ;
#15 = DIRECTION ( 'NONE',  ( 1.000000000000000000, 0.0000000000000000000, 0.0000000000000000000 ) ) ;
#16 = FACE_OUTER_BOUND ( 'NONE', #116, .T. ) ;
#17 = DIMENSIONAL_EXPONENTS ( 1.000000000000000000, 0.0000000000000000000, 0.0000000000000000000, 0.0000000000000000000, 0.0000000000000000000, 0.0000000000000000000, 0.0000000000000000000 ) ;
#18 = AXIS2_PLACEMENT_3D ( 'NONE', #197, #273, #220 ) ;
#19 =( LENGTH_UNIT ( ) NAMED_UNIT ( * ) SI_UNIT ( $, .METRE. ) );
#20 = CARTESIAN_POINT ( 'NONE',  ( 0.0000000000000000000, 0.0000000000000000000, 1.485000000000000764 ) ) ;
#21 = AXIS2_PLACEMENT_3D ( 'NONE', #239, #171, #169 ) ;
#22 =( GEOMETRIC_REPRESENTATION_CONTEXT ( 3 ) GLOBAL_UNCERTAINTY_ASSIGNED_CONTEXT ( ( #164 ) ) GLOBAL_UNIT_ASSIGNED_CONTEXT ( ( #202, #271, #249 ) ) REPRESENTATION_CONTEXT ( 'NONE', 'WORKASPACE' ) );
#23 = VECTOR ( 'NONE', #274, 39.37007874015748143 ) ;
#24 =( GEOMETRIC_REPRESENTATION_CONTEXT ( 3 ) GLOBAL_UNCERTAINTY_ASSIGNED_CONTEXT ( ( #253 ) ) GLOBAL_UNIT_ASSIGNED_CONTEXT ( ( #188, #147, #182 ) ) REPRESENTATION_CONTEXT ( 'NONE', 'WORKASPACE' ) );
#25 = FILL_AREA_STYLE_COLOUR ( '', #96 ) ;
#26 = ORIENTED_EDGE ( 'NONE', *, *, #240, .F. ) ;
#27 = VERTEX_POINT ( 'NONE', #57 ) ;
#28 = AXIS2_PLACEMENT_3D ( 'NONE', #245, #250, #132 ) ;
#29 = CIRCLE ( 'NONE', #194, 0.04750000000000064587 ) ;
#30 = CARTESIAN_POINT ( 'NONE',  ( 3.673940397442054568E-18, 0.0000000000000000000, 0.02999999999999995379 ) ) ;
#31 = DIRECTION ( 'NONE',  ( 1.000000000000000000, 0.0000000000000000000, 0.0000000000000000000 ) ) ;
#32 = EDGE_LOOP ( 'NONE', ( #195, #79 ) ) ;
#33 = FACE_OUTER_BOUND ( 'NONE', #2, .T. ) ;
#34 = CIRCLE ( 'NONE', #28, 0.004994999999999982961 ) ;
#35 = DIRECTION ( 'NONE',  ( -0.1736481776669313026, 2.126576849575784549E-17, 0.9848077530122077983 ) ) ;
#36 = APPLICATION_CONTEXT ( 'automotive_design' ) ;
#37 = DIRECTION ( 'NONE',  ( 1.224646799147353454E-16, 0.0000000000000000000, 1.000000000000000000 ) ) ;
#38 = ADVANCED_FACE ( 'NONE', ( #61 ), #192, .T. ) ;
#39 = CARTESIAN_POINT ( 'NONE',  ( -0.004994999999999976889, 4.132876785422530113E-18, 0.02999999999999995379 ) ) ;
#40 = DIRECTION ( 'NONE',  ( -1.224646799147353454E-16, -0.0000000000000000000, -1.000000000000000000 ) ) ;
#41 = DIRECTION ( 'NONE',  ( -1.224646799147353454E-16, -0.0000000000000000000, -1.000000000000000000 ) ) ;
#42 = AXIS2_PLACEMENT_3D ( 'NONE', #30, #146, #123 ) ;
#43 = CARTESIAN_POINT ( 'NONE',  ( 7.491300114395956194E-35, 0.0000000000000000000, 6.117110761741009485E-19 ) ) ;
#44 = FACE_OUTER_BOUND ( 'NONE', #160, .T. ) ;
#45 = FILL_AREA_STYLE ('',( #25 ) ) ;
#46 = DIRECTION ( 'NONE',  ( 0.0000000000000000000, 0.0000000000000000000, -1.000000000000000000 ) ) ;
#47 = SURFACE_STYLE_FILL_AREA ( #45 ) ;
#48 = VERTEX_POINT ( 'NONE', #269 ) ;
#49 = ORIENTED_EDGE ( 'NONE', *, *, #297, .F. ) ;
#50 = ORIENTED_EDGE ( 'NONE', *, *, #52, .T. ) ;
#51 =( LENGTH_UNIT ( ) NAMED_UNIT ( * ) SI_UNIT ( $, .METRE. ) );
#52 = EDGE_CURVE ( 'NONE', #159, #185, #64, .T. ) ;
#53 = ORIENTED_EDGE ( 'NONE', *, *, #60, .T. ) ;
#54 = AXIS2_PLACEMENT_3D ( 'NONE', #178, #196, #200 ) ;
#55 = CARTESIAN_POINT ( 'NONE',  ( 0.06250000000000002776, 7.654042494670959086E-18, 1.500000000000000222 ) ) ;
#56 = DIRECTION ( 'NONE',  ( -1.000000000000000000, 0.0000000000000000000, 0.0000000000000000000 ) ) ;
#57 = CARTESIAN_POINT ( 'NONE',  ( 0.004994999999999982961, 6.117110761741006596E-19, -1.184750211852384294E-34 ) ) ;
#58 = VERTEX_POINT ( 'NONE', #4 ) ;
#59 = CARTESIAN_POINT ( 'NONE',  ( 0.0000000000000000000, 0.0000000000000000000, 1.500000000000000222 ) ) ;
#60 = EDGE_CURVE ( 'NONE', #186, #185, #258, .T. ) ;
#61 = FACE_OUTER_BOUND ( 'NONE', #216, .T. ) ;
#62 = CIRCLE ( 'NONE', #281, 0.06250000000000002776 ) ;
#63 = CARTESIAN_POINT ( 'NONE',  ( 0.0000000000000000000, 0.0000000000000000000, 1.500000000000000222 ) ) ;
#64 = LINE ( 'NONE', #74, #275 ) ;
#65 = APPLICATION_CONTEXT ( 'automotive_design' ) ;
#66 =( LENGTH_UNIT ( ) NAMED_UNIT ( * ) SI_UNIT ( $, .METRE. ) );
#67 = DIRECTION ( 'NONE',  ( -1.000000000000000000, 0.0000000000000000000, 0.0000000000000000000 ) ) ;
#68 = ADVANCED_FACE ( 'NONE', ( #234 ), #142, .T. ) ;
#69 = FILL_AREA_STYLE_COLOUR ( '', #222 ) ;
#70 = CONICAL_SURFACE ( 'NONE', #89, 0.004994999999999980358, 0.1745329251994340303 ) ;
#71 = APPLICATION_PROTOCOL_DEFINITION ( 'draft international standard', 'automotive_design', 1998, #36 ) ;
#72 = ADVANCED_FACE ( 'NONE', ( #207 ), #8, .T. ) ;
#73 = PRESENTATION_LAYER_ASSIGNMENT (  '', '', ( #166 ) ) ;
#74 = CARTESIAN_POINT ( 'NONE',  ( 0.004994999999999982961, 0.0000000000000000000, 0.02999999999999995379 ) ) ;
#75 = FACE_OUTER_BOUND ( 'NONE', #77, .T. ) ;
#76 = CARTESIAN_POINT ( 'NONE',  ( 3.673940397442054568E-18, 0.0000000000000000000, 0.02999999999999995379 ) ) ;
#77 = EDGE_LOOP ( 'NONE', ( #288, #189, #276, #148 ) ) ;
#78 = DIRECTION ( 'NONE',  ( -1.224646799147353454E-16, -0.0000000000000000000, -1.000000000000000000 ) ) ;
#79 = ORIENTED_EDGE ( 'NONE', *, *, #254, .T. ) ;
#80 = CARTESIAN_POINT ( 'NONE',  ( 0.004994999999999982961, 0.0000000000000000000, 0.02999999999999995379 ) ) ;
#81 = EDGE_CURVE ( 'NONE', #3, #185, #93, .T. ) ;
#82 = CARTESIAN_POINT ( 'NONE',  ( 0.0000000000000000000, 0.0000000000000000000, 1.500000000000000222 ) ) ;
#83 = AXIS2_PLACEMENT_3D ( 'NONE', #261, #243, #13 ) ;
#84 = AXIS2_PLACEMENT_3D ( 'NONE', #63, #237, #110 ) ;
#85 = DIRECTION ( 'NONE',  ( 0.0000000000000000000, 0.0000000000000000000, 1.000000000000000000 ) ) ;
#86 = DIRECTION ( 'NONE',  ( -1.224646799147353454E-16, -0.0000000000000000000, -1.000000000000000000 ) ) ;
#87 = DIRECTION ( 'NONE',  ( -0.7071067811865462405, 0.0000000000000000000, -0.7071067811865486830 ) ) ;
#88 =( NAMED_UNIT ( * ) SI_UNIT ( $, .STERADIAN. ) SOLID_ANGLE_UNIT ( ) );
#89 = AXIS2_PLACEMENT_3D ( 'NONE', #280, #37, #129 ) ;
#90 = CIRCLE ( 'NONE', #84, 0.04750000000000064587 ) ;
#91 = DIRECTION ( 'NONE',  ( 1.000000000000000000, 0.0000000000000000000, 0.0000000000000000000 ) ) ;
#92 = PRODUCT_RELATED_PRODUCT_CATEGORY ( 'part', '', ( #184 ) ) ;
#93 = CIRCLE ( 'NONE', #54, 0.06250000000000002776 ) ;
#94 = ORIENTED_EDGE ( 'NONE', *, *, #251, .F. ) ;
#95 = VECTOR ( 'NONE', #78, 39.37007874015748143 ) ;
#96 = COLOUR_RGB ( '',0.7921568627450980005, 0.8196078431372548767, 0.9333333333333333481 ) ;
#97 = ORIENTED_EDGE ( 'NONE', *, *, #227, .T. ) ;
#98 = EDGE_CURVE ( 'NONE', #186, #230, #256, .T. ) ;
#99 = VERTEX_POINT ( 'NONE', #296 ) ;
#100 = AXIS2_PLACEMENT_3D ( 'NONE', #219, #86, #176 ) ;
#101 = EDGE_LOOP ( 'NONE', ( #206, #263, #97, #228 ) ) ;
#102 = LINE ( 'NONE', #285, #162 ) ;
#103 = ORIENTED_EDGE ( 'NONE', *, *, #265, .F. ) ;
#104 = EDGE_CURVE ( 'NONE', #27, #99, #34, .T. ) ;
#105 = FACE_OUTER_BOUND ( 'NONE', #32, .T. ) ;
#106 = CARTESIAN_POINT ( 'NONE',  ( -0.06249999999999997918, 0.0000000000000000000, 0.3561270610371145007 ) ) ;
#107 = CARTESIAN_POINT ( 'NONE',  ( 0.0000000000000000000, 0.0000000000000000000, 1.485000000000000764 ) ) ;
#108 = ORIENTED_EDGE ( 'NONE', *, *, #140, .F. ) ;
#109 =( GEOMETRIC_REPRESENTATION_CONTEXT ( 3 ) GLOBAL_UNCERTAINTY_ASSIGNED_CONTEXT ( ( #278 ) ) GLOBAL_UNIT_ASSIGNED_CONTEXT ( ( #198, #294, #88 ) ) REPRESENTATION_CONTEXT ( 'NONE', 'WORKASPACE' ) );
#110 = DIRECTION ( 'NONE',  ( 1.000000000000000000, 0.0000000000000000000, 0.0000000000000000000 ) ) ;
#111 = SURFACE_SIDE_STYLE ('',( #218 ) ) ;
#112 = DIRECTION ( 'NONE',  ( -1.000000000000000000, 0.0000000000000000000, 0.0000000000000000000 ) ) ;
#113 = LENGTH_MEASURE_WITH_UNIT ( LENGTH_MEASURE( 0.02539999999999999897 ), #19 );
#114 = EDGE_CURVE ( 'NONE', #159, #27, #133, .T. ) ;
#115 = CONICAL_SURFACE ( 'NONE', #83, 0.04750000000000064587, 0.7853981633974466137 ) ;
#116 = EDGE_LOOP ( 'NONE', ( #94, #103, #211, #118 ) ) ;
#117 = AXIS2_PLACEMENT_3D ( 'NONE', #43, #41, #221 ) ;
#118 = ORIENTED_EDGE ( 'NONE', *, *, #98, .F. ) ;
#119 = SURFACE_SIDE_STYLE ('',( #47 ) ) ;
#120 = ORIENTED_EDGE ( 'NONE', *, *, #52, .F. ) ;
#121 = STYLED_ITEM ( 'NONE', ( #277 ), #154 ) ;
#122 = ORIENTED_EDGE ( 'NONE', *, *, #246, .F. ) ;
#123 = DIRECTION ( 'NONE',  ( 1.000000000000000000, 0.0000000000000000000, 0.0000000000000000000 ) ) ;
#124 = FACE_OUTER_BOUND ( 'NONE', #101, .T. ) ;
#125 = ORIENTED_EDGE ( 'NONE', *, *, #151, .T. ) ;
#126 = CIRCLE ( 'NONE', #100, 0.06250000000000002776 ) ;
#127 = DIRECTION ( 'NONE',  ( -1.000000000000000000, 0.0000000000000000000, 1.224646799147353207E-16 ) ) ;
#128 = PRODUCT_DEFINITION_FORMATION_WITH_SPECIFIED_SOURCE ( 'ANY', '', #184, .NOT_KNOWN. ) ;
#129 = DIRECTION ( 'NONE',  ( 1.000000000000000000, 0.0000000000000000000, 0.0000000000000000000 ) ) ;
#130 = CYLINDRICAL_SURFACE ( 'NONE', #231, 0.004994999999999981226 ) ;
#131 = CARTESIAN_POINT ( 'NONE',  ( -0.04750000000000064587, 0.0000000000000000000, 1.500000000000000222 ) ) ;
#132 = DIRECTION ( 'NONE',  ( -1.000000000000000000, 0.0000000000000000000, 1.224646799147353454E-16 ) ) ;
#133 = LINE ( 'NONE', #272, #23 ) ;
#134 = DIRECTION ( 'NONE',  ( -0.0000000000000000000, -0.0000000000000000000, -1.000000000000000000 ) ) ;
#135 = SURFACE_STYLE_USAGE ( .BOTH. , #111 ) ;
#136 = EDGE_CURVE ( 'NONE', #99, #27, #187, .T. ) ;
#137 = MANIFOLD_SOLID_BREP ( 'Cut-Revolve1', #224 ) ;
#138 = ORIENTED_EDGE ( 'NONE', *, *, #81, .T. ) ;
#139 = ORIENTED_EDGE ( 'NONE', *, *, #60, .F. ) ;
#140 = EDGE_CURVE ( 'NONE', #185, #3, #126, .T. ) ;
#141 = ORIENTED_EDGE ( 'NONE', *, *, #136, .T. ) ;
#142 = CONICAL_SURFACE ( 'NONE', #42, 0.004994999999999980358, 0.1745329251994340303 ) ;
#143 = AXIS2_PLACEMENT_3D ( 'NONE', #59, #85, #174 ) ;
#144 = DIRECTION ( 'NONE',  ( -0.0000000000000000000, -0.0000000000000000000, -1.000000000000000000 ) ) ;
#145 = DIRECTION ( 'NONE',  ( 0.0000000000000000000, 0.0000000000000000000, 1.000000000000000000 ) ) ;
#146 = DIRECTION ( 'NONE',  ( 1.224646799147353454E-16, 0.0000000000000000000, 1.000000000000000000 ) ) ;
#147 =( NAMED_UNIT ( * ) PLANE_ANGLE_UNIT ( ) SI_UNIT ( $, .RADIAN. ) );
#148 = ORIENTED_EDGE ( 'NONE', *, *, #227, .F. ) ;
#149 = DIRECTION ( 'NONE',  ( -1.000000000000000000, 0.0000000000000000000, 1.224646799147353207E-16 ) ) ;
#150 = VECTOR ( 'NONE', #87, 39.37007874015748854 ) ;
#151 = EDGE_CURVE ( 'NONE', #230, #3, #175, .T. ) ;
#152 = PRODUCT_DEFINITION_SHAPE ( 'NONE', 'NONE',  #191 ) ;
#153 = DIRECTION ( 'NONE',  ( -0.0000000000000000000, -0.0000000000000000000, -1.000000000000000000 ) ) ;
#154 = ADVANCED_BREP_SHAPE_REPRESENTATION ( 'Micro_RME-010-2X', ( #137, #18 ), #24 ) ;
#155 = CARTESIAN_POINT ( 'NONE',  ( -0.06250000000000002776, 0.0000000000000000000, 1.500000000000000222 ) ) ;
#156 = PRODUCT_CONTEXT ( 'NONE', #65, 'mechanical' ) ;
#157 = ADVANCED_FACE ( 'NONE', ( #44 ), #270, .T. ) ;
#158 = FILL_AREA_STYLE ('',( #69 ) ) ;
#159 = VERTEX_POINT ( 'NONE', #80 ) ;
#160 = EDGE_LOOP ( 'NONE', ( #139, #255, #125, #108 ) ) ;
#161 = VECTOR ( 'NONE', #153, 39.37007874015748143 ) ;
#162 = VECTOR ( 'NONE', #264, 39.37007874015748854 ) ;
#163 = VERTEX_POINT ( 'NONE', #39 ) ;
#164 = UNCERTAINTY_MEASURE_WITH_UNIT (LENGTH_MEASURE( 1.000000000000000082E-05 ), #202, 'distance_accuracy_value', 'NONE');
#165 = DIRECTION ( 'NONE',  ( 0.1736481776669315247, 0.0000000000000000000, 0.9848077530122077983 ) ) ;
#166 = STYLED_ITEM ( 'NONE', ( #248 ), #137 ) ;
#167 = DIRECTION ( 'NONE',  ( -1.224646799147353454E-16, -0.0000000000000000000, -1.000000000000000000 ) ) ;
#168 = CARTESIAN_POINT ( 'NONE',  ( 0.06250000000000006939, 7.654042494670963708E-18, 0.3561270610371145007 ) ) ;
#169 = DIRECTION ( 'NONE',  ( 1.000000000000000000, 0.0000000000000000000, -0.0000000000000000000 ) ) ;
#170 = DIMENSIONAL_EXPONENTS ( 1.000000000000000000, 0.0000000000000000000, 0.0000000000000000000, 0.0000000000000000000, 0.0000000000000000000, 0.0000000000000000000, 0.0000000000000000000 ) ;
#171 = DIRECTION ( 'NONE',  ( 0.0000000000000000000, 0.0000000000000000000, 1.000000000000000000 ) ) ;
#172 = DIRECTION ( 'NONE',  ( -1.000000000000000000, 0.0000000000000000000, 0.0000000000000000000 ) ) ;
#173 = VECTOR ( 'NONE', #35, 39.37007874015748143 ) ;
#174 = DIRECTION ( 'NONE',  ( 1.000000000000000000, 0.0000000000000000000, -0.0000000000000000000 ) ) ;
#175 = LINE ( 'NONE', #155, #161 ) ;
#176 = DIRECTION ( 'NONE',  ( 1.000000000000000000, 0.0000000000000000000, 0.0000000000000000000 ) ) ;
#177 = EDGE_CURVE ( 'NONE', #58, #230, #190, .T. ) ;
#178 = CARTESIAN_POINT ( 'NONE',  ( 4.361298653888563970E-17, 0.0000000000000000000, 0.3561270610371145007 ) ) ;
#179 = EDGE_CURVE ( 'NONE', #230, #186, #62, .T. ) ;
#180 = AXIS2_PLACEMENT_3D ( 'NONE', #236, #46, #112 ) ;
#181 = PRESENTATION_LAYER_ASSIGNMENT (  '', '', ( #121 ) ) ;
#182 =( NAMED_UNIT ( * ) SI_UNIT ( $, .STERADIAN. ) SOLID_ANGLE_UNIT ( ) );
#183 = CIRCLE ( 'NONE', #267, 0.004994999999999980358 ) ;
#184 = PRODUCT ( 'Micro_RME-010-2X', 'Micro_RME-010-2X', '', ( #156 ) ) ;
#185 = VERTEX_POINT ( 'NONE', #168 ) ;
#186 = VERTEX_POINT ( 'NONE', #193 ) ;
#187 = CIRCLE ( 'NONE', #117, 0.004994999999999982961 ) ;
#188 =( CONVERSION_BASED_UNIT ( 'INCH', #244 ) LENGTH_UNIT ( ) NAMED_UNIT ( #215 ) );
#189 = ORIENTED_EDGE ( 'NONE', *, *, #114, .T. ) ;
#190 = LINE ( 'NONE', #131, #150 ) ;
#191 = PRODUCT_DEFINITION ( 'UNKNOWN', '', #128, #208 ) ;
#192 = CYLINDRICAL_SURFACE ( 'NONE', #252, 0.06250000000000002776 ) ;
#193 = CARTESIAN_POINT ( 'NONE',  ( 0.06250000000000002776, 7.654042494670959086E-18, 1.485000000000000764 ) ) ;
#194 = AXIS2_PLACEMENT_3D ( 'NONE', #235, #145, #31 ) ;
#195 = ORIENTED_EDGE ( 'NONE', *, *, #265, .T. ) ;
#196 = DIRECTION ( 'NONE',  ( -1.224646799147353454E-16, -0.0000000000000000000, -1.000000000000000000 ) ) ;
#197 = CARTESIAN_POINT ( 'NONE',  ( 0.0000000000000000000, 0.0000000000000000000, 0.0000000000000000000 ) ) ;
#198 =( CONVERSION_BASED_UNIT ( 'INCH', #113 ) LENGTH_UNIT ( ) NAMED_UNIT ( #170 ) );
#199 = MECHANICAL_DESIGN_GEOMETRIC_PRESENTATION_REPRESENTATION (  '', ( #166 ), #109 ) ;
#200 = DIRECTION ( 'NONE',  ( 1.000000000000000000, 0.0000000000000000000, 0.0000000000000000000 ) ) ;
#201 = ORIENTED_EDGE ( 'NONE', *, *, #151, .F. ) ;
#202 =( CONVERSION_BASED_UNIT ( 'INCH', #295 ) LENGTH_UNIT ( ) NAMED_UNIT ( #17 ) );
#203 = ORIENTED_EDGE ( 'NONE', *, *, #179, .F. ) ;
#204 = SURFACE_STYLE_USAGE ( .BOTH. , #119 ) ;
#205 = CIRCLE ( 'NONE', #9, 0.004994999999999980358 ) ;
#206 = ORIENTED_EDGE ( 'NONE', *, *, #114, .F. ) ;
#207 = FACE_OUTER_BOUND ( 'NONE', #283, .T. ) ;
#208 = PRODUCT_DEFINITION_CONTEXT ( 'detailed design', #36, 'design' ) ;
#209 = ORIENTED_EDGE ( 'NONE', *, *, #140, .T. ) ;
#210 = CARTESIAN_POINT ( 'NONE',  ( -0.004994999999999976889, 6.117110761741004670E-19, 0.02999999999999995379 ) ) ;
#211 = ORIENTED_EDGE ( 'NONE', *, *, #177, .T. ) ;
#212 = DIRECTION ( 'NONE',  ( 0.0000000000000000000, 0.0000000000000000000, -1.000000000000000000 ) ) ;
#213 = CARTESIAN_POINT ( 'NONE',  ( 0.0000000000000000000, 0.0000000000000000000, 0.0000000000000000000 ) ) ;
#214 = CARTESIAN_POINT ( 'NONE',  ( -0.06250000000000002776, 0.0000000000000000000, 1.485000000000000764 ) ) ;
#215 = DIMENSIONAL_EXPONENTS ( 1.000000000000000000, 0.0000000000000000000, 0.0000000000000000000, 0.0000000000000000000, 0.0000000000000000000, 0.0000000000000000000, 0.0000000000000000000 ) ;
#216 = EDGE_LOOP ( 'NONE', ( #286, #53, #238, #201 ) ) ;
#217 = LINE ( 'NONE', #210, #173 ) ;
#218 = SURFACE_STYLE_FILL_AREA ( #158 ) ;
#219 = CARTESIAN_POINT ( 'NONE',  ( 4.361298653888563970E-17, 0.0000000000000000000, 0.3561270610371145007 ) ) ;
#220 = DIRECTION ( 'NONE',  ( 1.000000000000000000, 0.0000000000000000000, 0.0000000000000000000 ) ) ;
#221 = DIRECTION ( 'NONE',  ( -1.000000000000000000, 0.0000000000000000000, 1.224646799147353454E-16 ) ) ;
#222 = COLOUR_RGB ( '',0.7921568627450980005, 0.8196078431372548767, 0.9333333333333333481 ) ;
#223 = AXIS2_PLACEMENT_3D ( 'NONE', #242, #289, #149 ) ;
#224 = CLOSED_SHELL ( 'NONE', ( #6, #68, #72, #38, #157, #290, #14, #1, #284, #232 ) ) ;
#225 = ORIENTED_EDGE ( 'NONE', *, *, #297, .T. ) ;
#226 = VECTOR ( 'NONE', #144, 39.37007874015748143 ) ;
#227 = EDGE_CURVE ( 'NONE', #163, #99, #260, .T. ) ;
#228 = ORIENTED_EDGE ( 'NONE', *, *, #104, .F. ) ;
#229 = SHAPE_DEFINITION_REPRESENTATION ( #152, #154 ) ;
#230 = VERTEX_POINT ( 'NONE', #214 ) ;
#231 = AXIS2_PLACEMENT_3D ( 'NONE', #213, #167, #127 ) ;
#232 = ADVANCED_FACE ( 'NONE', ( #12 ), #10, .F. ) ;
#233 = MECHANICAL_DESIGN_GEOMETRIC_PRESENTATION_REPRESENTATION (  '', ( #121 ), #22 ) ;
#234 = FACE_OUTER_BOUND ( 'NONE', #266, .T. ) ;
#235 = CARTESIAN_POINT ( 'NONE',  ( 0.0000000000000000000, 0.0000000000000000000, 1.500000000000000222 ) ) ;
#236 = CARTESIAN_POINT ( 'NONE',  ( 0.0000000000000000000, 0.0000000000000000000, 1.500000000000000222 ) ) ;
#237 = DIRECTION ( 'NONE',  ( 0.0000000000000000000, 0.0000000000000000000, 1.000000000000000000 ) ) ;
#238 = ORIENTED_EDGE ( 'NONE', *, *, #81, .F. ) ;
#239 = CARTESIAN_POINT ( 'NONE',  ( 0.0000000000000000000, 0.0000000000000000000, 0.0000000000000000000 ) ) ;
#240 = EDGE_CURVE ( 'NONE', #163, #159, #183, .T. ) ;
#241 = ORIENTED_EDGE ( 'NONE', *, *, #254, .F. ) ;
#242 = CARTESIAN_POINT ( 'NONE',  ( 0.0000000000000000000, 0.0000000000000000000, 0.0000000000000000000 ) ) ;
#243 = DIRECTION ( 'NONE',  ( 0.0000000000000000000, 0.0000000000000000000, -1.000000000000000000 ) ) ;
#244 = LENGTH_MEASURE_WITH_UNIT ( LENGTH_MEASURE( 0.02539999999999999897 ), #66 );
#245 = CARTESIAN_POINT ( 'NONE',  ( 7.491300114395956194E-35, 0.0000000000000000000, 6.117110761741009485E-19 ) ) ;
#246 = EDGE_CURVE ( 'NONE', #159, #163, #205, .T. ) ;
#247 = CARTESIAN_POINT ( 'NONE',  ( 0.0000000000000000000, 0.0000000000000000000, 1.500000000000000222 ) ) ;
#248 = PRESENTATION_STYLE_ASSIGNMENT (( #135 ) ) ;
#249 =( NAMED_UNIT ( * ) SI_UNIT ( $, .STERADIAN. ) SOLID_ANGLE_UNIT ( ) );
#250 = DIRECTION ( 'NONE',  ( -1.224646799147353454E-16, -0.0000000000000000000, -1.000000000000000000 ) ) ;
#251 = EDGE_CURVE ( 'NONE', #48, #186, #102, .T. ) ;
#252 = AXIS2_PLACEMENT_3D ( 'NONE', #82, #7, #172 ) ;
#253 = UNCERTAINTY_MEASURE_WITH_UNIT (LENGTH_MEASURE( 1.000000000000000082E-05 ), #188, 'distance_accuracy_value', 'NONE');
#254 = EDGE_CURVE ( 'NONE', #48, #58, #90, .T. ) ;
#255 = ORIENTED_EDGE ( 'NONE', *, *, #98, .T. ) ;
#256 = CIRCLE ( 'NONE', #259, 0.06250000000000002776 ) ;
#257 = ORIENTED_EDGE ( 'NONE', *, *, #104, .T. ) ;
#258 = LINE ( 'NONE', #55, #226 ) ;
#259 = AXIS2_PLACEMENT_3D ( 'NONE', #20, #292, #91 ) ;
#260 = LINE ( 'NONE', #291, #95 ) ;
#261 = CARTESIAN_POINT ( 'NONE',  ( 0.0000000000000000000, 0.0000000000000000000, 1.500000000000000222 ) ) ;
#262 = CYLINDRICAL_SURFACE ( 'NONE', #223, 0.004994999999999981226 ) ;
#263 = ORIENTED_EDGE ( 'NONE', *, *, #246, .T. ) ;
#264 = DIRECTION ( 'NONE',  ( 0.7071067811865462405, 8.659560562354916834E-17, -0.7071067811865486830 ) ) ;
#265 = EDGE_CURVE ( 'NONE', #58, #48, #29, .T. ) ;
#266 = EDGE_LOOP ( 'NONE', ( #26, #225, #138, #120 ) ) ;
#267 = AXIS2_PLACEMENT_3D ( 'NONE', #268, #287, #56 ) ;
#268 = CARTESIAN_POINT ( 'NONE',  ( 3.673940397442054568E-18, 0.0000000000000000000, 0.02999999999999995379 ) ) ;
#269 = CARTESIAN_POINT ( 'NONE',  ( 0.04750000000000064587, 6.735557395310483192E-18, 1.500000000000000222 ) ) ;
#270 = CYLINDRICAL_SURFACE ( 'NONE', #279, 0.06250000000000002776 ) ;
#271 =( NAMED_UNIT ( * ) PLANE_ANGLE_UNIT ( ) SI_UNIT ( $, .RADIAN. ) );
#272 = CARTESIAN_POINT ( 'NONE',  ( 0.004994999999999981226, 6.117110761741005633E-19, -6.117110761741006596E-19 ) ) ;
#273 = DIRECTION ( 'NONE',  ( 0.0000000000000000000, 0.0000000000000000000, 1.000000000000000000 ) ) ;
#274 = DIRECTION ( 'NONE',  ( -1.224646799147353454E-16, -0.0000000000000000000, -1.000000000000000000 ) ) ;
#275 = VECTOR ( 'NONE', #165, 39.37007874015748143 ) ;
#276 = ORIENTED_EDGE ( 'NONE', *, *, #136, .F. ) ;
#277 = PRESENTATION_STYLE_ASSIGNMENT (( #204 ) ) ;
#278 = UNCERTAINTY_MEASURE_WITH_UNIT (LENGTH_MEASURE( 1.000000000000000082E-05 ), #198, 'distance_accuracy_value', 'NONE');
#279 = AXIS2_PLACEMENT_3D ( 'NONE', #247, #134, #67 ) ;
#280 = CARTESIAN_POINT ( 'NONE',  ( 3.673940397442054568E-18, 0.0000000000000000000, 0.02999999999999995379 ) ) ;
#281 = AXIS2_PLACEMENT_3D ( 'NONE', #107, #212, #15 ) ;
#282 = DIRECTION ( 'NONE',  ( -1.000000000000000000, 0.0000000000000000000, 0.0000000000000000000 ) ) ;
#283 = EDGE_LOOP ( 'NONE', ( #241, #299, #203, #298 ) ) ;
#284 = ADVANCED_FACE ( 'NONE', ( #124 ), #262, .T. ) ;
#285 = CARTESIAN_POINT ( 'NONE',  ( 0.04750000000000064587, 5.817072295950006528E-18, 1.500000000000000222 ) ) ;
#286 = ORIENTED_EDGE ( 'NONE', *, *, #179, .T. ) ;
#287 = DIRECTION ( 'NONE',  ( -1.224646799147353454E-16, -0.0000000000000000000, -1.000000000000000000 ) ) ;
#288 = ORIENTED_EDGE ( 'NONE', *, *, #240, .T. ) ;
#289 = DIRECTION ( 'NONE',  ( -1.224646799147353454E-16, -0.0000000000000000000, -1.000000000000000000 ) ) ;
#290 = ADVANCED_FACE ( 'NONE', ( #105 ), #5, .T. ) ;
#291 = CARTESIAN_POINT ( 'NONE',  ( -0.004994999999999981226, 0.0000000000000000000, 6.117110761741006596E-19 ) ) ;
#292 = DIRECTION ( 'NONE',  ( 0.0000000000000000000, 0.0000000000000000000, -1.000000000000000000 ) ) ;
#293 = APPLICATION_PROTOCOL_DEFINITION ( 'draft international standard', 'automotive_design', 1998, #65 ) ;
#294 =( NAMED_UNIT ( * ) PLANE_ANGLE_UNIT ( ) SI_UNIT ( $, .RADIAN. ) );
#295 = LENGTH_MEASURE_WITH_UNIT ( LENGTH_MEASURE( 0.02539999999999999897 ), #51 );
#296 = CARTESIAN_POINT ( 'NONE',  ( -0.004994999999999982961, 0.0000000000000000000, 1.223422152348201897E-18 ) ) ;
#297 = EDGE_CURVE ( 'NONE', #163, #3, #217, .T. ) ;
#298 = ORIENTED_EDGE ( 'NONE', *, *, #177, .F. ) ;
#299 = ORIENTED_EDGE ( 'NONE', *, *, #251, .T. ) ;
ENDSEC;
END-ISO-10303-21;
