ISO-10303-21;
HEADER;
FILE_DESCRIPTION (( 'STEP AP214' ),
    '1' );
FILE_NAME ('59768.STEP',
    '2023-07-24T15:36:06',
    ( '' ),
    ( '' ),
    'SwSTEP 2.0',
    'SolidWorks 2023',
    '' );
FILE_SCHEMA (( 'AUTOMOTIVE_DESIGN' ));
ENDSEC;

DATA;
#1 = ORIENTED_EDGE ( 'NONE', *, *, #198, .T. ) ;
#2 = MECHANICAL_DESIGN_GEOMETRIC_PRESENTATION_REPRESENTATION (  '', ( #138 ), #134 ) ;
#3 = APPLICATION_PROTOCOL_DEFINITION ( 'draft international standard', 'automotive_design', 1998, #285 ) ;
#4 = CARTESIAN_POINT ( 'NONE',  ( 0.000000000000000000, 0.5000000000000000000, 0.000000000000000000 ) ) ;
#5 = ADVANCED_FACE ( 'NONE', ( #82 ), #306, .T. ) ;
#6 = ORIENTED_EDGE ( 'NONE', *, *, #271, .F. ) ;
#7 = CARTESIAN_POINT ( 'NONE',  ( 5.000000000000000888, 75.00000000000000000, 6.123233995736757408E-16 ) ) ;
#8 = MECHANICAL_DESIGN_GEOMETRIC_PRESENTATION_REPRESENTATION (  '', ( #57 ), #320 ) ;
#9 = DIRECTION ( 'NONE',  ( 0.000000000000000000, -1.000000000000000000, -0.000000000000000000 ) ) ;
#10 = CARTESIAN_POINT ( 'NONE',  ( 0.000000000000000000, 0.000000000000000000, 0.000000000000000000 ) ) ;
#11 = SURFACE_STYLE_USAGE ( .BOTH. , #201 ) ;
#12 = CARTESIAN_POINT ( 'NONE',  ( 4.999999999999996447, 75.00000000000000000, 6.123233995736754449E-16 ) ) ;
#13 = CARTESIAN_POINT ( 'NONE',  ( 5.000000000000000000, 75.00000000000000000, 0.000000000000000000 ) ) ;
#14 = PRESENTATION_LAYER_ASSIGNMENT (  '', '', ( #325 ) ) ;
#15 = CARTESIAN_POINT ( 'NONE',  ( 1.214306433183764966E-14, 25.00000000000000000, 0.000000000000000000 ) ) ;
#16 = DIRECTION ( 'NONE',  ( 0.000000000000000000, 0.000000000000000000, -1.000000000000000000 ) ) ;
#17 = DIRECTION ( 'NONE',  ( -1.203966067220177465E-16, 1.000000000000000000, -0.000000000000000000 ) ) ;
#18 = DIRECTION ( 'NONE',  ( -1.203966067220177465E-16, 1.000000000000000000, -0.000000000000000000 ) ) ;
#19 = DIRECTION ( 'NONE',  ( 0.000000000000000000, 0.000000000000000000, -1.000000000000000000 ) ) ;
#20 = CIRCLE ( 'NONE', #326, 4.999999999999987566 ) ;
#21 = PRESENTATION_STYLE_ASSIGNMENT (( #370 ) ) ;
#22 = VERTEX_POINT ( 'NONE', #55 ) ;
#23 = SURFACE_SIDE_STYLE ('',( #184 ) ) ;
#24 = VECTOR ( 'NONE', #200, 1000.000000000000000 ) ;
#25 = MECHANICAL_DESIGN_GEOMETRIC_PRESENTATION_REPRESENTATION (  '', ( #368 ), #117 ) ;
#26 = DIRECTION ( 'NONE',  ( -0.000000000000000000, -1.000000000000000000, -0.000000000000000000 ) ) ;
#27 = EDGE_LOOP ( 'NONE', ( #1, #73, #79, #312 ) ) ;
#28 = PRESENTATION_LAYER_ASSIGNMENT (  '', '', ( #138 ) ) ;
#29 = DIRECTION ( 'NONE',  ( -0.000000000000000000, -1.000000000000000000, -0.000000000000000000 ) ) ;
#30 = ADVANCED_FACE ( 'NONE', ( #227 ), #164, .T. ) ;
#31 = FACE_OUTER_BOUND ( 'NONE', #206, .T. ) ;
#32 = CARTESIAN_POINT ( 'NONE',  ( 0.000000000000000000, 0.000000000000000000, 0.000000000000000000 ) ) ;
#33 = AXIS2_PLACEMENT_3D ( 'NONE', #10, #316, #293 ) ;
#34 = SURFACE_SIDE_STYLE ('',( #36 ) ) ;
#35 =( NAMED_UNIT ( * ) PLANE_ANGLE_UNIT ( ) SI_UNIT ( $, .RADIAN. ) );
#36 = SURFACE_STYLE_FILL_AREA ( #63 ) ;
#37 = DIRECTION ( 'NONE',  ( -1.203966067220177465E-16, 1.000000000000000000, -0.000000000000000000 ) ) ;
#38 = PLANE ( 'NONE',  #265 ) ;
#39 = SURFACE_SIDE_STYLE ('',( #69 ) ) ;
#40 =( NAMED_UNIT ( * ) PLANE_ANGLE_UNIT ( ) SI_UNIT ( $, .RADIAN. ) );
#41 = PRESENTATION_LAYER_ASSIGNMENT (  '', '', ( #264 ) ) ;
#42 = ORIENTED_EDGE ( 'NONE', *, *, #172, .F. ) ;
#43 = ADVANCED_FACE ( 'NONE', ( #193 ), #203, .T. ) ;
#44 = ORIENTED_EDGE ( 'NONE', *, *, #100, .F. ) ;
#45 = VERTEX_POINT ( 'NONE', #236 ) ;
#46 = EDGE_CURVE ( 'NONE', #266, #22, #96, .T. ) ;
#47 = ORIENTED_EDGE ( 'NONE', *, *, #280, .T. ) ;
#48 = STYLED_ITEM ( 'NONE', ( #353 ), #5 ) ;
#49 = AXIS2_PLACEMENT_3D ( 'NONE', #202, #58, #166 ) ;
#50 = COLOUR_RGB ( '',1.000000000000000000, 0.000000000000000000, 0.000000000000000000 ) ;
#51 = PRESENTATION_STYLE_ASSIGNMENT (( #276 ) ) ;
#52 = VERTEX_POINT ( 'NONE', #332 ) ;
#53 = PRODUCT_CONTEXT ( 'NONE', #285, 'mechanical' ) ;
#54 = SURFACE_STYLE_USAGE ( .BOTH. , #136 ) ;
#55 = CARTESIAN_POINT ( 'NONE',  ( 0.000000000000000000, 0.000000000000000000, -4.500000000000000888 ) ) ;
#56 =( NAMED_UNIT ( * ) SI_UNIT ( $, .STERADIAN. ) SOLID_ANGLE_UNIT ( ) );
#57 = STYLED_ITEM ( 'NONE', ( #60 ), #245 ) ;
#58 = DIRECTION ( 'NONE',  ( -0.000000000000000000, -1.000000000000000000, -0.000000000000000000 ) ) ;
#59 = DIRECTION ( 'NONE',  ( -0.000000000000000000, -1.000000000000000000, -0.000000000000000000 ) ) ;
#60 = PRESENTATION_STYLE_ASSIGNMENT (( #235 ) ) ;
#61 =( NAMED_UNIT ( * ) PLANE_ANGLE_UNIT ( ) SI_UNIT ( $, .RADIAN. ) );
#62 = AXIS2_PLACEMENT_3D ( 'NONE', #142, #327, #168 ) ;
#63 = FILL_AREA_STYLE ('',( #64 ) ) ;
#64 = FILL_AREA_STYLE_COLOUR ( '', #209 ) ;
#65 = DIRECTION ( 'NONE',  ( 0.000000000000000000, 0.000000000000000000, 1.000000000000000000 ) ) ;
#66 = DIRECTION ( 'NONE',  ( -0.000000000000000000, -1.000000000000000000, -0.000000000000000000 ) ) ;
#67 = FILL_AREA_STYLE ('',( #330 ) ) ;
#68 = PRODUCT_DEFINITION_CONTEXT ( 'detailed design', #103, 'design' ) ;
#69 = SURFACE_STYLE_FILL_AREA ( #127 ) ;
#70 = COLOUR_RGB ( '',1.000000000000000000, 0.000000000000000000, 0.000000000000000000 ) ;
#71 = AXIS2_PLACEMENT_3D ( 'NONE', #275, #132, #331 ) ;
#72 = CARTESIAN_POINT ( 'NONE',  ( 0.000000000000000000, 0.000000000000000000, 0.000000000000000000 ) ) ;
#73 = ORIENTED_EDGE ( 'NONE', *, *, #186, .T. ) ;
#74 = AXIS2_PLACEMENT_3D ( 'NONE', #292, #87, #197 ) ;
#75 = EDGE_LOOP ( 'NONE', ( #139, #261, #262, #6 ) ) ;
#76 = PRESENTATION_LAYER_ASSIGNMENT (  '', '', ( #368 ) ) ;
#77 = VERTEX_POINT ( 'NONE', #205 ) ;
#78 =( LENGTH_UNIT ( ) NAMED_UNIT ( * ) SI_UNIT ( .MILLI., .METRE. ) );
#79 = ORIENTED_EDGE ( 'NONE', *, *, #344, .F. ) ;
#80 = FILL_AREA_STYLE ('',( #189 ) ) ;
#81 = MECHANICAL_DESIGN_GEOMETRIC_PRESENTATION_REPRESENTATION (  '', ( #48 ), #296 ) ;
#82 = FACE_OUTER_BOUND ( 'NONE', #75, .T. ) ;
#83 =( NAMED_UNIT ( * ) PLANE_ANGLE_UNIT ( ) SI_UNIT ( $, .RADIAN. ) );
#84 = PRODUCT_DEFINITION_SHAPE ( 'NONE', 'NONE',  #208 ) ;
#85 =( LENGTH_UNIT ( ) NAMED_UNIT ( * ) SI_UNIT ( .MILLI., .METRE. ) );
#86 = DIRECTION ( 'NONE',  ( 0.000000000000000000, 0.000000000000000000, -1.000000000000000000 ) ) ;
#87 = DIRECTION ( 'NONE',  ( -0.000000000000000000, -1.000000000000000000, -0.000000000000000000 ) ) ;
#88 = DIRECTION ( 'NONE',  ( -0.000000000000000000, -1.000000000000000000, -0.000000000000000000 ) ) ;
#89 = AXIS2_PLACEMENT_3D ( 'NONE', #104, #102, #329 ) ;
#90 = DIRECTION ( 'NONE',  ( -1.203966067220177465E-16, 1.000000000000000000, -0.000000000000000000 ) ) ;
#91 = SURFACE_STYLE_USAGE ( .BOTH. , #225 ) ;
#92 = ADVANCED_FACE ( 'NONE', ( #240 ), #366, .T. ) ;
#93 = CARTESIAN_POINT ( 'NONE',  ( 0.000000000000000000, 25.00000000000000000, -5.000000000000000000 ) ) ;
#94 = FILL_AREA_STYLE_COLOUR ( '', #113 ) ;
#95 = DIRECTION ( 'NONE',  ( -0.000000000000000000, -1.000000000000000000, -0.000000000000000000 ) ) ;
#96 = CIRCLE ( 'NONE', #241, 0.5000000000000004441 ) ;
#97 = MECHANICAL_DESIGN_GEOMETRIC_PRESENTATION_REPRESENTATION (  '', ( #264 ), #223 ) ;
#98 = VECTOR ( 'NONE', #310, 1000.000000000000000 ) ;
#99 = FILL_AREA_STYLE ('',( #239 ) ) ;
#100 = EDGE_CURVE ( 'NONE', #253, #266, #192, .T. ) ;
#101 = UNCERTAINTY_MEASURE_WITH_UNIT (LENGTH_MEASURE( 1.000000000000000082E-05 ), #350, 'distance_accuracy_value', 'NONE');
#102 = DIRECTION ( 'NONE',  ( 1.000000000000000000, 0.000000000000000000, -1.224646799147353207E-16 ) ) ;
#103 = APPLICATION_CONTEXT ( 'automotive_design' ) ;
#104 = CARTESIAN_POINT ( 'NONE',  ( 5.510910596163089556E-16, 0.5000000000000000000, 4.500000000000000888 ) ) ;
#105 = MECHANICAL_DESIGN_GEOMETRIC_PRESENTATION_REPRESENTATION (  '', ( #355 ), #362 ) ;
#106 = MECHANICAL_DESIGN_GEOMETRIC_PRESENTATION_REPRESENTATION (  '', ( #325 ), #122 ) ;
#107 = ORIENTED_EDGE ( 'NONE', *, *, #271, .T. ) ;
#108 = AXIS2_PLACEMENT_3D ( 'NONE', #109, #111, #153 ) ;
#109 = CARTESIAN_POINT ( 'NONE',  ( 6.123233995736762930E-15, 75.00000000000000000, 0.000000000000000000 ) ) ;
#110 = PLANE ( 'NONE',  #308 ) ;
#111 = DIRECTION ( 'NONE',  ( -1.203966067220177465E-16, 1.000000000000000000, -0.000000000000000000 ) ) ;
#112 = EDGE_LOOP ( 'NONE', ( #160, #274 ) ) ;
#113 = COLOUR_RGB ( '',1.000000000000000000, 0.000000000000000000, 0.000000000000000000 ) ;
#114 = CIRCLE ( 'NONE', #74, 5.000000000000000000 ) ;
#115 = FACE_OUTER_BOUND ( 'NONE', #311, .T. ) ;
#116 = COLOUR_RGB ( '',0.7921568627450980005, 0.8196078431372548767, 0.9333333333333333481 ) ;
#117 =( GEOMETRIC_REPRESENTATION_CONTEXT ( 3 ) GLOBAL_UNCERTAINTY_ASSIGNED_CONTEXT ( ( #149 ) ) GLOBAL_UNIT_ASSIGNED_CONTEXT ( ( #214, #313, #348 ) ) REPRESENTATION_CONTEXT ( 'NONE', 'WORKASPACE' ) );
#118 = CARTESIAN_POINT ( 'NONE',  ( -4.999999999999984901, 75.00000000000000000, 0.000000000000000000 ) ) ;
#119 =( NAMED_UNIT ( * ) SI_UNIT ( $, .STERADIAN. ) SOLID_ANGLE_UNIT ( ) );
#120 = FILL_AREA_STYLE ('',( #260 ) ) ;
#121 = DIRECTION ( 'NONE',  ( -1.000000000000000000, 0.000000000000000000, 0.000000000000000000 ) ) ;
#122 =( GEOMETRIC_REPRESENTATION_CONTEXT ( 3 ) GLOBAL_UNCERTAINTY_ASSIGNED_CONTEXT ( ( #101 ) ) GLOBAL_UNIT_ASSIGNED_CONTEXT ( ( #350, #247, #191 ) ) REPRESENTATION_CONTEXT ( 'NONE', 'WORKASPACE' ) );
#123 = CARTESIAN_POINT ( 'NONE',  ( 5.817072295949928412E-16, 0.000000000000000000, 4.500000000000000888 ) ) ;
#124 = DIRECTION ( 'NONE',  ( -1.000000000000000000, 0.000000000000000000, 0.000000000000000000 ) ) ;
#125 = UNCERTAINTY_MEASURE_WITH_UNIT (LENGTH_MEASURE( 1.000000000000000082E-05 ), #190, 'distance_accuracy_value', 'NONE');
#126 = EDGE_LOOP ( 'NONE', ( #255, #250, #188, #309 ) ) ;
#127 = FILL_AREA_STYLE ('',( #94 ) ) ;
#128 = SURFACE_STYLE_FILL_AREA ( #99 ) ;
#129 =( LENGTH_UNIT ( ) NAMED_UNIT ( * ) SI_UNIT ( .MILLI., .METRE. ) );
#130 = VECTOR ( 'NONE', #18, 1000.000000000000000 ) ;
#131 = MANIFOLD_SOLID_BREP ( 'Revolve - Tool Body (Straight Shanked)', #207 ) ;
#132 = DIRECTION ( 'NONE',  ( -1.203966067220177465E-16, 1.000000000000000000, -0.000000000000000000 ) ) ;
#133 = EDGE_CURVE ( 'NONE', #52, #266, #194, .T. ) ;
#134 =( GEOMETRIC_REPRESENTATION_CONTEXT ( 3 ) GLOBAL_UNCERTAINTY_ASSIGNED_CONTEXT ( ( #277 ) ) GLOBAL_UNIT_ASSIGNED_CONTEXT ( ( #336, #40, #151 ) ) REPRESENTATION_CONTEXT ( 'NONE', 'WORKASPACE' ) );
#135 = CARTESIAN_POINT ( 'NONE',  ( 0.000000000000000000, 0.000000000000000000, 0.000000000000000000 ) ) ;
#136 = SURFACE_SIDE_STYLE ('',( #282 ) ) ;
#137 = PRESENTATION_LAYER_ASSIGNMENT (  '', '', ( #355 ) ) ;
#138 = STYLED_ITEM ( 'NONE', ( #21 ), #249 ) ;
#139 = ORIENTED_EDGE ( 'NONE', *, *, #295, .F. ) ;
#140 = ORIENTED_EDGE ( 'NONE', *, *, #295, .T. ) ;
#141 = FACE_OUTER_BOUND ( 'NONE', #213, .T. ) ;
#142 = CARTESIAN_POINT ( 'NONE',  ( 1.214306433183764966E-14, 25.00000000000000000, 0.000000000000000000 ) ) ;
#143 = TOROIDAL_SURFACE ( 'NONE', #307, 4.500000000000000888, 0.5000000000000002220 ) ;
#144 = PLANE ( 'NONE',  #349 ) ;
#145 = CARTESIAN_POINT ( 'NONE',  ( 0.000000000000000000, 0.5000000000000000000, -5.000000000000000888 ) ) ;
#146 = CARTESIAN_POINT ( 'NONE',  ( 6.123233995736762930E-15, 75.00000000000000000, 0.000000000000000000 ) ) ;
#147 = COLOUR_RGB ( '',0.7921568627450980005, 0.8196078431372548767, 0.9333333333333333481 ) ;
#148 = EDGE_CURVE ( 'NONE', #152, #45, #230, .T. ) ;
#149 = UNCERTAINTY_MEASURE_WITH_UNIT (LENGTH_MEASURE( 1.000000000000000082E-05 ), #214, 'distance_accuracy_value', 'NONE');
#150 = PRESENTATION_LAYER_ASSIGNMENT (  '', '', ( #57 ) ) ;
#151 =( NAMED_UNIT ( * ) SI_UNIT ( $, .STERADIAN. ) SOLID_ANGLE_UNIT ( ) );
#152 = VERTEX_POINT ( 'NONE', #294 ) ;
#153 = DIRECTION ( 'NONE',  ( -1.000000000000000000, 0.000000000000000000, 0.000000000000000000 ) ) ;
#154 = EDGE_CURVE ( 'NONE', #45, #354, #256, .T. ) ;
#155 = ORIENTED_EDGE ( 'NONE', *, *, #344, .T. ) ;
#156 = CIRCLE ( 'NONE', #170, 5.000000000000000888 ) ;
#157 = ORIENTED_EDGE ( 'NONE', *, *, #219, .T. ) ;
#158 = CIRCLE ( 'NONE', #108, 4.999999999999993783 ) ;
#159 = ORIENTED_EDGE ( 'NONE', *, *, #228, .F. ) ;
#160 = ORIENTED_EDGE ( 'NONE', *, *, #198, .F. ) ;
#161 = ADVANCED_FACE ( 'NONE', ( #31 ), #324, .F. ) ;
#162 = DIRECTION ( 'NONE',  ( -1.203966067220177465E-16, 1.000000000000000000, 0.000000000000000000 ) ) ;
#163 = FACE_OUTER_BOUND ( 'NONE', #217, .T. ) ;
#164 = CYLINDRICAL_SURFACE ( 'NONE', #187, 5.000000000000000888 ) ;
#165 = MECHANICAL_DESIGN_GEOMETRIC_PRESENTATION_REPRESENTATION (  '', ( #248 ), #216 ) ;
#166 = DIRECTION ( 'NONE',  ( 0.000000000000000000, 0.000000000000000000, -1.000000000000000000 ) ) ;
#167 = SURFACE_STYLE_FILL_AREA ( #364 ) ;
#168 = DIRECTION ( 'NONE',  ( -1.000000000000000000, 0.000000000000000000, 0.000000000000000000 ) ) ;
#169 = CLOSED_SHELL ( 'NONE', ( #92, #245, #358, #5, #30, #195 ) ) ;
#170 = AXIS2_PLACEMENT_3D ( 'NONE', #244, #95, #246 ) ;
#171 = PRESENTATION_STYLE_ASSIGNMENT (( #238 ) ) ;
#172 = EDGE_CURVE ( 'NONE', #22, #180, #237, .T. ) ;
#173 = DIRECTION ( 'NONE',  ( 0.000000000000000000, 0.000000000000000000, -1.000000000000000000 ) ) ;
#174 = PRESENTATION_STYLE_ASSIGNMENT (( #91 ) ) ;
#175 = AXIS2_PLACEMENT_3D ( 'NONE', #146, #17, #121 ) ;
#176 = CIRCLE ( 'NONE', #279, 4.500000000000000888 ) ;
#177 = CARTESIAN_POINT ( 'NONE',  ( 6.123233995736762930E-15, 75.00000000000000000, 0.000000000000000000 ) ) ;
#178 = PRESENTATION_STYLE_ASSIGNMENT (( #269 ) ) ;
#179 = CYLINDRICAL_SURFACE ( 'NONE', #257, 4.999999999999990230 ) ;
#180 = VERTEX_POINT ( 'NONE', #123 ) ;
#181 = ORIENTED_EDGE ( 'NONE', *, *, #172, .T. ) ;
#182 = DIRECTION ( 'NONE',  ( -1.000000000000000000, -1.203966067220177465E-16, 0.000000000000000000 ) ) ;
#183 = PRODUCT ( '59768', '59768', '', ( #53 ) ) ;
#184 = SURFACE_STYLE_FILL_AREA ( #251 ) ;
#185 = APPLICATION_PROTOCOL_DEFINITION ( 'draft international standard', 'automotive_design', 1998, #103 ) ;
#186 = EDGE_CURVE ( 'NONE', #152, #360, #356, .T. ) ;
#187 = AXIS2_PLACEMENT_3D ( 'NONE', #298, #29, #252 ) ;
#188 = ORIENTED_EDGE ( 'NONE', *, *, #154, .T. ) ;
#189 = FILL_AREA_STYLE_COLOUR ( '', #116 ) ;
#190 =( LENGTH_UNIT ( ) NAMED_UNIT ( * ) SI_UNIT ( .MILLI., .METRE. ) );
#191 =( NAMED_UNIT ( * ) SI_UNIT ( $, .STERADIAN. ) SOLID_ANGLE_UNIT ( ) );
#192 = LINE ( 'NONE', #289, #242 ) ;
#193 = FACE_OUTER_BOUND ( 'NONE', #126, .T. ) ;
#194 = CIRCLE ( 'NONE', #341, 5.000000000000000888 ) ;
#195 = ADVANCED_FACE ( 'NONE', ( #141 ), #144, .T. ) ;
#196 = SURFACE_STYLE_FILL_AREA ( #120 ) ;
#197 = DIRECTION ( 'NONE',  ( 0.000000000000000000, 0.000000000000000000, -1.000000000000000000 ) ) ;
#198 = EDGE_CURVE ( 'NONE', #45, #152, #20, .T. ) ;
#199 = AXIS2_PLACEMENT_3D ( 'NONE', #13, #232, #359 ) ;
#200 = DIRECTION ( 'NONE',  ( -1.203966067220177465E-16, 1.000000000000000000, -0.000000000000000000 ) ) ;
#201 = SURFACE_SIDE_STYLE ('',( #167 ) ) ;
#202 = CARTESIAN_POINT ( 'NONE',  ( 0.000000000000000000, 25.00000000000000000, 0.000000000000000000 ) ) ;
#203 = CYLINDRICAL_SURFACE ( 'NONE', #175, 4.999999999999990230 ) ;
#204 = UNCERTAINTY_MEASURE_WITH_UNIT (LENGTH_MEASURE( 1.000000000000000082E-05 ), #300, 'distance_accuracy_value', 'NONE');
#205 = CARTESIAN_POINT ( 'NONE',  ( 6.123233995736766282E-16, 25.00000000000000000, 5.000000000000000000 ) ) ;
#206 = EDGE_LOOP ( 'NONE', ( #155, #314 ) ) ;
#207 = CLOSED_SHELL ( 'NONE', ( #301, #319, #43, #161 ) ) ;
#208 = PRODUCT_DEFINITION ( 'UNKNOWN', '', #290, #68 ) ;
#209 = COLOUR_RGB ( '',1.000000000000000000, 0.000000000000000000, 0.000000000000000000 ) ;
#210 = SURFACE_SIDE_STYLE ('',( #128 ) ) ;
#211 = ORIENTED_EDGE ( 'NONE', *, *, #280, .F. ) ;
#212 = FACE_OUTER_BOUND ( 'NONE', #112, .T. ) ;
#213 = EDGE_LOOP ( 'NONE', ( #338, #159 ) ) ;
#214 =( LENGTH_UNIT ( ) NAMED_UNIT ( * ) SI_UNIT ( .MILLI., .METRE. ) );
#215 = PRESENTATION_LAYER_ASSIGNMENT (  '', '', ( #48 ) ) ;
#216 =( GEOMETRIC_REPRESENTATION_CONTEXT ( 3 ) GLOBAL_UNCERTAINTY_ASSIGNED_CONTEXT ( ( #328 ) ) GLOBAL_UNIT_ASSIGNED_CONTEXT ( ( #323, #61, #119 ) ) REPRESENTATION_CONTEXT ( 'NONE', 'WORKASPACE' ) );
#217 = EDGE_LOOP ( 'NONE', ( #181, #107 ) ) ;
#218 = ORIENTED_EDGE ( 'NONE', *, *, #335, .F. ) ;
#219 = EDGE_CURVE ( 'NONE', #253, #77, #363, .T. ) ;
#220 = PRESENTATION_STYLE_ASSIGNMENT (( #54 ) ) ;
#221 =( NAMED_UNIT ( * ) SI_UNIT ( $, .STERADIAN. ) SOLID_ANGLE_UNIT ( ) );
#222 =( NAMED_UNIT ( * ) SI_UNIT ( $, .STERADIAN. ) SOLID_ANGLE_UNIT ( ) );
#223 =( GEOMETRIC_REPRESENTATION_CONTEXT ( 3 ) GLOBAL_UNCERTAINTY_ASSIGNED_CONTEXT ( ( #204 ) ) GLOBAL_UNIT_ASSIGNED_CONTEXT ( ( #300, #343, #222 ) ) REPRESENTATION_CONTEXT ( 'NONE', 'WORKASPACE' ) );
#224 = AXIS2_PLACEMENT_3D ( 'NONE', #32, #88, #86 ) ;
#225 = SURFACE_SIDE_STYLE ('',( #291 ) ) ;
#226 = DIRECTION ( 'NONE',  ( 0.000000000000000000, 0.000000000000000000, 1.000000000000000000 ) ) ;
#227 = FACE_OUTER_BOUND ( 'NONE', #234, .T. ) ;
#228 = EDGE_CURVE ( 'NONE', #77, #253, #114, .T. ) ;
#229 = DIRECTION ( 'NONE',  ( -0.000000000000000000, -1.000000000000000000, -0.000000000000000000 ) ) ;
#230 = CIRCLE ( 'NONE', #62, 4.999999999999987566 ) ;
#231 = AXIS2_PLACEMENT_3D ( 'NONE', #317, #226, #347 ) ;
#232 = DIRECTION ( 'NONE',  ( 1.203966067220177465E-16, -1.000000000000000000, 0.000000000000000000 ) ) ;
#233 = DIRECTION ( 'NONE',  ( -1.000000000000000000, 0.000000000000000000, 0.000000000000000000 ) ) ;
#234 = EDGE_LOOP ( 'NONE', ( #218, #340, #305, #351 ) ) ;
#235 = SURFACE_STYLE_USAGE ( .BOTH. , #322 ) ;
#236 = CARTESIAN_POINT ( 'NONE',  ( -4.999999999999976019, 25.00000000000000000, 0.000000000000000000 ) ) ;
#237 = CIRCLE ( 'NONE', #224, 4.500000000000000888 ) ;
#238 = SURFACE_STYLE_USAGE ( .BOTH. , #34 ) ;
#239 = FILL_AREA_STYLE_COLOUR ( '', #147 ) ;
#240 = FACE_OUTER_BOUND ( 'NONE', #283, .T. ) ;
#241 = AXIS2_PLACEMENT_3D ( 'NONE', #361, #124, #65 ) ;
#242 = VECTOR ( 'NONE', #26, 1000.000000000000000 ) ;
#243 = DIRECTION ( 'NONE',  ( 0.000000000000000000, 0.000000000000000000, -1.000000000000000000 ) ) ;
#244 = CARTESIAN_POINT ( 'NONE',  ( 0.000000000000000000, 0.5000000000000000000, 0.000000000000000000 ) ) ;
#245 = ADVANCED_FACE ( 'NONE', ( #115 ), #143, .T. ) ;
#246 = DIRECTION ( 'NONE',  ( 0.000000000000000000, 0.000000000000000000, -1.000000000000000000 ) ) ;
#247 =( NAMED_UNIT ( * ) PLANE_ANGLE_UNIT ( ) SI_UNIT ( $, .RADIAN. ) );
#248 = STYLED_ITEM ( 'NONE', ( #171 ), #195 ) ;
#249 = MANIFOLD_SOLID_BREP ( 'Revolve - Cutting Edge', #169 ) ;
#250 = ORIENTED_EDGE ( 'NONE', *, *, #148, .T. ) ;
#251 = FILL_AREA_STYLE ('',( #352 ) ) ;
#252 = DIRECTION ( 'NONE',  ( 0.000000000000000000, 0.000000000000000000, -1.000000000000000000 ) ) ;
#253 = VERTEX_POINT ( 'NONE', #93 ) ;
#254 = DIRECTION ( 'NONE',  ( 0.000000000000000000, -0.000000000000000000, 1.000000000000000000 ) ) ;
#255 = ORIENTED_EDGE ( 'NONE', *, *, #186, .F. ) ;
#256 = LINE ( 'NONE', #118, #130 ) ;
#257 = AXIS2_PLACEMENT_3D ( 'NONE', #177, #37, #304 ) ;
#258 = CARTESIAN_POINT ( 'NONE',  ( 0.000000000000000000, 25.00000000000000000, 0.000000000000000000 ) ) ;
#259 = UNCERTAINTY_MEASURE_WITH_UNIT (LENGTH_MEASURE( 1.000000000000000082E-05 ), #85, 'distance_accuracy_value', 'NONE');
#260 = FILL_AREA_STYLE_COLOUR ( '', #334 ) ;
#261 = ORIENTED_EDGE ( 'NONE', *, *, #133, .T. ) ;
#262 = ORIENTED_EDGE ( 'NONE', *, *, #46, .T. ) ;
#263 = DIRECTION ( 'NONE',  ( 0.000000000000000000, 1.000000000000000000, 0.000000000000000000 ) ) ;
#264 = STYLED_ITEM ( 'NONE', ( #220 ), #131 ) ;
#265 = AXIS2_PLACEMENT_3D ( 'NONE', #339, #162, #182 ) ;
#266 = VERTEX_POINT ( 'NONE', #145 ) ;
#267 = EDGE_CURVE ( 'NONE', #360, #354, #357, .T. ) ;
#268 = CARTESIAN_POINT ( 'NONE',  ( 0.000000000000000000, 0.5000000000000000000, 0.000000000000000000 ) ) ;
#269 = SURFACE_STYLE_USAGE ( .BOTH. , #39 ) ;
#270 = COLOUR_RGB ( '',1.000000000000000000, 0.000000000000000000, 0.000000000000000000 ) ;
#271 = EDGE_CURVE ( 'NONE', #180, #22, #176, .T. ) ;
#272 = CIRCLE ( 'NONE', #89, 0.5000000000000004441 ) ;
#273 =( NAMED_UNIT ( * ) PLANE_ANGLE_UNIT ( ) SI_UNIT ( $, .RADIAN. ) );
#274 = ORIENTED_EDGE ( 'NONE', *, *, #148, .F. ) ;
#275 = CARTESIAN_POINT ( 'NONE',  ( 6.123233995736762930E-15, 75.00000000000000000, 0.000000000000000000 ) ) ;
#276 = SURFACE_STYLE_USAGE ( .BOTH. , #23 ) ;
#277 = UNCERTAINTY_MEASURE_WITH_UNIT (LENGTH_MEASURE( 1.000000000000000082E-05 ), #336, 'distance_accuracy_value', 'NONE');
#278 = CARTESIAN_POINT ( 'NONE',  ( -4.999999999999987566, 75.00000000000000000, 0.000000000000000000 ) ) ;
#279 = AXIS2_PLACEMENT_3D ( 'NONE', #72, #367, #173 ) ;
#280 = EDGE_CURVE ( 'NONE', #266, #52, #156, .T. ) ;
#281 = SHAPE_DEFINITION_REPRESENTATION ( #84, #284 ) ;
#282 = SURFACE_STYLE_FILL_AREA ( #80 ) ;
#283 = EDGE_LOOP ( 'NONE', ( #157, #346, #211, #44 ) ) ;
#284 = ADVANCED_BREP_SHAPE_REPRESENTATION ( '59768', ( #249, #131, #231 ), #297 ) ;
#285 = APPLICATION_CONTEXT ( 'automotive_design' ) ;
#286 =( NAMED_UNIT ( * ) PLANE_ANGLE_UNIT ( ) SI_UNIT ( $, .RADIAN. ) );
#287 = PRODUCT_RELATED_PRODUCT_CATEGORY ( 'part', '', ( #183 ) ) ;
#288 = PRESENTATION_LAYER_ASSIGNMENT (  '', '', ( #248 ) ) ;
#289 = CARTESIAN_POINT ( 'NONE',  ( 0.000000000000000000, 0.000000000000000000, -5.000000000000000888 ) ) ;
#290 = PRODUCT_DEFINITION_FORMATION_WITH_SPECIFIED_SOURCE ( 'ANY', '', #183, .NOT_KNOWN. ) ;
#291 = SURFACE_STYLE_FILL_AREA ( #67 ) ;
#292 = CARTESIAN_POINT ( 'NONE',  ( 0.000000000000000000, 25.00000000000000000, 0.000000000000000000 ) ) ;
#293 = DIRECTION ( 'NONE',  ( 0.000000000000000000, 0.000000000000000000, -1.000000000000000000 ) ) ;
#294 = CARTESIAN_POINT ( 'NONE',  ( 5.000000000000000888, 25.00000000000000000, 6.123233995736757408E-16 ) ) ;
#295 = EDGE_CURVE ( 'NONE', #52, #180, #272, .T. ) ;
#296 =( GEOMETRIC_REPRESENTATION_CONTEXT ( 3 ) GLOBAL_UNCERTAINTY_ASSIGNED_CONTEXT ( ( #125 ) ) GLOBAL_UNIT_ASSIGNED_CONTEXT ( ( #190, #35, #56 ) ) REPRESENTATION_CONTEXT ( 'NONE', 'WORKASPACE' ) );
#297 =( GEOMETRIC_REPRESENTATION_CONTEXT ( 3 ) GLOBAL_UNCERTAINTY_ASSIGNED_CONTEXT ( ( #365 ) ) GLOBAL_UNIT_ASSIGNED_CONTEXT ( ( #78, #286, #221 ) ) REPRESENTATION_CONTEXT ( 'NONE', 'WORKASPACE' ) );
#298 = CARTESIAN_POINT ( 'NONE',  ( 0.000000000000000000, 0.000000000000000000, 0.000000000000000000 ) ) ;
#299 =( NAMED_UNIT ( * ) SI_UNIT ( $, .STERADIAN. ) SOLID_ANGLE_UNIT ( ) );
#300 =( LENGTH_UNIT ( ) NAMED_UNIT ( * ) SI_UNIT ( .MILLI., .METRE. ) );
#301 = ADVANCED_FACE ( 'NONE', ( #302 ), #179, .T. ) ;
#302 = FACE_OUTER_BOUND ( 'NONE', #27, .T. ) ;
#303 =( NAMED_UNIT ( * ) SI_UNIT ( $, .STERADIAN. ) SOLID_ANGLE_UNIT ( ) );
#304 = DIRECTION ( 'NONE',  ( -1.000000000000000000, 0.000000000000000000, 0.000000000000000000 ) ) ;
#305 = ORIENTED_EDGE ( 'NONE', *, *, #100, .T. ) ;
#306 = TOROIDAL_SURFACE ( 'NONE', #333, 4.500000000000000888, 0.5000000000000002220 ) ;
#307 = AXIS2_PLACEMENT_3D ( 'NONE', #268, #66, #243 ) ;
#308 = AXIS2_PLACEMENT_3D ( 'NONE', #135, #9, #345 ) ;
#309 = ORIENTED_EDGE ( 'NONE', *, *, #267, .F. ) ;
#310 = DIRECTION ( 'NONE',  ( -0.000000000000000000, -1.000000000000000000, -0.000000000000000000 ) ) ;
#311 = EDGE_LOOP ( 'NONE', ( #47, #140, #42, #369 ) ) ;
#312 = ORIENTED_EDGE ( 'NONE', *, *, #154, .F. ) ;
#313 =( NAMED_UNIT ( * ) PLANE_ANGLE_UNIT ( ) SI_UNIT ( $, .RADIAN. ) );
#314 = ORIENTED_EDGE ( 'NONE', *, *, #267, .T. ) ;
#315 = CARTESIAN_POINT ( 'NONE',  ( 6.123233995736767268E-16, 0.000000000000000000, 5.000000000000000888 ) ) ;
#316 = DIRECTION ( 'NONE',  ( -0.000000000000000000, -1.000000000000000000, -0.000000000000000000 ) ) ;
#317 = CARTESIAN_POINT ( 'NONE',  ( 0.000000000000000000, 0.000000000000000000, 0.000000000000000000 ) ) ;
#318 = FILL_AREA_STYLE_COLOUR ( '', #70 ) ;
#319 = ADVANCED_FACE ( 'NONE', ( #212 ), #38, .F. ) ;
#320 =( GEOMETRIC_REPRESENTATION_CONTEXT ( 3 ) GLOBAL_UNCERTAINTY_ASSIGNED_CONTEXT ( ( #337 ) ) GLOBAL_UNIT_ASSIGNED_CONTEXT ( ( #129, #273, #303 ) ) REPRESENTATION_CONTEXT ( 'NONE', 'WORKASPACE' ) );
#321 = CARTESIAN_POINT ( 'NONE',  ( 0.000000000000000000, 0.5000000000000000000, 0.000000000000000000 ) ) ;
#322 = SURFACE_SIDE_STYLE ('',( #196 ) ) ;
#323 =( LENGTH_UNIT ( ) NAMED_UNIT ( * ) SI_UNIT ( .MILLI., .METRE. ) );
#324 = PLANE ( 'NONE',  #199 ) ;
#325 = STYLED_ITEM ( 'NONE', ( #178 ), #92 ) ;
#326 = AXIS2_PLACEMENT_3D ( 'NONE', #15, #90, #233 ) ;
#327 = DIRECTION ( 'NONE',  ( -1.203966067220177465E-16, 1.000000000000000000, -0.000000000000000000 ) ) ;
#328 = UNCERTAINTY_MEASURE_WITH_UNIT (LENGTH_MEASURE( 1.000000000000000082E-05 ), #323, 'distance_accuracy_value', 'NONE');
#329 = DIRECTION ( 'NONE',  ( -1.224646799147353454E-16, 0.000000000000000000, -1.000000000000000000 ) ) ;
#330 = FILL_AREA_STYLE_COLOUR ( '', #270 ) ;
#331 = DIRECTION ( 'NONE',  ( -1.000000000000000000, 0.000000000000000000, 0.000000000000000000 ) ) ;
#332 = CARTESIAN_POINT ( 'NONE',  ( 6.123233995736766282E-16, 0.5000000000000000000, 5.000000000000000888 ) ) ;
#333 = AXIS2_PLACEMENT_3D ( 'NONE', #321, #59, #19 ) ;
#334 = COLOUR_RGB ( '',1.000000000000000000, 0.000000000000000000, 0.000000000000000000 ) ;
#335 = EDGE_CURVE ( 'NONE', #77, #52, #342, .T. ) ;
#336 =( LENGTH_UNIT ( ) NAMED_UNIT ( * ) SI_UNIT ( .MILLI., .METRE. ) );
#337 = UNCERTAINTY_MEASURE_WITH_UNIT (LENGTH_MEASURE( 1.000000000000000082E-05 ), #129, 'distance_accuracy_value', 'NONE');
#338 = ORIENTED_EDGE ( 'NONE', *, *, #219, .F. ) ;
#339 = CARTESIAN_POINT ( 'NONE',  ( 1.214306433183764966E-14, 25.00000000000000000, 0.000000000000000000 ) ) ;
#340 = ORIENTED_EDGE ( 'NONE', *, *, #228, .T. ) ;
#341 = AXIS2_PLACEMENT_3D ( 'NONE', #4, #229, #16 ) ;
#342 = LINE ( 'NONE', #315, #98 ) ;
#343 =( NAMED_UNIT ( * ) PLANE_ANGLE_UNIT ( ) SI_UNIT ( $, .RADIAN. ) );
#344 = EDGE_CURVE ( 'NONE', #354, #360, #158, .T. ) ;
#345 = DIRECTION ( 'NONE',  ( 0.000000000000000000, 0.000000000000000000, -1.000000000000000000 ) ) ;
#346 = ORIENTED_EDGE ( 'NONE', *, *, #335, .T. ) ;
#347 = DIRECTION ( 'NONE',  ( 1.000000000000000000, 0.000000000000000000, 0.000000000000000000 ) ) ;
#348 =( NAMED_UNIT ( * ) SI_UNIT ( $, .STERADIAN. ) SOLID_ANGLE_UNIT ( ) );
#349 = AXIS2_PLACEMENT_3D ( 'NONE', #258, #263, #254 ) ;
#350 =( LENGTH_UNIT ( ) NAMED_UNIT ( * ) SI_UNIT ( .MILLI., .METRE. ) );
#351 = ORIENTED_EDGE ( 'NONE', *, *, #133, .F. ) ;
#352 = FILL_AREA_STYLE_COLOUR ( '', #50 ) ;
#353 = PRESENTATION_STYLE_ASSIGNMENT (( #11 ) ) ;
#354 = VERTEX_POINT ( 'NONE', #278 ) ;
#355 = STYLED_ITEM ( 'NONE', ( #174 ), #30 ) ;
#356 = LINE ( 'NONE', #12, #24 ) ;
#357 = CIRCLE ( 'NONE', #71, 4.999999999999993783 ) ;
#358 = ADVANCED_FACE ( 'NONE', ( #163 ), #110, .T. ) ;
#359 = DIRECTION ( 'NONE',  ( 1.000000000000000000, 1.203966067220177465E-16, 0.000000000000000000 ) ) ;
#360 = VERTEX_POINT ( 'NONE', #7 ) ;
#361 = CARTESIAN_POINT ( 'NONE',  ( 0.000000000000000000, 0.5000000000000000000, -4.500000000000000888 ) ) ;
#362 =( GEOMETRIC_REPRESENTATION_CONTEXT ( 3 ) GLOBAL_UNCERTAINTY_ASSIGNED_CONTEXT ( ( #259 ) ) GLOBAL_UNIT_ASSIGNED_CONTEXT ( ( #85, #83, #299 ) ) REPRESENTATION_CONTEXT ( 'NONE', 'WORKASPACE' ) );
#363 = CIRCLE ( 'NONE', #49, 5.000000000000000000 ) ;
#364 = FILL_AREA_STYLE ('',( #318 ) ) ;
#365 = UNCERTAINTY_MEASURE_WITH_UNIT (LENGTH_MEASURE( 1.000000000000000082E-05 ), #78, 'distance_accuracy_value', 'NONE');
#366 = CYLINDRICAL_SURFACE ( 'NONE', #33, 5.000000000000000888 ) ;
#367 = DIRECTION ( 'NONE',  ( -0.000000000000000000, -1.000000000000000000, -0.000000000000000000 ) ) ;
#368 = STYLED_ITEM ( 'NONE', ( #51 ), #358 ) ;
#369 = ORIENTED_EDGE ( 'NONE', *, *, #46, .F. ) ;
#370 = SURFACE_STYLE_USAGE ( .BOTH. , #210 ) ;
ENDSEC;
END-ISO-10303-21;
