ISO-10303-21;
HEADER;
FILE_DESCRIPTION (( 'STEP AP214' ),
    '1' );
FILE_NAME ('83311.STEP',
    '2023-06-23T09:18:07',
    ( '' ),
    ( '' ),
    'SwSTEP 2.0',
    'SolidWorks 2023',
    '' );
FILE_SCHEMA (( 'AUTOMOTIVE_DESIGN' ));
ENDSEC;

DATA;
#1 = EDGE_LOOP ( 'NONE', ( #19, #58, #276, #118 ) ) ;
#2 = PRESENTATION_LAYER_ASSIGNMENT (  '', '', ( #142 ) ) ;
#3 = ORIENTED_EDGE ( 'NONE', *, *, #33, .T. ) ;
#4 = SURFACE_SIDE_STYLE ('',( #62 ) ) ;
#5 = DIRECTION ( 'NONE',  ( 0.000000000000000000, -1.000000000000000000, -0.000000000000000000 ) ) ;
#6 =( NAMED_UNIT ( * ) SI_UNIT ( $, .STERADIAN. ) SOLID_ANGLE_UNIT ( ) );
#7 = AXIS2_PLACEMENT_3D ( 'NONE', #24, #61, #245 ) ;
#8 =( CONVERSION_BASED_UNIT ( 'INCH', #156 ) LENGTH_UNIT ( ) NAMED_UNIT ( #301 ) );
#9 = ORIENTED_EDGE ( 'NONE', *, *, #102, .T. ) ;
#10 = CARTESIAN_POINT ( 'NONE',  ( 0.3125000000000000000, 3.000000000000000444, 0.000000000000000000 ) ) ;
#11 = AXIS2_PLACEMENT_3D ( 'NONE', #270, #116, #64 ) ;
#12 = SURFACE_SIDE_STYLE ('',( #251 ) ) ;
#13 = EDGE_LOOP ( 'NONE', ( #271, #65, #9, #167 ) ) ;
#14 = PRODUCT_CONTEXT ( 'NONE', #172, 'mechanical' ) ;
#15 = DIMENSIONAL_EXPONENTS ( 1.000000000000000000, 0.000000000000000000, 0.000000000000000000, 0.000000000000000000, 0.000000000000000000, 0.000000000000000000, 0.000000000000000000 ) ;
#16 =( NAMED_UNIT ( * ) SI_UNIT ( $, .STERADIAN. ) SOLID_ANGLE_UNIT ( ) );
#17 = MECHANICAL_DESIGN_GEOMETRIC_PRESENTATION_REPRESENTATION (  '', ( #252 ), #124 ) ;
#18 = PLANE ( 'NONE',  #275 ) ;
#19 = ORIENTED_EDGE ( 'NONE', *, *, #248, .F. ) ;
#20 = CARTESIAN_POINT ( 'NONE',  ( 2.449293598294705921E-16, 3.000000000000000444, 0.000000000000000000 ) ) ;
#21 = ADVANCED_FACE ( 'NONE', ( #70 ), #303, .F. ) ;
#22 = SURFACE_STYLE_FILL_AREA ( #280 ) ;
#23 = LENGTH_MEASURE_WITH_UNIT ( LENGTH_MEASURE( 0.02539999999999999897 ), #216 );
#24 = CARTESIAN_POINT ( 'NONE',  ( 0.000000000000000000, 0.000000000000000000, 0.000000000000000000 ) ) ;
#25 = PRESENTATION_STYLE_ASSIGNMENT (( #243 ) ) ;
#26 = AXIS2_PLACEMENT_3D ( 'NONE', #163, #71, #139 ) ;
#27 = DIRECTION ( 'NONE',  ( -1.000000000000000000, 0.000000000000000000, 0.000000000000000000 ) ) ;
#28 = FILL_AREA_STYLE_COLOUR ( '', #119 ) ;
#29 = CARTESIAN_POINT ( 'NONE',  ( 0.3125000000000001665, 3.000000000000000444, 3.827021247335477078E-17 ) ) ;
#30 = FACE_OUTER_BOUND ( 'NONE', #200, .T. ) ;
#31 = VERTEX_POINT ( 'NONE', #89 ) ;
#32 = DIRECTION ( 'NONE',  ( 1.088574932575424895E-16, 1.000000000000000000, -0.000000000000000000 ) ) ;
#33 = EDGE_CURVE ( 'NONE', #165, #113, #256, .T. ) ;
#34 = AXIS2_PLACEMENT_3D ( 'NONE', #20, #170, #215 ) ;
#35 = VERTEX_POINT ( 'NONE', #208 ) ;
#36 = DIRECTION ( 'NONE',  ( -0.000000000000000000, -1.000000000000000000, -0.000000000000000000 ) ) ;
#37 =( CONVERSION_BASED_UNIT ( 'INCH', #249 ) LENGTH_UNIT ( ) NAMED_UNIT ( #93 ) );
#38 = DIRECTION ( 'NONE',  ( 1.088574932575424772E-16, 1.000000000000000000, -0.000000000000000000 ) ) ;
#39 = MECHANICAL_DESIGN_GEOMETRIC_PRESENTATION_REPRESENTATION (  '', ( #104 ), #98 ) ;
#40 = ORIENTED_EDGE ( 'NONE', *, *, #102, .F. ) ;
#41 =( LENGTH_UNIT ( ) NAMED_UNIT ( * ) SI_UNIT ( $, .METRE. ) );
#42 = CYLINDRICAL_SURFACE ( 'NONE', #123, 0.3125000000000000000 ) ;
#43 = FILL_AREA_STYLE ('',( #299 ) ) ;
#44 = EDGE_CURVE ( 'NONE', #240, #210, #237, .T. ) ;
#45 = VECTOR ( 'NONE', #187, 39.37007874015748143 ) ;
#46 = CYLINDRICAL_SURFACE ( 'NONE', #34, 0.3124999999999998890 ) ;
#47 = CARTESIAN_POINT ( 'NONE',  ( 3.827021247335478926E-17, 0.000000000000000000, 0.3125000000000000000 ) ) ;
#48 = SURFACE_STYLE_USAGE ( .BOTH. , #259 ) ;
#49 = COLOUR_RGB ( '',1.000000000000000000, 0.000000000000000000, 0.000000000000000000 ) ;
#50 = AXIS2_PLACEMENT_3D ( 'NONE', #263, #266, #27 ) ;
#51 = FILL_AREA_STYLE_COLOUR ( '', #92 ) ;
#52 = DIRECTION ( 'NONE',  ( -1.000000000000000000, 1.088574932575424895E-16, 0.000000000000000000 ) ) ;
#53 = EDGE_CURVE ( 'NONE', #217, #35, #94, .T. ) ;
#54 = CYLINDRICAL_SURFACE ( 'NONE', #198, 0.3125000000000000000 ) ;
#55 = PRESENTATION_LAYER_ASSIGNMENT (  '', '', ( #175 ) ) ;
#56 = AXIS2_PLACEMENT_3D ( 'NONE', #222, #38, #88 ) ;
#57 =( NAMED_UNIT ( * ) SI_UNIT ( $, .STERADIAN. ) SOLID_ANGLE_UNIT ( ) );
#58 = ORIENTED_EDGE ( 'NONE', *, *, #272, .T. ) ;
#59 = LENGTH_MEASURE_WITH_UNIT ( LENGTH_MEASURE( 0.02539999999999999897 ), #219 );
#60 = ORIENTED_EDGE ( 'NONE', *, *, #107, .T. ) ;
#61 = DIRECTION ( 'NONE',  ( -0.000000000000000000, -1.000000000000000000, -0.000000000000000000 ) ) ;
#62 = SURFACE_STYLE_FILL_AREA ( #291 ) ;
#63 = CIRCLE ( 'NONE', #292, 0.3124999999999997224 ) ;
#64 = DIRECTION ( 'NONE',  ( 0.000000000000000000, 0.000000000000000000, -1.000000000000000000 ) ) ;
#65 = ORIENTED_EDGE ( 'NONE', *, *, #218, .T. ) ;
#66 =( NAMED_UNIT ( * ) PLANE_ANGLE_UNIT ( ) SI_UNIT ( $, .RADIAN. ) );
#67 = PRODUCT ( '83311', '83311', '', ( #14 ) ) ;
#68 =( CONVERSION_BASED_UNIT ( 'INCH', #117 ) LENGTH_UNIT ( ) NAMED_UNIT ( #153 ) );
#69 = STYLED_ITEM ( 'NONE', ( #289 ), #302 ) ;
#70 = FACE_OUTER_BOUND ( 'NONE', #96, .T. ) ;
#71 = DIRECTION ( 'NONE',  ( 0.000000000000000000, 0.000000000000000000, 1.000000000000000000 ) ) ;
#72 = EDGE_CURVE ( 'NONE', #210, #113, #138, .T. ) ;
#73 = DIRECTION ( 'NONE',  ( -0.000000000000000000, -1.000000000000000000, -0.000000000000000000 ) ) ;
#74 = FACE_OUTER_BOUND ( 'NONE', #202, .T. ) ;
#75 = FILL_AREA_STYLE ('',( #281 ) ) ;
#76 = ADVANCED_FACE ( 'NONE', ( #164 ), #42, .T. ) ;
#77 = DIRECTION ( 'NONE',  ( 1.088574932575424772E-16, 1.000000000000000000, -0.000000000000000000 ) ) ;
#78 = FACE_OUTER_BOUND ( 'NONE', #1, .T. ) ;
#79 = AXIS2_PLACEMENT_3D ( 'NONE', #97, #309, #191 ) ;
#80 = DIRECTION ( 'NONE',  ( 0.000000000000000000, 0.000000000000000000, -1.000000000000000000 ) ) ;
#81 = SURFACE_SIDE_STYLE ('',( #205 ) ) ;
#82 = CARTESIAN_POINT ( 'NONE',  ( -0.3125000000000000000, 0.7499999999999998890, 0.000000000000000000 ) ) ;
#83 = PRESENTATION_STYLE_ASSIGNMENT (( #223 ) ) ;
#84 =( NAMED_UNIT ( * ) PLANE_ANGLE_UNIT ( ) SI_UNIT ( $, .RADIAN. ) );
#85 = EDGE_LOOP ( 'NONE', ( #268, #87, #226, #135 ) ) ;
#86 = PRODUCT_RELATED_PRODUCT_CATEGORY ( 'part', '', ( #67 ) ) ;
#87 = ORIENTED_EDGE ( 'NONE', *, *, #248, .T. ) ;
#88 = DIRECTION ( 'NONE',  ( -1.000000000000000000, 0.000000000000000000, 0.000000000000000000 ) ) ;
#89 = CARTESIAN_POINT ( 'NONE',  ( 0.3125000000000000000, 0.7499999999999998890, 3.827021247335477694E-17 ) ) ;
#90 = DIRECTION ( 'NONE',  ( 1.000000000000000000, -1.088574932575424895E-16, 0.000000000000000000 ) ) ;
#91 = VECTOR ( 'NONE', #183, 39.37007874015748143 ) ;
#92 = COLOUR_RGB ( '',0.7921568627450980005, 0.8196078431372548767, 0.9333333333333333481 ) ;
#93 = DIMENSIONAL_EXPONENTS ( 1.000000000000000000, 0.000000000000000000, 0.000000000000000000, 0.000000000000000000, 0.000000000000000000, 0.000000000000000000, 0.000000000000000000 ) ;
#94 = LINE ( 'NONE', #207, #91 ) ;
#95 = CARTESIAN_POINT ( 'NONE',  ( 0.000000000000000000, 0.000000000000000000, -0.3125000000000000000 ) ) ;
#96 = EDGE_LOOP ( 'NONE', ( #60, #158 ) ) ;
#97 = CARTESIAN_POINT ( 'NONE',  ( 0.000000000000000000, 0.7499999999999998890, 0.000000000000000000 ) ) ;
#98 =( GEOMETRIC_REPRESENTATION_CONTEXT ( 3 ) GLOBAL_UNCERTAINTY_ASSIGNED_CONTEXT ( ( #192 ) ) GLOBAL_UNIT_ASSIGNED_CONTEXT ( ( #288, #294, #57 ) ) REPRESENTATION_CONTEXT ( 'NONE', 'WORKASPACE' ) );
#99 = SURFACE_STYLE_FILL_AREA ( #75 ) ;
#100 = UNCERTAINTY_MEASURE_WITH_UNIT (LENGTH_MEASURE( 1.000000000000000082E-05 ), #68, 'distance_accuracy_value', 'NONE');
#101 =( LENGTH_UNIT ( ) NAMED_UNIT ( * ) SI_UNIT ( $, .METRE. ) );
#102 = EDGE_CURVE ( 'NONE', #240, #165, #213, .T. ) ;
#103 = CARTESIAN_POINT ( 'NONE',  ( 0.000000000000000000, 0.000000000000000000, 0.000000000000000000 ) ) ;
#104 = STYLED_ITEM ( 'NONE', ( #25 ), #204 ) ;
#105 = DIRECTION ( 'NONE',  ( -1.000000000000000000, 0.000000000000000000, 0.000000000000000000 ) ) ;
#106 = CARTESIAN_POINT ( 'NONE',  ( 3.827021247335478926E-17, 0.7499999999999998890, 0.3125000000000000000 ) ) ;
#107 = EDGE_CURVE ( 'NONE', #35, #162, #63, .T. ) ;
#108 = ADVANCED_BREP_SHAPE_REPRESENTATION ( '83311', ( #302, #204, #26 ), #184 ) ;
#109 =( LENGTH_UNIT ( ) NAMED_UNIT ( * ) SI_UNIT ( $, .METRE. ) );
#110 =( NAMED_UNIT ( * ) PLANE_ANGLE_UNIT ( ) SI_UNIT ( $, .RADIAN. ) );
#111 = CLOSED_SHELL ( 'NONE', ( #76, #128, #232, #166 ) ) ;
#112 =( LENGTH_UNIT ( ) NAMED_UNIT ( * ) SI_UNIT ( $, .METRE. ) );
#113 = VERTEX_POINT ( 'NONE', #47 ) ;
#114 = AXIS2_PLACEMENT_3D ( 'NONE', #10, #247, #90 ) ;
#115 = DIMENSIONAL_EXPONENTS ( 1.000000000000000000, 0.000000000000000000, 0.000000000000000000, 0.000000000000000000, 0.000000000000000000, 0.000000000000000000, 0.000000000000000000 ) ;
#116 = DIRECTION ( 'NONE',  ( -0.000000000000000000, -1.000000000000000000, -0.000000000000000000 ) ) ;
#117 = LENGTH_MEASURE_WITH_UNIT ( LENGTH_MEASURE( 0.02539999999999999897 ), #41 );
#118 = ORIENTED_EDGE ( 'NONE', *, *, #305, .F. ) ;
#119 = COLOUR_RGB ( '',1.000000000000000000, 0.000000000000000000, 0.000000000000000000 ) ;
#120 = CARTESIAN_POINT ( 'NONE',  ( 2.449293598294705921E-16, 3.000000000000000444, 0.000000000000000000 ) ) ;
#121 = DIRECTION ( 'NONE',  ( 0.000000000000000000, 0.000000000000000000, -1.000000000000000000 ) ) ;
#122 =( CONVERSION_BASED_UNIT ( 'INCH', #235 ) LENGTH_UNIT ( ) NAMED_UNIT ( #15 ) );
#123 = AXIS2_PLACEMENT_3D ( 'NONE', #140, #36, #121 ) ;
#124 =( GEOMETRIC_REPRESENTATION_CONTEXT ( 3 ) GLOBAL_UNCERTAINTY_ASSIGNED_CONTEXT ( ( #254 ) ) GLOBAL_UNIT_ASSIGNED_CONTEXT ( ( #169, #227, #6 ) ) REPRESENTATION_CONTEXT ( 'NONE', 'WORKASPACE' ) );
#125 = PRESENTATION_STYLE_ASSIGNMENT (( #48 ) ) ;
#126 = UNCERTAINTY_MEASURE_WITH_UNIT (LENGTH_MEASURE( 1.000000000000000082E-05 ), #8, 'distance_accuracy_value', 'NONE');
#127 = SURFACE_STYLE_USAGE ( .BOTH. , #4 ) ;
#128 = ADVANCED_FACE ( 'NONE', ( #74 ), #233, .T. ) ;
#129 = DIRECTION ( 'NONE',  ( -0.000000000000000000, -1.000000000000000000, -0.000000000000000000 ) ) ;
#130 = DIRECTION ( 'NONE',  ( 1.088574932575424772E-16, 1.000000000000000000, -0.000000000000000000 ) ) ;
#131 = ORIENTED_EDGE ( 'NONE', *, *, #44, .T. ) ;
#132 = MECHANICAL_DESIGN_GEOMETRIC_PRESENTATION_REPRESENTATION (  '', ( #175 ), #283 ) ;
#133 = AXIS2_PLACEMENT_3D ( 'NONE', #150, #129, #264 ) ;
#134 = ADVANCED_FACE ( 'NONE', ( #78 ), #46, .T. ) ;
#135 = ORIENTED_EDGE ( 'NONE', *, *, #53, .F. ) ;
#136 = MECHANICAL_DESIGN_GEOMETRIC_PRESENTATION_REPRESENTATION (  '', ( #142 ), #230 ) ;
#137 = PRESENTATION_LAYER_ASSIGNMENT (  '', '', ( #252 ) ) ;
#138 = LINE ( 'NONE', #185, #45 ) ;
#139 = DIRECTION ( 'NONE',  ( 1.000000000000000000, 0.000000000000000000, 0.000000000000000000 ) ) ;
#140 = CARTESIAN_POINT ( 'NONE',  ( 0.000000000000000000, 0.000000000000000000, 0.000000000000000000 ) ) ;
#141 =( LENGTH_UNIT ( ) NAMED_UNIT ( * ) SI_UNIT ( $, .METRE. ) );
#142 = STYLED_ITEM ( 'NONE', ( #125 ), #166 ) ;
#143 = AXIS2_PLACEMENT_3D ( 'NONE', #120, #239, #212 ) ;
#144 =( NAMED_UNIT ( * ) PLANE_ANGLE_UNIT ( ) SI_UNIT ( $, .RADIAN. ) );
#145 = ADVANCED_FACE ( 'NONE', ( #261 ), #234, .T. ) ;
#146 = SURFACE_STYLE_USAGE ( .BOTH. , #194 ) ;
#147 = CLOSED_SHELL ( 'NONE', ( #145, #190, #134, #21 ) ) ;
#148 = CIRCLE ( 'NONE', #133, 0.3125000000000000000 ) ;
#149 = CARTESIAN_POINT ( 'NONE',  ( 2.449293598294705921E-16, 3.000000000000000444, 0.000000000000000000 ) ) ;
#150 = CARTESIAN_POINT ( 'NONE',  ( 0.000000000000000000, 0.7499999999999998890, 0.000000000000000000 ) ) ;
#151 = FILL_AREA_STYLE ('',( #51 ) ) ;
#152 = STYLED_ITEM ( 'NONE', ( #228 ), #76 ) ;
#153 = DIMENSIONAL_EXPONENTS ( 1.000000000000000000, 0.000000000000000000, 0.000000000000000000, 0.000000000000000000, 0.000000000000000000, 0.000000000000000000, 0.000000000000000000 ) ;
#154 = CIRCLE ( 'NONE', #7, 0.3125000000000000000 ) ;
#155 = PLANE ( 'NONE',  #160 ) ;
#156 = LENGTH_MEASURE_WITH_UNIT ( LENGTH_MEASURE( 0.02539999999999999897 ), #109 );
#157 =( NAMED_UNIT ( * ) SI_UNIT ( $, .STERADIAN. ) SOLID_ANGLE_UNIT ( ) );
#158 = ORIENTED_EDGE ( 'NONE', *, *, #305, .T. ) ;
#159 = MECHANICAL_DESIGN_GEOMETRIC_PRESENTATION_REPRESENTATION (  '', ( #152 ), #188 ) ;
#160 = AXIS2_PLACEMENT_3D ( 'NONE', #199, #285, #52 ) ;
#161 = ORIENTED_EDGE ( 'NONE', *, *, #241, .T. ) ;
#162 = VERTEX_POINT ( 'NONE', #304 ) ;
#163 = CARTESIAN_POINT ( 'NONE',  ( 0.000000000000000000, 0.000000000000000000, 0.000000000000000000 ) ) ;
#164 = FACE_OUTER_BOUND ( 'NONE', #193, .T. ) ;
#165 = VERTEX_POINT ( 'NONE', #95 ) ;
#166 = ADVANCED_FACE ( 'NONE', ( #174 ), #18, .T. ) ;
#167 = ORIENTED_EDGE ( 'NONE', *, *, #241, .F. ) ;
#168 = CIRCLE ( 'NONE', #56, 0.3124999999999997224 ) ;
#169 =( CONVERSION_BASED_UNIT ( 'INCH', #23 ) LENGTH_UNIT ( ) NAMED_UNIT ( #115 ) );
#170 = DIRECTION ( 'NONE',  ( 1.088574932575424772E-16, 1.000000000000000000, -0.000000000000000000 ) ) ;
#171 = UNCERTAINTY_MEASURE_WITH_UNIT (LENGTH_MEASURE( 1.000000000000000082E-05 ), #122, 'distance_accuracy_value', 'NONE');
#172 = APPLICATION_CONTEXT ( 'automotive_design' ) ;
#173 = LENGTH_MEASURE_WITH_UNIT ( LENGTH_MEASURE( 0.02539999999999999897 ), #141 );
#174 = FACE_OUTER_BOUND ( 'NONE', #296, .T. ) ;
#175 = STYLED_ITEM ( 'NONE', ( #282 ), #128 ) ;
#176 = MECHANICAL_DESIGN_GEOMETRIC_PRESENTATION_REPRESENTATION (  '', ( #69 ), #298 ) ;
#177 = CARTESIAN_POINT ( 'NONE',  ( 0.000000000000000000, 0.000000000000000000, 0.000000000000000000 ) ) ;
#178 = SURFACE_STYLE_FILL_AREA ( #221 ) ;
#179 = AXIS2_PLACEMENT_3D ( 'NONE', #287, #130, #105 ) ;
#180 = ORIENTED_EDGE ( 'NONE', *, *, #33, .F. ) ;
#181 = LINE ( 'NONE', #29, #308 ) ;
#182 = PRODUCT_DEFINITION_SHAPE ( 'NONE', 'NONE',  #206 ) ;
#183 = DIRECTION ( 'NONE',  ( 1.088574932575424895E-16, 1.000000000000000000, -0.000000000000000000 ) ) ;
#184 =( GEOMETRIC_REPRESENTATION_CONTEXT ( 3 ) GLOBAL_UNCERTAINTY_ASSIGNED_CONTEXT ( ( #100 ) ) GLOBAL_UNIT_ASSIGNED_CONTEXT ( ( #68, #253, #278 ) ) REPRESENTATION_CONTEXT ( 'NONE', 'WORKASPACE' ) );
#185 = CARTESIAN_POINT ( 'NONE',  ( 3.827021247335478926E-17, 0.000000000000000000, 0.3125000000000000000 ) ) ;
#186 = APPLICATION_PROTOCOL_DEFINITION ( 'draft international standard', 'automotive_design', 1998, #290 ) ;
#187 = DIRECTION ( 'NONE',  ( -0.000000000000000000, -1.000000000000000000, -0.000000000000000000 ) ) ;
#188 =( GEOMETRIC_REPRESENTATION_CONTEXT ( 3 ) GLOBAL_UNCERTAINTY_ASSIGNED_CONTEXT ( ( #277 ) ) GLOBAL_UNIT_ASSIGNED_CONTEXT ( ( #37, #66, #16 ) ) REPRESENTATION_CONTEXT ( 'NONE', 'WORKASPACE' ) );
#189 = SURFACE_STYLE_USAGE ( .BOTH. , #12 ) ;
#190 = ADVANCED_FACE ( 'NONE', ( #30 ), #155, .F. ) ;
#191 = DIRECTION ( 'NONE',  ( 0.000000000000000000, -0.000000000000000000, 1.000000000000000000 ) ) ;
#192 = UNCERTAINTY_MEASURE_WITH_UNIT (LENGTH_MEASURE( 1.000000000000000082E-05 ), #288, 'distance_accuracy_value', 'NONE');
#193 = EDGE_LOOP ( 'NONE', ( #131, #300, #180, #40 ) ) ;
#194 = SURFACE_SIDE_STYLE ('',( #99 ) ) ;
#195 = PRESENTATION_LAYER_ASSIGNMENT (  '', '', ( #152 ) ) ;
#196 = CARTESIAN_POINT ( 'NONE',  ( 0.000000000000000000, 0.000000000000000000, -0.3125000000000000000 ) ) ;
#197 =( NAMED_UNIT ( * ) SI_UNIT ( $, .STERADIAN. ) SOLID_ANGLE_UNIT ( ) );
#198 = AXIS2_PLACEMENT_3D ( 'NONE', #177, #244, #80 ) ;
#199 = CARTESIAN_POINT ( 'NONE',  ( 1.851555287236860585E-33, 0.7499999999999998890, 0.000000000000000000 ) ) ;
#200 = EDGE_LOOP ( 'NONE', ( #220, #257 ) ) ;
#201 = FILL_AREA_STYLE_COLOUR ( '', #225 ) ;
#202 = EDGE_LOOP ( 'NONE', ( #224, #229 ) ) ;
#203 =( NAMED_UNIT ( * ) SI_UNIT ( $, .STERADIAN. ) SOLID_ANGLE_UNIT ( ) );
#204 = MANIFOLD_SOLID_BREP ( 'Revolve - Tool Body (Straight Shanked)', #147 ) ;
#205 = SURFACE_STYLE_FILL_AREA ( #151 ) ;
#206 = PRODUCT_DEFINITION ( 'UNKNOWN', '', #211, #286 ) ;
#207 = CARTESIAN_POINT ( 'NONE',  ( -0.3124999999999996114, 3.000000000000000444, 0.000000000000000000 ) ) ;
#208 = CARTESIAN_POINT ( 'NONE',  ( -0.3124999999999994449, 3.000000000000000444, 0.000000000000000000 ) ) ;
#209 = SHAPE_DEFINITION_REPRESENTATION ( #182, #108 ) ;
#210 = VERTEX_POINT ( 'NONE', #106 ) ;
#211 = PRODUCT_DEFINITION_FORMATION_WITH_SPECIFIED_SOURCE ( 'ANY', '', #67, .NOT_KNOWN. ) ;
#212 = DIRECTION ( 'NONE',  ( -1.000000000000000000, 0.000000000000000000, 0.000000000000000000 ) ) ;
#213 = LINE ( 'NONE', #196, #297 ) ;
#214 = PRESENTATION_LAYER_ASSIGNMENT (  '', '', ( #104 ) ) ;
#215 = DIRECTION ( 'NONE',  ( -1.000000000000000000, 0.000000000000000000, 0.000000000000000000 ) ) ;
#216 =( LENGTH_UNIT ( ) NAMED_UNIT ( * ) SI_UNIT ( $, .METRE. ) );
#217 = VERTEX_POINT ( 'NONE', #82 ) ;
#218 = EDGE_CURVE ( 'NONE', #210, #240, #148, .T. ) ;
#219 =( LENGTH_UNIT ( ) NAMED_UNIT ( * ) SI_UNIT ( $, .METRE. ) );
#220 = ORIENTED_EDGE ( 'NONE', *, *, #295, .F. ) ;
#221 = FILL_AREA_STYLE ('',( #28 ) ) ;
#222 = CARTESIAN_POINT ( 'NONE',  ( 2.449293598294705921E-16, 3.000000000000000444, 0.000000000000000000 ) ) ;
#223 = SURFACE_STYLE_USAGE ( .BOTH. , #265 ) ;
#224 = ORIENTED_EDGE ( 'NONE', *, *, #44, .F. ) ;
#225 = COLOUR_RGB ( '',0.7921568627450980005, 0.8196078431372548767, 0.9333333333333333481 ) ;
#226 = ORIENTED_EDGE ( 'NONE', *, *, #107, .F. ) ;
#227 =( NAMED_UNIT ( * ) PLANE_ANGLE_UNIT ( ) SI_UNIT ( $, .RADIAN. ) );
#228 = PRESENTATION_STYLE_ASSIGNMENT (( #189 ) ) ;
#229 = ORIENTED_EDGE ( 'NONE', *, *, #218, .F. ) ;
#230 =( GEOMETRIC_REPRESENTATION_CONTEXT ( 3 ) GLOBAL_UNCERTAINTY_ASSIGNED_CONTEXT ( ( #171 ) ) GLOBAL_UNIT_ASSIGNED_CONTEXT ( ( #122, #110, #203 ) ) REPRESENTATION_CONTEXT ( 'NONE', 'WORKASPACE' ) );
#231 = APPLICATION_PROTOCOL_DEFINITION ( 'draft international standard', 'automotive_design', 1998, #172 ) ;
#232 = ADVANCED_FACE ( 'NONE', ( #267 ), #54, .T. ) ;
#233 = PLANE ( 'NONE',  #79 ) ;
#234 = CYLINDRICAL_SURFACE ( 'NONE', #143, 0.3124999999999998890 ) ;
#235 = LENGTH_MEASURE_WITH_UNIT ( LENGTH_MEASURE( 0.02539999999999999897 ), #101 );
#236 = UNCERTAINTY_MEASURE_WITH_UNIT (LENGTH_MEASURE( 1.000000000000000082E-05 ), #258, 'distance_accuracy_value', 'NONE');
#237 = CIRCLE ( 'NONE', #273, 0.3125000000000000000 ) ;
#238 = CIRCLE ( 'NONE', #50, 0.3125000000000000000 ) ;
#239 = DIRECTION ( 'NONE',  ( 1.088574932575424772E-16, 1.000000000000000000, -0.000000000000000000 ) ) ;
#240 = VERTEX_POINT ( 'NONE', #242 ) ;
#241 = EDGE_CURVE ( 'NONE', #113, #165, #154, .T. ) ;
#242 = CARTESIAN_POINT ( 'NONE',  ( 0.000000000000000000, 0.7499999999999998890, -0.3125000000000000000 ) ) ;
#243 = SURFACE_STYLE_USAGE ( .BOTH. , #81 ) ;
#244 = DIRECTION ( 'NONE',  ( -0.000000000000000000, -1.000000000000000000, -0.000000000000000000 ) ) ;
#245 = DIRECTION ( 'NONE',  ( 0.000000000000000000, 0.000000000000000000, -1.000000000000000000 ) ) ;
#246 = DIMENSIONAL_EXPONENTS ( 1.000000000000000000, 0.000000000000000000, 0.000000000000000000, 0.000000000000000000, 0.000000000000000000, 0.000000000000000000, 0.000000000000000000 ) ;
#247 = DIRECTION ( 'NONE',  ( -1.088574932575424895E-16, -1.000000000000000000, 0.000000000000000000 ) ) ;
#248 = EDGE_CURVE ( 'NONE', #31, #162, #181, .T. ) ;
#249 = LENGTH_MEASURE_WITH_UNIT ( LENGTH_MEASURE( 0.02539999999999999897 ), #112 );
#250 = DIMENSIONAL_EXPONENTS ( 1.000000000000000000, 0.000000000000000000, 0.000000000000000000, 0.000000000000000000, 0.000000000000000000, 0.000000000000000000, 0.000000000000000000 ) ;
#251 = SURFACE_STYLE_FILL_AREA ( #43 ) ;
#252 = STYLED_ITEM ( 'NONE', ( #83 ), #232 ) ;
#253 =( NAMED_UNIT ( * ) PLANE_ANGLE_UNIT ( ) SI_UNIT ( $, .RADIAN. ) );
#254 = UNCERTAINTY_MEASURE_WITH_UNIT (LENGTH_MEASURE( 1.000000000000000082E-05 ), #169, 'distance_accuracy_value', 'NONE');
#255 = DIRECTION ( 'NONE',  ( 0.000000000000000000, 0.000000000000000000, -1.000000000000000000 ) ) ;
#256 = CIRCLE ( 'NONE', #11, 0.3125000000000000000 ) ;
#257 = ORIENTED_EDGE ( 'NONE', *, *, #272, .F. ) ;
#258 =( CONVERSION_BASED_UNIT ( 'INCH', #173 ) LENGTH_UNIT ( ) NAMED_UNIT ( #250 ) );
#259 = SURFACE_SIDE_STYLE ('',( #22 ) ) ;
#260 = COLOUR_RGB ( '',1.000000000000000000, 0.000000000000000000, 0.000000000000000000 ) ;
#261 = FACE_OUTER_BOUND ( 'NONE', #85, .T. ) ;
#262 = DIRECTION ( 'NONE',  ( 0.000000000000000000, 0.000000000000000000, -1.000000000000000000 ) ) ;
#263 = CARTESIAN_POINT ( 'NONE',  ( -3.032960542342103792E-32, 0.7499999999999998890, 0.000000000000000000 ) ) ;
#264 = DIRECTION ( 'NONE',  ( 0.000000000000000000, 0.000000000000000000, -1.000000000000000000 ) ) ;
#265 = SURFACE_SIDE_STYLE ('',( #178 ) ) ;
#266 = DIRECTION ( 'NONE',  ( 1.088574932575424772E-16, 1.000000000000000000, -0.000000000000000000 ) ) ;
#267 = FACE_OUTER_BOUND ( 'NONE', #13, .T. ) ;
#268 = ORIENTED_EDGE ( 'NONE', *, *, #295, .T. ) ;
#269 = COLOUR_RGB ( '',1.000000000000000000, 0.000000000000000000, 0.000000000000000000 ) ;
#270 = CARTESIAN_POINT ( 'NONE',  ( 0.000000000000000000, 0.000000000000000000, 0.000000000000000000 ) ) ;
#271 = ORIENTED_EDGE ( 'NONE', *, *, #72, .F. ) ;
#272 = EDGE_CURVE ( 'NONE', #31, #217, #238, .T. ) ;
#273 = AXIS2_PLACEMENT_3D ( 'NONE', #274, #73, #255 ) ;
#274 = CARTESIAN_POINT ( 'NONE',  ( 0.000000000000000000, 0.7499999999999998890, 0.000000000000000000 ) ) ;
#275 = AXIS2_PLACEMENT_3D ( 'NONE', #103, #5, #262 ) ;
#276 = ORIENTED_EDGE ( 'NONE', *, *, #53, .T. ) ;
#277 = UNCERTAINTY_MEASURE_WITH_UNIT (LENGTH_MEASURE( 1.000000000000000082E-05 ), #37, 'distance_accuracy_value', 'NONE');
#278 =( NAMED_UNIT ( * ) SI_UNIT ( $, .STERADIAN. ) SOLID_ANGLE_UNIT ( ) );
#279 = DIRECTION ( 'NONE',  ( -0.000000000000000000, -1.000000000000000000, -0.000000000000000000 ) ) ;
#280 = FILL_AREA_STYLE ('',( #306 ) ) ;
#281 = FILL_AREA_STYLE_COLOUR ( '', #49 ) ;
#282 = PRESENTATION_STYLE_ASSIGNMENT (( #146 ) ) ;
#283 =( GEOMETRIC_REPRESENTATION_CONTEXT ( 3 ) GLOBAL_UNCERTAINTY_ASSIGNED_CONTEXT ( ( #236 ) ) GLOBAL_UNIT_ASSIGNED_CONTEXT ( ( #258, #144, #197 ) ) REPRESENTATION_CONTEXT ( 'NONE', 'WORKASPACE' ) );
#284 = CIRCLE ( 'NONE', #179, 0.3125000000000000000 ) ;
#285 = DIRECTION ( 'NONE',  ( 1.088574932575424895E-16, 1.000000000000000000, -0.000000000000000000 ) ) ;
#286 = PRODUCT_DEFINITION_CONTEXT ( 'detailed design', #290, 'design' ) ;
#287 = CARTESIAN_POINT ( 'NONE',  ( -3.032960542342103792E-32, 0.7499999999999998890, 0.000000000000000000 ) ) ;
#288 =( CONVERSION_BASED_UNIT ( 'INCH', #59 ) LENGTH_UNIT ( ) NAMED_UNIT ( #246 ) );
#289 = PRESENTATION_STYLE_ASSIGNMENT (( #127 ) ) ;
#290 = APPLICATION_CONTEXT ( 'automotive_design' ) ;
#291 = FILL_AREA_STYLE ('',( #201 ) ) ;
#292 = AXIS2_PLACEMENT_3D ( 'NONE', #149, #77, #307 ) ;
#293 = PRESENTATION_LAYER_ASSIGNMENT (  '', '', ( #69 ) ) ;
#294 =( NAMED_UNIT ( * ) PLANE_ANGLE_UNIT ( ) SI_UNIT ( $, .RADIAN. ) );
#295 = EDGE_CURVE ( 'NONE', #217, #31, #284, .T. ) ;
#296 = EDGE_LOOP ( 'NONE', ( #3, #161 ) ) ;
#297 = VECTOR ( 'NONE', #279, 39.37007874015748143 ) ;
#298 =( GEOMETRIC_REPRESENTATION_CONTEXT ( 3 ) GLOBAL_UNCERTAINTY_ASSIGNED_CONTEXT ( ( #126 ) ) GLOBAL_UNIT_ASSIGNED_CONTEXT ( ( #8, #84, #157 ) ) REPRESENTATION_CONTEXT ( 'NONE', 'WORKASPACE' ) );
#299 = FILL_AREA_STYLE_COLOUR ( '', #260 ) ;
#300 = ORIENTED_EDGE ( 'NONE', *, *, #72, .T. ) ;
#301 = DIMENSIONAL_EXPONENTS ( 1.000000000000000000, 0.000000000000000000, 0.000000000000000000, 0.000000000000000000, 0.000000000000000000, 0.000000000000000000, 0.000000000000000000 ) ;
#302 = MANIFOLD_SOLID_BREP ( 'Revolve - Cutting Edge', #111 ) ;
#303 = PLANE ( 'NONE',  #114 ) ;
#304 = CARTESIAN_POINT ( 'NONE',  ( 0.3125000000000000000, 3.000000000000000444, 3.827021247335477694E-17 ) ) ;
#305 = EDGE_CURVE ( 'NONE', #162, #35, #168, .T. ) ;
#306 = FILL_AREA_STYLE_COLOUR ( '', #269 ) ;
#307 = DIRECTION ( 'NONE',  ( -1.000000000000000000, 0.000000000000000000, 0.000000000000000000 ) ) ;
#308 = VECTOR ( 'NONE', #32, 39.37007874015748143 ) ;
#309 = DIRECTION ( 'NONE',  ( 0.000000000000000000, 1.000000000000000000, 0.000000000000000000 ) ) ;
ENDSEC;
END-ISO-10303-21;
