ISO-10303-21;
HEADER;
FILE_DESCRIPTION (( 'STEP AP214' ),
    '1' );
FILE_NAME ('Micro_BEM-031-04X.STEP',
    '2021-09-03T12:57:24',
    ( '' ),
    ( '' ),
    'SwSTEP 2.0',
    'SolidWorks 2020',
    '' );
FILE_SCHEMA (( 'AUTOMOTIVE_DESIGN' ));
ENDSEC;

DATA;
#1 = DIRECTION ( 'NONE',  ( 0.0000000000000000000, 0.0000000000000000000, 1.000000000000000000 ) ) ;
#2 = FILL_AREA_STYLE ('',( #63 ) ) ;
#3 = EDGE_LOOP ( 'NONE', ( #87, #309, #110, #142 ) ) ;
#4 = AXIS2_PLACEMENT_3D ( 'NONE', #68, #120, #215 ) ;
#5 = APPLICATION_PROTOCOL_DEFINITION ( 'draft international standard', 'automotive_design', 1998, #187 ) ;
#6 = EDGE_CURVE ( 'NONE', #191, #149, #81, .T. ) ;
#7 = ORIENTED_EDGE ( 'NONE', *, *, #16, .F. ) ;
#8 =( NAMED_UNIT ( * ) PLANE_ANGLE_UNIT ( ) SI_UNIT ( $, .RADIAN. ) );
#9 = VERTEX_POINT ( 'NONE', #268 ) ;
#10 = EDGE_CURVE ( 'NONE', #230, #138, #193, .T. ) ;
#11 = DIRECTION ( 'NONE',  ( -1.224646799147353700E-16, -0.0000000000000000000, -1.000000000000000000 ) ) ;
#12 = ORIENTED_EDGE ( 'NONE', *, *, #185, .F. ) ;
#13 = FACE_OUTER_BOUND ( 'NONE', #96, .T. ) ;
#14 = ORIENTED_EDGE ( 'NONE', *, *, #43, .F. ) ;
#15 = AXIS2_PLACEMENT_3D ( 'NONE', #293, #19, #27 ) ;
#16 = EDGE_CURVE ( 'NONE', #45, #230, #274, .T. ) ;
#17 =( NAMED_UNIT ( * ) SI_UNIT ( $, .STERADIAN. ) SOLID_ANGLE_UNIT ( ) );
#18 = DIRECTION ( 'NONE',  ( 0.0000000000000000000, 0.0000000000000000000, -1.000000000000000000 ) ) ;
#19 = DIRECTION ( 'NONE',  ( 1.224646799147353207E-16, 1.000000000000000000, -0.0000000000000000000 ) ) ;
#20 = CARTESIAN_POINT ( 'NONE',  ( -0.01563435000000001560, 0.0000000000000000000, 1.914655668424944522E-18 ) ) ;
#21 = CARTESIAN_POINT ( 'NONE',  ( 0.0000000000000000000, 0.0000000000000000000, 1.500000000000000222 ) ) ;
#22 = FACE_OUTER_BOUND ( 'NONE', #3, .T. ) ;
#23 = DIRECTION ( 'NONE',  ( -1.224646799147353700E-16, -0.0000000000000000000, -1.000000000000000000 ) ) ;
#24 = CARTESIAN_POINT ( 'NONE',  ( 0.04750000000000064587, 6.735557395310483192E-18, 1.500000000000000222 ) ) ;
#25 = AXIS2_PLACEMENT_3D ( 'NONE', #200, #78, #148 ) ;
#26 = DIRECTION ( 'NONE',  ( -0.0000000000000000000, -0.0000000000000000000, -1.000000000000000000 ) ) ;
#27 = DIRECTION ( 'NONE',  ( -1.000000000000000000, 1.224646799147353207E-16, 0.0000000000000000000 ) ) ;
#28 = EDGE_CURVE ( 'NONE', #279, #149, #173, .T. ) ;
#29 = ADVANCED_FACE ( 'NONE', ( #243 ), #163, .T. ) ;
#30 = CIRCLE ( 'NONE', #318, 0.06250000000000002776 ) ;
#31 = VECTOR ( 'NONE', #171, 39.37007874015748143 ) ;
#32 = AXIS2_PLACEMENT_3D ( 'NONE', #93, #195, #287 ) ;
#33 = ADVANCED_FACE ( 'NONE', ( #314 ), #39, .T. ) ;
#34 = DIRECTION ( 'NONE',  ( 1.000000000000000000, 0.0000000000000000000, 0.0000000000000000000 ) ) ;
#35 = LENGTH_MEASURE_WITH_UNIT ( LENGTH_MEASURE( 0.02539999999999999897 ), #228 );
#36 = ORIENTED_EDGE ( 'NONE', *, *, #6, .T. ) ;
#37 = ORIENTED_EDGE ( 'NONE', *, *, #16, .T. ) ;
#38 = CONICAL_SURFACE ( 'NONE', #32, 0.04750000000000064587, 0.7853981633974466137 ) ;
#39 = CONICAL_SURFACE ( 'NONE', #130, 0.01563435000000000866, 0.1745329251994338915 ) ;
#40 = CARTESIAN_POINT ( 'NONE',  ( 0.0000000000000000000, 0.0000000000000000000, 0.0000000000000000000 ) ) ;
#41 = EDGE_LOOP ( 'NONE', ( #233, #36, #236 ) ) ;
#42 = UNCERTAINTY_MEASURE_WITH_UNIT (LENGTH_MEASURE( 1.000000000000000082E-05 ), #109, 'distance_accuracy_value', 'NONE');
#43 = EDGE_CURVE ( 'NONE', #95, #9, #55, .T. ) ;
#44 = CARTESIAN_POINT ( 'NONE',  ( -0.06250000000000002776, 0.0000000000000000000, 1.485000000000000764 ) ) ;
#45 = VERTEX_POINT ( 'NONE', #128 ) ;
#46 = EDGE_CURVE ( 'NONE', #138, #9, #137, .T. ) ;
#47 = VECTOR ( 'NONE', #320, 39.37007874015748143 ) ;
#48 =( NAMED_UNIT ( * ) PLANE_ANGLE_UNIT ( ) SI_UNIT ( $, .RADIAN. ) );
#49 = AXIS2_PLACEMENT_3D ( 'NONE', #324, #224, #77 ) ;
#50 = CARTESIAN_POINT ( 'NONE',  ( 0.06250000000000002776, 7.654042494670959086E-18, 1.500000000000000222 ) ) ;
#51 = DIRECTION ( 'NONE',  ( -1.224646799147353700E-16, -0.0000000000000000000, -1.000000000000000000 ) ) ;
#52 = ORIENTED_EDGE ( 'NONE', *, *, #79, .T. ) ;
#53 = FACE_OUTER_BOUND ( 'NONE', #41, .T. ) ;
#54 = DIRECTION ( 'NONE',  ( 0.0000000000000000000, 0.0000000000000000000, -1.000000000000000000 ) ) ;
#55 = LINE ( 'NONE', #50, #297 ) ;
#56 = DIRECTION ( 'NONE',  ( -1.000000000000000000, 0.0000000000000000000, 1.365107116733476959E-16 ) ) ;
#57 = CARTESIAN_POINT ( 'NONE',  ( -0.06250000000000002776, 0.0000000000000000000, 1.500000000000000222 ) ) ;
#58 = CLOSED_SHELL ( 'NONE', ( #205, #160, #86, #231, #103, #29, #108, #190, #33, #277, #183 ) ) ;
#59 = DIRECTION ( 'NONE',  ( -1.000000000000000000, 0.0000000000000000000, 1.224646799147353454E-16 ) ) ;
#60 = DIRECTION ( 'NONE',  ( -1.000000000000000000, 0.0000000000000000000, 0.0000000000000000000 ) ) ;
#61 = CIRCLE ( 'NONE', #4, 0.06250000000000002776 ) ;
#62 = EDGE_CURVE ( 'NONE', #91, #213, #165, .T. ) ;
#63 = FILL_AREA_STYLE_COLOUR ( '', #113 ) ;
#64 = PRESENTATION_STYLE_ASSIGNMENT (( #206 ) ) ;
#65 = PRESENTATION_LAYER_ASSIGNMENT (  '', '', ( #164 ) ) ;
#66 = ORIENTED_EDGE ( 'NONE', *, *, #169, .F. ) ;
#67 = CYLINDRICAL_SURFACE ( 'NONE', #98, 0.01563435000000001560 ) ;
#68 = CARTESIAN_POINT ( 'NONE',  ( 0.0000000000000000000, 0.0000000000000000000, 1.485000000000000764 ) ) ;
#69 = CARTESIAN_POINT ( 'NONE',  ( 9.552245033349369302E-18, 0.0000000000000000000, 0.07800000000000009703 ) ) ;
#70 = COLOUR_RGB ( '',0.7921568627450980005, 0.8196078431372548767, 0.9333333333333333481 ) ;
#71 = FACE_OUTER_BOUND ( 'NONE', #184, .T. ) ;
#72 = EDGE_LOOP ( 'NONE', ( #146, #7, #258, #240 ) ) ;
#73 = AXIS2_PLACEMENT_3D ( 'NONE', #242, #54, #298 ) ;
#74 = FACE_OUTER_BOUND ( 'NONE', #286, .T. ) ;
#75 = EDGE_CURVE ( 'NONE', #9, #138, #301, .T. ) ;
#76 = ORIENTED_EDGE ( 'NONE', *, *, #62, .F. ) ;
#77 = DIRECTION ( 'NONE',  ( 1.000000000000000000, 0.0000000000000000000, 0.0000000000000000000 ) ) ;
#78 = DIRECTION ( 'NONE',  ( -0.0000000000000000000, -0.0000000000000000000, -1.000000000000000000 ) ) ;
#79 = EDGE_CURVE ( 'NONE', #191, #279, #156, .T. ) ;
#80 = FACE_OUTER_BOUND ( 'NONE', #115, .T. ) ;
#81 = CIRCLE ( 'NONE', #234, 0.01563435000000000172 ) ;
#82 = CARTESIAN_POINT ( 'NONE',  ( 4.210192519679162135E-17, 0.0000000000000000000, 0.3437883088095654016 ) ) ;
#83 = DIRECTION ( 'NONE',  ( 1.000000000000000000, 0.0000000000000000000, 0.0000000000000000000 ) ) ;
#84 = AXIS2_PLACEMENT_3D ( 'NONE', #82, #152, #316 ) ;
#85 =( NAMED_UNIT ( * ) SI_UNIT ( $, .STERADIAN. ) SOLID_ANGLE_UNIT ( ) );
#86 = ADVANCED_FACE ( 'NONE', ( #80 ), #201, .T. ) ;
#87 = ORIENTED_EDGE ( 'NONE', *, *, #222, .T. ) ;
#88 = DIRECTION ( 'NONE',  ( 0.0000000000000000000, 0.0000000000000000000, 1.000000000000000000 ) ) ;
#89 = DIRECTION ( 'NONE',  ( 1.000000000000000000, 0.0000000000000000000, 0.0000000000000000000 ) ) ;
#90 = EDGE_CURVE ( 'NONE', #260, #138, #106, .T. ) ;
#91 = VERTEX_POINT ( 'NONE', #24 ) ;
#92 = EDGE_CURVE ( 'NONE', #45, #149, #289, .T. ) ;
#93 = CARTESIAN_POINT ( 'NONE',  ( 0.0000000000000000000, 0.0000000000000000000, 1.500000000000000222 ) ) ;
#94 =( LENGTH_UNIT ( ) NAMED_UNIT ( * ) SI_UNIT ( $, .METRE. ) );
#95 = VERTEX_POINT ( 'NONE', #97 ) ;
#96 = EDGE_LOOP ( 'NONE', ( #76, #281, #157, #257 ) ) ;
#97 = CARTESIAN_POINT ( 'NONE',  ( 0.06250000000000002776, 7.654042494670959086E-18, 1.485000000000000764 ) ) ;
#98 = AXIS2_PLACEMENT_3D ( 'NONE', #40, #51, #312 ) ;
#99 =( LENGTH_UNIT ( ) NAMED_UNIT ( * ) SI_UNIT ( $, .METRE. ) );
#100 = DIRECTION ( 'NONE',  ( -1.000000000000000000, 0.0000000000000000000, 1.365107116733476959E-16 ) ) ;
#101 = CYLINDRICAL_SURFACE ( 'NONE', #25, 0.06250000000000002776 ) ;
#102 = CARTESIAN_POINT ( 'NONE',  ( -0.06249999999999997918, 0.0000000000000000000, 0.3437883088095654016 ) ) ;
#103 = ADVANCED_FACE ( 'NONE', ( #22 ), #101, .T. ) ;
#104 = DIRECTION ( 'NONE',  ( 1.000000000000000000, 0.0000000000000000000, 0.0000000000000000000 ) ) ;
#105 = APPLICATION_CONTEXT ( 'automotive_design' ) ;
#106 = LINE ( 'NONE', #57, #31 ) ;
#107 = UNCERTAINTY_MEASURE_WITH_UNIT (LENGTH_MEASURE( 1.000000000000000082E-05 ), #254, 'distance_accuracy_value', 'NONE');
#108 = ADVANCED_FACE ( 'NONE', ( #74 ), #223, .T. ) ;
#109 =( CONVERSION_BASED_UNIT ( 'INCH', #35 ) LENGTH_UNIT ( ) NAMED_UNIT ( #251 ) );
#110 = ORIENTED_EDGE ( 'NONE', *, *, #46, .F. ) ;
#111 = AXIS2_PLACEMENT_3D ( 'NONE', #125, #244, #60 ) ;
#112 = AXIS2_PLACEMENT_3D ( 'NONE', #168, #322, #56 ) ;
#113 = COLOUR_RGB ( '',0.7921568627450980005, 0.8196078431372548767, 0.9333333333333333481 ) ;
#114 = SHAPE_DEFINITION_REPRESENTATION ( #235, #276 ) ;
#115 = EDGE_LOOP ( 'NONE', ( #283, #140, #310, #66 ) ) ;
#116 =( NAMED_UNIT ( * ) SI_UNIT ( $, .STERADIAN. ) SOLID_ANGLE_UNIT ( ) );
#117 = ORIENTED_EDGE ( 'NONE', *, *, #270, .T. ) ;
#118 = EDGE_CURVE ( 'NONE', #149, #279, #145, .T. ) ;
#119 = ORIENTED_EDGE ( 'NONE', *, *, #176, .T. ) ;
#120 = DIRECTION ( 'NONE',  ( 0.0000000000000000000, 0.0000000000000000000, -1.000000000000000000 ) ) ;
#121 = ORIENTED_EDGE ( 'NONE', *, *, #118, .T. ) ;
#122 = DIRECTION ( 'NONE',  ( -0.1736481776669311916, 2.126576849575783316E-17, 0.9848077530122080203 ) ) ;
#123 = CARTESIAN_POINT ( 'NONE',  ( -0.04750000000000064587, 0.0000000000000000000, 1.500000000000000222 ) ) ;
#124 = DIRECTION ( 'NONE',  ( -1.000000000000000000, 0.0000000000000000000, 0.0000000000000000000 ) ) ;
#125 = CARTESIAN_POINT ( 'NONE',  ( 9.552245033349369302E-18, 0.0000000000000000000, 0.07800000000000009703 ) ) ;
#126 = DIRECTION ( 'NONE',  ( -1.000000000000000000, 0.0000000000000000000, 0.0000000000000000000 ) ) ;
#127 = CARTESIAN_POINT ( 'NONE',  ( 0.01563435000000001560, 1.914655668424943751E-18, -1.914655668424944522E-18 ) ) ;
#128 = CARTESIAN_POINT ( 'NONE',  ( 0.01563435000000001907, 0.0000000000000000000, 0.07800000000000009703 ) ) ;
#129 = DIRECTION ( 'NONE',  ( 0.0000000000000000000, 0.0000000000000000000, 1.000000000000000000 ) ) ;
#130 = AXIS2_PLACEMENT_3D ( 'NONE', #69, #319, #197 ) ;
#131 = DIRECTION ( 'NONE',  ( 0.0000000000000000000, 1.000000000000000000, 0.0000000000000000000 ) ) ;
#132 = AXIS2_PLACEMENT_3D ( 'NONE', #218, #198, #151 ) ;
#133 = VECTOR ( 'NONE', #122, 39.37007874015747433 ) ;
#134 = DIMENSIONAL_EXPONENTS ( 1.000000000000000000, 0.0000000000000000000, 0.0000000000000000000, 0.0000000000000000000, 0.0000000000000000000, 0.0000000000000000000, 0.0000000000000000000 ) ;
#135 = CARTESIAN_POINT ( 'NONE',  ( -0.04750000000000064587, 0.0000000000000000000, 1.500000000000000222 ) ) ;
#136 = EDGE_LOOP ( 'NONE', ( #167, #52, #308 ) ) ;
#137 = CIRCLE ( 'NONE', #49, 0.06250000000000002776 ) ;
#138 = VERTEX_POINT ( 'NONE', #102 ) ;
#139 = DIRECTION ( 'NONE',  ( -0.7071067811865462405, 0.0000000000000000000, -0.7071067811865486830 ) ) ;
#140 = ORIENTED_EDGE ( 'NONE', *, *, #10, .T. ) ;
#141 = LENGTH_MEASURE_WITH_UNIT ( LENGTH_MEASURE( 0.02539999999999999897 ), #94 );
#142 = ORIENTED_EDGE ( 'NONE', *, *, #90, .F. ) ;
#143 = EDGE_CURVE ( 'NONE', #91, #95, #150, .T. ) ;
#144 = CARTESIAN_POINT ( 'NONE',  ( -0.01563435000000000172, 4.784349081547952189E-18, 0.07800000000000009703 ) ) ;
#145 = CIRCLE ( 'NONE', #112, 0.01563435000000001560 ) ;
#146 = ORIENTED_EDGE ( 'NONE', *, *, #10, .F. ) ;
#147 = ORIENTED_EDGE ( 'NONE', *, *, #211, .T. ) ;
#148 = DIRECTION ( 'NONE',  ( -1.000000000000000000, 0.0000000000000000000, 0.0000000000000000000 ) ) ;
#149 = VERTEX_POINT ( 'NONE', #296 ) ;
#150 = LINE ( 'NONE', #267, #325 ) ;
#151 = DIRECTION ( 'NONE',  ( 1.000000000000000000, 0.0000000000000000000, 0.0000000000000000000 ) ) ;
#152 = DIRECTION ( 'NONE',  ( -1.224646799147353700E-16, -0.0000000000000000000, -1.000000000000000000 ) ) ;
#153 = CARTESIAN_POINT ( 'NONE',  ( 0.0000000000000000000, 0.0000000000000000000, 1.500000000000000222 ) ) ;
#154 = CIRCLE ( 'NONE', #111, 0.01563435000000000866 ) ;
#155 =( GEOMETRIC_REPRESENTATION_CONTEXT ( 3 ) GLOBAL_UNCERTAINTY_ASSIGNED_CONTEXT ( ( #315 ) ) GLOBAL_UNIT_ASSIGNED_CONTEXT ( ( #263, #48, #17 ) ) REPRESENTATION_CONTEXT ( 'NONE', 'WORKASPACE' ) );
#156 = CIRCLE ( 'NONE', #15, 0.01563435000000000172 ) ;
#157 = ORIENTED_EDGE ( 'NONE', *, *, #222, .F. ) ;
#158 = ORIENTED_EDGE ( 'NONE', *, *, #62, .T. ) ;
#159 = AXIS2_PLACEMENT_3D ( 'NONE', #273, #129, #194 ) ;
#160 = ADVANCED_FACE ( 'NONE', ( #174 ), #272, .T. ) ;
#161 = ORIENTED_EDGE ( 'NONE', *, *, #75, .F. ) ;
#162 = SURFACE_STYLE_USAGE ( .BOTH. , #317 ) ;
#163 = CYLINDRICAL_SURFACE ( 'NONE', #253, 0.06250000000000002776 ) ;
#164 = STYLED_ITEM ( 'NONE', ( #64 ), #276 ) ;
#165 = CIRCLE ( 'NONE', #221, 0.04750000000000064587 ) ;
#166 = MECHANICAL_DESIGN_GEOMETRIC_PRESENTATION_REPRESENTATION (  '', ( #305 ), #155 ) ;
#167 = ORIENTED_EDGE ( 'NONE', *, *, #6, .F. ) ;
#168 = CARTESIAN_POINT ( 'NONE',  ( 1.914655668424943366E-18, 0.0000000000000000000, 0.01563435000000000172 ) ) ;
#169 = EDGE_CURVE ( 'NONE', #45, #9, #203, .T. ) ;
#170 = DIRECTION ( 'NONE',  ( 0.0000000000000000000, -1.000000000000000000, 0.0000000000000000000 ) ) ;
#171 = DIRECTION ( 'NONE',  ( -0.0000000000000000000, -0.0000000000000000000, -1.000000000000000000 ) ) ;
#172 = CARTESIAN_POINT ( 'NONE',  ( 0.0000000000000000000, 0.0000000000000000000, 1.485000000000000764 ) ) ;
#173 = CIRCLE ( 'NONE', #214, 0.01563435000000001560 ) ;
#174 = FACE_OUTER_BOUND ( 'NONE', #255, .T. ) ;
#175 = DIRECTION ( 'NONE',  ( 1.224646799147353700E-16, 0.0000000000000000000, 1.000000000000000000 ) ) ;
#176 = EDGE_CURVE ( 'NONE', #230, #45, #154, .T. ) ;
#177 = CARTESIAN_POINT ( 'NONE',  ( 0.0000000000000000000, 0.0000000000000000000, 1.500000000000000222 ) ) ;
#178 = CIRCLE ( 'NONE', #179, 0.04750000000000064587 ) ;
#179 = AXIS2_PLACEMENT_3D ( 'NONE', #177, #1, #34 ) ;
#180 =( NAMED_UNIT ( * ) PLANE_ANGLE_UNIT ( ) SI_UNIT ( $, .RADIAN. ) );
#181 = PRODUCT ( 'Micro_BEM-031-04X', 'Micro_BEM-031-04X', '', ( #304 ) ) ;
#182 = EDGE_LOOP ( 'NONE', ( #186, #212, #210, #12 ) ) ;
#183 = ADVANCED_FACE ( 'NONE', ( #53 ), #220, .T. ) ;
#184 = EDGE_LOOP ( 'NONE', ( #237, #37, #117, #307 ) ) ;
#185 = EDGE_CURVE ( 'NONE', #95, #260, #30, .T. ) ;
#186 = ORIENTED_EDGE ( 'NONE', *, *, #143, .F. ) ;
#187 = APPLICATION_CONTEXT ( 'automotive_design' ) ;
#188 = EDGE_LOOP ( 'NONE', ( #14, #216, #238, #161 ) ) ;
#189 = FILL_AREA_STYLE_COLOUR ( '', #70 ) ;
#190 = ADVANCED_FACE ( 'NONE', ( #202 ), #300, .T. ) ;
#191 = VERTEX_POINT ( 'NONE', #294 ) ;
#192 = LENGTH_MEASURE_WITH_UNIT ( LENGTH_MEASURE( 0.02539999999999999897 ), #99 );
#193 = LINE ( 'NONE', #264, #133 ) ;
#194 = DIRECTION ( 'NONE',  ( 1.000000000000000000, 0.0000000000000000000, -0.0000000000000000000 ) ) ;
#195 = DIRECTION ( 'NONE',  ( 0.0000000000000000000, 0.0000000000000000000, -1.000000000000000000 ) ) ;
#196 =( GEOMETRIC_REPRESENTATION_CONTEXT ( 3 ) GLOBAL_UNCERTAINTY_ASSIGNED_CONTEXT ( ( #42 ) ) GLOBAL_UNIT_ASSIGNED_CONTEXT ( ( #109, #8, #116 ) ) REPRESENTATION_CONTEXT ( 'NONE', 'WORKASPACE' ) );
#197 = DIRECTION ( 'NONE',  ( 1.000000000000000000, 0.0000000000000000000, 0.0000000000000000000 ) ) ;
#198 = DIRECTION ( 'NONE',  ( 0.0000000000000000000, 1.000000000000000000, 0.0000000000000000000 ) ) ;
#199 = DIRECTION ( 'NONE',  ( 0.7071067811865462405, 8.659560562354916834E-17, -0.7071067811865486830 ) ) ;
#200 = CARTESIAN_POINT ( 'NONE',  ( 0.0000000000000000000, 0.0000000000000000000, 1.500000000000000222 ) ) ;
#201 = CONICAL_SURFACE ( 'NONE', #208, 0.01563435000000000866, 0.1745329251994338915 ) ;
#202 = FACE_OUTER_BOUND ( 'NONE', #182, .T. ) ;
#203 = LINE ( 'NONE', #299, #47 ) ;
#204 = AXIS2_PLACEMENT_3D ( 'NONE', #225, #131, #83 ) ;
#205 = ADVANCED_FACE ( 'NONE', ( #321 ), #229, .T. ) ;
#206 = SURFACE_STYLE_USAGE ( .BOTH. , #303 ) ;
#207 = DIMENSIONAL_EXPONENTS ( 1.000000000000000000, 0.0000000000000000000, 0.0000000000000000000, 0.0000000000000000000, 0.0000000000000000000, 0.0000000000000000000, 0.0000000000000000000 ) ;
#208 = AXIS2_PLACEMENT_3D ( 'NONE', #249, #175, #323 ) ;
#209 =( GEOMETRIC_REPRESENTATION_CONTEXT ( 3 ) GLOBAL_UNCERTAINTY_ASSIGNED_CONTEXT ( ( #107 ) ) GLOBAL_UNIT_ASSIGNED_CONTEXT ( ( #254, #180, #85 ) ) REPRESENTATION_CONTEXT ( 'NONE', 'WORKASPACE' ) );
#210 = ORIENTED_EDGE ( 'NONE', *, *, #313, .T. ) ;
#211 = EDGE_CURVE ( 'NONE', #213, #91, #178, .T. ) ;
#212 = ORIENTED_EDGE ( 'NONE', *, *, #211, .F. ) ;
#213 = VERTEX_POINT ( 'NONE', #135 ) ;
#214 = AXIS2_PLACEMENT_3D ( 'NONE', #292, #217, #100 ) ;
#215 = DIRECTION ( 'NONE',  ( 1.000000000000000000, 0.0000000000000000000, 0.0000000000000000000 ) ) ;
#216 = ORIENTED_EDGE ( 'NONE', *, *, #185, .T. ) ;
#217 = DIRECTION ( 'NONE',  ( 1.224646799147353700E-16, 0.0000000000000000000, 1.000000000000000000 ) ) ;
#218 = CARTESIAN_POINT ( 'NONE',  ( 1.914655668424943366E-18, 0.0000000000000000000, 0.01563435000000000172 ) ) ;
#219 = DIRECTION ( 'NONE',  ( -0.0000000000000000000, -0.0000000000000000000, -1.000000000000000000 ) ) ;
#220 = SPHERICAL_SURFACE ( 'NONE', #132, 0.01563435000000000172 ) ;
#221 = AXIS2_PLACEMENT_3D ( 'NONE', #153, #246, #104 ) ;
#222 = EDGE_CURVE ( 'NONE', #260, #95, #61, .T. ) ;
#223 = PLANE ( 'NONE',  #159 ) ;
#224 = DIRECTION ( 'NONE',  ( -1.224646799147353700E-16, -0.0000000000000000000, -1.000000000000000000 ) ) ;
#225 = CARTESIAN_POINT ( 'NONE',  ( 1.914655668424943366E-18, 0.0000000000000000000, 0.01563435000000000172 ) ) ;
#226 = CARTESIAN_POINT ( 'NONE',  ( 0.0000000000000000000, 0.0000000000000000000, 0.0000000000000000000 ) ) ;
#227 = MANIFOLD_SOLID_BREP ( 'Fillet1', #58 ) ;
#228 =( LENGTH_UNIT ( ) NAMED_UNIT ( * ) SI_UNIT ( $, .METRE. ) );
#229 = SPHERICAL_SURFACE ( 'NONE', #204, 0.01563435000000000172 ) ;
#230 = VERTEX_POINT ( 'NONE', #144 ) ;
#231 = ADVANCED_FACE ( 'NONE', ( #13 ), #38, .T. ) ;
#232 = VECTOR ( 'NONE', #11, 39.37007874015748143 ) ;
#233 = ORIENTED_EDGE ( 'NONE', *, *, #79, .F. ) ;
#234 = AXIS2_PLACEMENT_3D ( 'NONE', #266, #170, #18 ) ;
#235 = PRODUCT_DEFINITION_SHAPE ( 'NONE', 'NONE',  #285 ) ;
#236 = ORIENTED_EDGE ( 'NONE', *, *, #28, .F. ) ;
#237 = ORIENTED_EDGE ( 'NONE', *, *, #92, .F. ) ;
#238 = ORIENTED_EDGE ( 'NONE', *, *, #90, .T. ) ;
#239 = VECTOR ( 'NONE', #269, 39.37007874015748143 ) ;
#240 = ORIENTED_EDGE ( 'NONE', *, *, #75, .T. ) ;
#241 = LINE ( 'NONE', #123, #275 ) ;
#242 = CARTESIAN_POINT ( 'NONE',  ( 0.0000000000000000000, 0.0000000000000000000, 1.500000000000000222 ) ) ;
#243 = FACE_OUTER_BOUND ( 'NONE', #188, .T. ) ;
#244 = DIRECTION ( 'NONE',  ( -1.224646799147353700E-16, -0.0000000000000000000, -1.000000000000000000 ) ) ;
#245 = ORIENTED_EDGE ( 'NONE', *, *, #270, .F. ) ;
#246 = DIRECTION ( 'NONE',  ( 0.0000000000000000000, 0.0000000000000000000, 1.000000000000000000 ) ) ;
#247 = MECHANICAL_DESIGN_GEOMETRIC_PRESENTATION_REPRESENTATION (  '', ( #164 ), #196 ) ;
#248 = DIRECTION ( 'NONE',  ( 1.000000000000000000, 0.0000000000000000000, 0.0000000000000000000 ) ) ;
#249 = CARTESIAN_POINT ( 'NONE',  ( 9.552245033349369302E-18, 0.0000000000000000000, 0.07800000000000009703 ) ) ;
#250 = PRODUCT_DEFINITION_FORMATION_WITH_SPECIFIED_SOURCE ( 'ANY', '', #181, .NOT_KNOWN. ) ;
#251 = DIMENSIONAL_EXPONENTS ( 1.000000000000000000, 0.0000000000000000000, 0.0000000000000000000, 0.0000000000000000000, 0.0000000000000000000, 0.0000000000000000000, 0.0000000000000000000 ) ;
#252 = APPLICATION_PROTOCOL_DEFINITION ( 'draft international standard', 'automotive_design', 1998, #105 ) ;
#253 = AXIS2_PLACEMENT_3D ( 'NONE', #21, #219, #126 ) ;
#254 =( CONVERSION_BASED_UNIT ( 'INCH', #192 ) LENGTH_UNIT ( ) NAMED_UNIT ( #207 ) );
#255 = EDGE_LOOP ( 'NONE', ( #119, #262, #121, #245 ) ) ;
#256 = CARTESIAN_POINT ( 'NONE',  ( 0.0000000000000000000, 0.0000000000000000000, 0.0000000000000000000 ) ) ;
#257 = ORIENTED_EDGE ( 'NONE', *, *, #313, .F. ) ;
#258 = ORIENTED_EDGE ( 'NONE', *, *, #169, .T. ) ;
#259 = PRODUCT_DEFINITION_CONTEXT ( 'detailed design', #187, 'design' ) ;
#260 = VERTEX_POINT ( 'NONE', #44 ) ;
#261 = CARTESIAN_POINT ( 'NONE',  ( -0.01563435000000001213, 0.0000000000000000000, 0.01563435000000000519 ) ) ;
#262 = ORIENTED_EDGE ( 'NONE', *, *, #92, .T. ) ;
#263 =( CONVERSION_BASED_UNIT ( 'INCH', #141 ) LENGTH_UNIT ( ) NAMED_UNIT ( #134 ) );
#264 = CARTESIAN_POINT ( 'NONE',  ( -0.01563435000000000172, 1.914655668424943366E-18, 0.07800000000000009703 ) ) ;
#265 = PRESENTATION_STYLE_ASSIGNMENT (( #162 ) ) ;
#266 = CARTESIAN_POINT ( 'NONE',  ( 1.914655668424943366E-18, 0.0000000000000000000, 0.01563435000000000172 ) ) ;
#267 = CARTESIAN_POINT ( 'NONE',  ( 0.04750000000000064587, 5.817072295950006528E-18, 1.500000000000000222 ) ) ;
#268 = CARTESIAN_POINT ( 'NONE',  ( 0.06250000000000006939, 7.654042494670963708E-18, 0.3437883088095654016 ) ) ;
#269 = DIRECTION ( 'NONE',  ( -1.224646799147353700E-16, -0.0000000000000000000, -1.000000000000000000 ) ) ;
#270 = EDGE_CURVE ( 'NONE', #230, #279, #291, .T. ) ;
#271 = DIRECTION ( 'NONE',  ( 0.0000000000000000000, 0.0000000000000000000, -1.000000000000000000 ) ) ;
#272 = CYLINDRICAL_SURFACE ( 'NONE', #290, 0.01563435000000001560 ) ;
#273 = CARTESIAN_POINT ( 'NONE',  ( 0.0000000000000000000, 0.0000000000000000000, 1.500000000000000222 ) ) ;
#274 = CIRCLE ( 'NONE', #311, 0.01563435000000000866 ) ;
#275 = VECTOR ( 'NONE', #139, 39.37007874015748854 ) ;
#276 = ADVANCED_BREP_SHAPE_REPRESENTATION ( 'Micro_BEM-031-04X', ( #227, #280 ), #209 ) ;
#277 = ADVANCED_FACE ( 'NONE', ( #71 ), #67, .T. ) ;
#278 = SURFACE_STYLE_FILL_AREA ( #2 ) ;
#279 = VERTEX_POINT ( 'NONE', #261 ) ;
#280 = AXIS2_PLACEMENT_3D ( 'NONE', #256, #88, #89 ) ;
#281 = ORIENTED_EDGE ( 'NONE', *, *, #143, .T. ) ;
#282 = SURFACE_STYLE_FILL_AREA ( #284 ) ;
#283 = ORIENTED_EDGE ( 'NONE', *, *, #176, .F. ) ;
#284 = FILL_AREA_STYLE ('',( #189 ) ) ;
#285 = PRODUCT_DEFINITION ( 'UNKNOWN', '', #250, #259 ) ;
#286 = EDGE_LOOP ( 'NONE', ( #147, #158 ) ) ;
#287 = DIRECTION ( 'NONE',  ( -1.000000000000000000, 0.0000000000000000000, 0.0000000000000000000 ) ) ;
#288 = CARTESIAN_POINT ( 'NONE',  ( 9.552245033349369302E-18, 0.0000000000000000000, 0.07800000000000009703 ) ) ;
#289 = LINE ( 'NONE', #127, #239 ) ;
#290 = AXIS2_PLACEMENT_3D ( 'NONE', #226, #295, #59 ) ;
#291 = LINE ( 'NONE', #20, #232 ) ;
#292 = CARTESIAN_POINT ( 'NONE',  ( 1.914655668424943366E-18, 0.0000000000000000000, 0.01563435000000000172 ) ) ;
#293 = CARTESIAN_POINT ( 'NONE',  ( 1.914655668424943366E-18, 0.0000000000000000000, 0.01563435000000000172 ) ) ;
#294 = CARTESIAN_POINT ( 'NONE',  ( 2.871983502637414086E-18, 0.0000000000000000000, 0.0000000000000000000 ) ) ;
#295 = DIRECTION ( 'NONE',  ( -1.224646799147353700E-16, -0.0000000000000000000, -1.000000000000000000 ) ) ;
#296 = CARTESIAN_POINT ( 'NONE',  ( 0.01563435000000001560, 1.914655668424943751E-18, 0.01563434999999999825 ) ) ;
#297 = VECTOR ( 'NONE', #26, 39.37007874015748143 ) ;
#298 = DIRECTION ( 'NONE',  ( -1.000000000000000000, 0.0000000000000000000, 0.0000000000000000000 ) ) ;
#299 = CARTESIAN_POINT ( 'NONE',  ( 0.01563435000000001907, 0.0000000000000000000, 0.07800000000000009703 ) ) ;
#300 = CONICAL_SURFACE ( 'NONE', #73, 0.04750000000000064587, 0.7853981633974466137 ) ;
#301 = CIRCLE ( 'NONE', #84, 0.06250000000000002776 ) ;
#302 = PRODUCT_RELATED_PRODUCT_CATEGORY ( 'part', '', ( #181 ) ) ;
#303 = SURFACE_SIDE_STYLE ('',( #278 ) ) ;
#304 = PRODUCT_CONTEXT ( 'NONE', #105, 'mechanical' ) ;
#305 = STYLED_ITEM ( 'NONE', ( #265 ), #227 ) ;
#306 = PRESENTATION_LAYER_ASSIGNMENT (  '', '', ( #305 ) ) ;
#307 = ORIENTED_EDGE ( 'NONE', *, *, #28, .T. ) ;
#308 = ORIENTED_EDGE ( 'NONE', *, *, #118, .F. ) ;
#309 = ORIENTED_EDGE ( 'NONE', *, *, #43, .T. ) ;
#310 = ORIENTED_EDGE ( 'NONE', *, *, #46, .T. ) ;
#311 = AXIS2_PLACEMENT_3D ( 'NONE', #288, #23, #124 ) ;
#312 = DIRECTION ( 'NONE',  ( -1.000000000000000000, 0.0000000000000000000, 1.224646799147353454E-16 ) ) ;
#313 = EDGE_CURVE ( 'NONE', #213, #260, #241, .T. ) ;
#314 = FACE_OUTER_BOUND ( 'NONE', #72, .T. ) ;
#315 = UNCERTAINTY_MEASURE_WITH_UNIT (LENGTH_MEASURE( 1.000000000000000082E-05 ), #263, 'distance_accuracy_value', 'NONE');
#316 = DIRECTION ( 'NONE',  ( 1.000000000000000000, 0.0000000000000000000, 0.0000000000000000000 ) ) ;
#317 = SURFACE_SIDE_STYLE ('',( #282 ) ) ;
#318 = AXIS2_PLACEMENT_3D ( 'NONE', #172, #271, #248 ) ;
#319 = DIRECTION ( 'NONE',  ( 1.224646799147353700E-16, 0.0000000000000000000, 1.000000000000000000 ) ) ;
#320 = DIRECTION ( 'NONE',  ( 0.1736481776669313859, 0.0000000000000000000, 0.9848077530122077983 ) ) ;
#321 = FACE_OUTER_BOUND ( 'NONE', #136, .T. ) ;
#322 = DIRECTION ( 'NONE',  ( 1.224646799147353700E-16, 0.0000000000000000000, 1.000000000000000000 ) ) ;
#323 = DIRECTION ( 'NONE',  ( 1.000000000000000000, 0.0000000000000000000, 0.0000000000000000000 ) ) ;
#324 = CARTESIAN_POINT ( 'NONE',  ( 4.210192519679162135E-17, 0.0000000000000000000, 0.3437883088095654016 ) ) ;
#325 = VECTOR ( 'NONE', #199, 39.37007874015748854 ) ;
ENDSEC;
END-ISO-10303-21;
