ISO-10303-21;
HEADER;
FILE_DESCRIPTION (( 'STEP AP214' ),
    '1' );
FILE_NAME ('Micro_SHRM-080-4X.STEP',
    '2021-09-02T09:10:35',
    ( '' ),
    ( '' ),
    'SwSTEP 2.0',
    'SolidWorks 2020',
    '' );
FILE_SCHEMA (( 'AUTOMOTIVE_DESIGN' ));
ENDSEC;

DATA;
#1 = ORIENTED_EDGE ( 'NONE', *, *, #15, .T. ) ;
#2 = DIMENSIONAL_EXPONENTS ( 1.000000000000000000, 0.0000000000000000000, 0.0000000000000000000, 0.0000000000000000000, 0.0000000000000000000, 0.0000000000000000000, 0.0000000000000000000 ) ;
#3 = VERTEX_POINT ( 'NONE', #147 ) ;
#4 = AXIS2_PLACEMENT_3D ( 'NONE', #267, #19, #130 ) ;
#5 =( NAMED_UNIT ( * ) SI_UNIT ( $, .STERADIAN. ) SOLID_ANGLE_UNIT ( ) );
#6 = CARTESIAN_POINT ( 'NONE',  ( 2.359467375330272285E-33, 0.0000000000000000000, 1.926651322628716627E-17 ) ) ;
#7 =( LENGTH_UNIT ( ) NAMED_UNIT ( * ) SI_UNIT ( $, .METRE. ) );
#8 = DIRECTION ( 'NONE',  ( 0.7071067811865627828, 8.659560562355118980E-17, -0.7071067811865321406 ) ) ;
#9 = EDGE_CURVE ( 'NONE', #195, #148, #173, .T. ) ;
#10 = ORIENTED_EDGE ( 'NONE', *, *, #9, .T. ) ;
#11 = VECTOR ( 'NONE', #136, 39.37007874015748854 ) ;
#12 = CARTESIAN_POINT ( 'NONE',  ( 0.1573230195000000775, 0.0000000000000000000, 0.8661419999999999675 ) ) ;
#13 = EDGE_CURVE ( 'NONE', #58, #3, #29, .T. ) ;
#14 = DIRECTION ( 'NONE',  ( 1.000000000000000000, 0.0000000000000000000, 0.0000000000000000000 ) ) ;
#15 = EDGE_CURVE ( 'NONE', #151, #3, #189, .T. ) ;
#16 = CYLINDRICAL_SURFACE ( 'NONE', #224, 0.1574804999999999955 ) ;
#17 = DIRECTION ( 'NONE',  ( 1.224646799147353207E-16, 0.0000000000000000000, 1.000000000000000000 ) ) ;
#18 = EDGE_CURVE ( 'NONE', #163, #218, #191, .T. ) ;
#19 = DIRECTION ( 'NONE',  ( 0.0000000000000000000, 0.0000000000000000000, -1.000000000000000000 ) ) ;
#20 = CARTESIAN_POINT ( 'NONE',  ( -0.1573230194999999942, 0.0000000000000000000, 3.853302645257433254E-17 ) ) ;
#21 = DIRECTION ( 'NONE',  ( 1.000000000000000000, 0.0000000000000000000, -0.0000000000000000000 ) ) ;
#22 = CARTESIAN_POINT ( 'NONE',  ( 0.0000000000000000000, 0.0000000000000000000, 0.0000000000000000000 ) ) ;
#23 = CARTESIAN_POINT ( 'NONE',  ( -0.1573230194999998555, 1.927615612579981403E-17, 0.8661419999999999675 ) ) ;
#24 = ORIENTED_EDGE ( 'NONE', *, *, #90, .T. ) ;
#25 = EDGE_CURVE ( 'NONE', #26, #98, #33, .T. ) ;
#26 = VERTEX_POINT ( 'NONE', #170 ) ;
#27 = APPLICATION_PROTOCOL_DEFINITION ( 'draft international standard', 'automotive_design', 1998, #279 ) ;
#28 = ORIENTED_EDGE ( 'NONE', *, *, #138, .T. ) ;
#29 = CIRCLE ( 'NONE', #182, 0.1574804999999999955 ) ;
#30 = ORIENTED_EDGE ( 'NONE', *, *, #44, .T. ) ;
#31 = UNCERTAINTY_MEASURE_WITH_UNIT (LENGTH_MEASURE( 1.000000000000000082E-05 ), #108, 'distance_accuracy_value', 'NONE');
#32 = PRODUCT_CONTEXT ( 'NONE', #279, 'mechanical' ) ;
#33 = LINE ( 'NONE', #128, #67 ) ;
#34 = DIRECTION ( 'NONE',  ( -1.000000000000000000, 0.0000000000000000000, 1.224646799147353454E-16 ) ) ;
#35 = MANIFOLD_SOLID_BREP ( 'Cut-Revolve1', #62 ) ;
#36 = CYLINDRICAL_SURFACE ( 'NONE', #169, 0.1573230194999999665 ) ;
#37 = CARTESIAN_POINT ( 'NONE',  ( 1.060718027907086782E-16, 0.0000000000000000000, 0.8661419999999999675 ) ) ;
#38 = AXIS2_PLACEMENT_3D ( 'NONE', #227, #248, #21 ) ;
#39 =( NAMED_UNIT ( * ) PLANE_ANGLE_UNIT ( ) SI_UNIT ( $, .RADIAN. ) );
#40 = DIRECTION ( 'NONE',  ( -1.000000000000000000, 0.0000000000000000000, 0.0000000000000000000 ) ) ;
#41 = DIRECTION ( 'NONE',  ( -1.000000000000000000, 0.0000000000000000000, 1.224646799147353454E-16 ) ) ;
#42 = AXIS2_PLACEMENT_3D ( 'NONE', #293, #72, #230 ) ;
#43 = FACE_OUTER_BOUND ( 'NONE', #56, .T. ) ;
#44 = EDGE_CURVE ( 'NONE', #98, #151, #265, .T. ) ;
#45 = EDGE_CURVE ( 'NONE', #26, #168, #75, .T. ) ;
#46 = DIRECTION ( 'NONE',  ( 0.0000000000000000000, 0.0000000000000000000, -1.000000000000000000 ) ) ;
#47 = DIRECTION ( 'NONE',  ( -1.000000000000000000, 0.0000000000000000000, 1.224646799147352961E-16 ) ) ;
#48 = ORIENTED_EDGE ( 'NONE', *, *, #45, .F. ) ;
#49 = SURFACE_SIDE_STYLE ('',( #95 ) ) ;
#50 = ORIENTED_EDGE ( 'NONE', *, *, #13, .T. ) ;
#51 = ORIENTED_EDGE ( 'NONE', *, *, #13, .F. ) ;
#52 =( NAMED_UNIT ( * ) SI_UNIT ( $, .STERADIAN. ) SOLID_ANGLE_UNIT ( ) );
#53 = CARTESIAN_POINT ( 'NONE',  ( -0.1574804999999999955, 0.0000000000000000000, 2.480315000000000047 ) ) ;
#54 = CARTESIAN_POINT ( 'NONE',  ( 0.0000000000000000000, 0.0000000000000000000, 0.0000000000000000000 ) ) ;
#55 = MECHANICAL_DESIGN_GEOMETRIC_PRESENTATION_REPRESENTATION (  '', ( #164 ), #233 ) ;
#56 = EDGE_LOOP ( 'NONE', ( #192, #145 ) ) ;
#57 = EDGE_CURVE ( 'NONE', #148, #218, #199, .T. ) ;
#58 = VERTEX_POINT ( 'NONE', #221 ) ;
#59 = DIMENSIONAL_EXPONENTS ( 1.000000000000000000, 0.0000000000000000000, 0.0000000000000000000, 0.0000000000000000000, 0.0000000000000000000, 0.0000000000000000000, 0.0000000000000000000 ) ;
#60 = CARTESIAN_POINT ( 'NONE',  ( -0.1574804999999999955, 0.0000000000000000000, 2.465314999999999923 ) ) ;
#61 = DIRECTION ( 'NONE',  ( 0.0000000000000000000, 0.0000000000000000000, 1.000000000000000000 ) ) ;
#62 = CLOSED_SHELL ( 'NONE', ( #272, #123, #275, #97, #237, #198, #188, #132, #162, #196 ) ) ;
#63 = AXIS2_PLACEMENT_3D ( 'NONE', #37, #106, #225 ) ;
#64 = SURFACE_STYLE_USAGE ( .BOTH. , #226 ) ;
#65 = DIRECTION ( 'NONE',  ( -1.000000000000000000, 0.0000000000000000000, 0.0000000000000000000 ) ) ;
#66 = LENGTH_MEASURE_WITH_UNIT ( LENGTH_MEASURE( 0.02539999999999999897 ), #133 );
#67 = VECTOR ( 'NONE', #8, 39.37007874015748854 ) ;
#68 = CARTESIAN_POINT ( 'NONE',  ( -0.1424804999999990940, 0.0000000000000000000, 2.480315000000000047 ) ) ;
#69 = CARTESIAN_POINT ( 'NONE',  ( 2.359467375330272285E-33, 0.0000000000000000000, 1.926651322628716627E-17 ) ) ;
#70 = LINE ( 'NONE', #142, #288 ) ;
#71 = AXIS2_PLACEMENT_3D ( 'NONE', #83, #175, #86 ) ;
#72 = DIRECTION ( 'NONE',  ( 0.0000000000000000000, 0.0000000000000000000, 1.000000000000000000 ) ) ;
#73 = LINE ( 'NONE', #208, #219 ) ;
#74 = DIRECTION ( 'NONE',  ( 0.0000000000000000000, 0.0000000000000000000, 1.000000000000000000 ) ) ;
#75 = CIRCLE ( 'NONE', #134, 0.1424804999999990940 ) ;
#76 = ORIENTED_EDGE ( 'NONE', *, *, #156, .F. ) ;
#77 = FILL_AREA_STYLE_COLOUR ( '', #161 ) ;
#78 = ORIENTED_EDGE ( 'NONE', *, *, #44, .F. ) ;
#79 = ORIENTED_EDGE ( 'NONE', *, *, #264, .T. ) ;
#80 = ORIENTED_EDGE ( 'NONE', *, *, #264, .F. ) ;
#81 =( GEOMETRIC_REPRESENTATION_CONTEXT ( 3 ) GLOBAL_UNCERTAINTY_ASSIGNED_CONTEXT ( ( #102 ) ) GLOBAL_UNIT_ASSIGNED_CONTEXT ( ( #167, #120, #5 ) ) REPRESENTATION_CONTEXT ( 'NONE', 'WORKASPACE' ) );
#82 =( NAMED_UNIT ( * ) SI_UNIT ( $, .STERADIAN. ) SOLID_ANGLE_UNIT ( ) );
#83 = CARTESIAN_POINT ( 'NONE',  ( 1.061811779920977601E-16, 0.0000000000000000000, 0.8670351162965944658 ) ) ;
#84 = VECTOR ( 'NONE', #290, 39.37007874015748143 ) ;
#85 = DIRECTION ( 'NONE',  ( -0.1736481776669311639, 2.126576849575782392E-17, 0.9848077530122080203 ) ) ;
#86 = DIRECTION ( 'NONE',  ( 1.000000000000000000, 0.0000000000000000000, 0.0000000000000000000 ) ) ;
#87 =( CONVERSION_BASED_UNIT ( 'INCH', #253 ) LENGTH_UNIT ( ) NAMED_UNIT ( #262 ) );
#88 = DIRECTION ( 'NONE',  ( -0.0000000000000000000, -0.0000000000000000000, -1.000000000000000000 ) ) ;
#89 = CARTESIAN_POINT ( 'NONE',  ( 0.0000000000000000000, 0.0000000000000000000, 2.480315000000000047 ) ) ;
#90 = EDGE_CURVE ( 'NONE', #195, #3, #291, .T. ) ;
#91 = FACE_OUTER_BOUND ( 'NONE', #294, .T. ) ;
#92 = PRESENTATION_LAYER_ASSIGNMENT (  '', '', ( #164 ) ) ;
#93 = DIRECTION ( 'NONE',  ( -1.224646799147353207E-16, -0.0000000000000000000, -1.000000000000000000 ) ) ;
#94 = ORIENTED_EDGE ( 'NONE', *, *, #15, .F. ) ;
#95 = SURFACE_STYLE_FILL_AREA ( #259 ) ;
#96 = ORIENTED_EDGE ( 'NONE', *, *, #138, .F. ) ;
#97 = ADVANCED_FACE ( 'NONE', ( #223 ), #16, .T. ) ;
#98 = VERTEX_POINT ( 'NONE', #154 ) ;
#99 = CIRCLE ( 'NONE', #214, 0.1574804999999999955 ) ;
#100 = ORIENTED_EDGE ( 'NONE', *, *, #156, .T. ) ;
#101 = ORIENTED_EDGE ( 'NONE', *, *, #90, .F. ) ;
#102 = UNCERTAINTY_MEASURE_WITH_UNIT (LENGTH_MEASURE( 1.000000000000000082E-05 ), #167, 'distance_accuracy_value', 'NONE');
#103 = ORIENTED_EDGE ( 'NONE', *, *, #110, .T. ) ;
#104 = CONICAL_SURFACE ( 'NONE', #292, 0.1573230194999999665, 0.1745329251994338360 ) ;
#105 = ORIENTED_EDGE ( 'NONE', *, *, #110, .F. ) ;
#106 = DIRECTION ( 'NONE',  ( 1.224646799147353207E-16, 0.0000000000000000000, 1.000000000000000000 ) ) ;
#107 = ADVANCED_BREP_SHAPE_REPRESENTATION ( 'Micro_SHRM-080-4X', ( #35, #251 ), #210 ) ;
#108 =( CONVERSION_BASED_UNIT ( 'INCH', #66 ) LENGTH_UNIT ( ) NAMED_UNIT ( #59 ) );
#109 = CIRCLE ( 'NONE', #270, 0.1573230194999999665 ) ;
#110 = EDGE_CURVE ( 'NONE', #3, #58, #299, .T. ) ;
#111 = CARTESIAN_POINT ( 'NONE',  ( 1.060718027907086782E-16, 0.0000000000000000000, 0.8661419999999999675 ) ) ;
#112 = DIRECTION ( 'NONE',  ( -0.0000000000000000000, -0.0000000000000000000, -1.000000000000000000 ) ) ;
#113 = DIRECTION ( 'NONE',  ( 0.0000000000000000000, 0.0000000000000000000, -1.000000000000000000 ) ) ;
#114 = CARTESIAN_POINT ( 'NONE',  ( 0.0000000000000000000, 0.0000000000000000000, 2.480315000000000047 ) ) ;
#115 = DIRECTION ( 'NONE',  ( -0.0000000000000000000, -0.0000000000000000000, -1.000000000000000000 ) ) ;
#116 = FACE_OUTER_BOUND ( 'NONE', #260, .T. ) ;
#117 = ORIENTED_EDGE ( 'NONE', *, *, #190, .F. ) ;
#118 = APPLICATION_PROTOCOL_DEFINITION ( 'draft international standard', 'automotive_design', 1998, #171 ) ;
#119 = EDGE_LOOP ( 'NONE', ( #193, #28, #187, #280 ) ) ;
#120 =( NAMED_UNIT ( * ) PLANE_ANGLE_UNIT ( ) SI_UNIT ( $, .RADIAN. ) );
#121 = ORIENTED_EDGE ( 'NONE', *, *, #222, .F. ) ;
#122 = UNCERTAINTY_MEASURE_WITH_UNIT (LENGTH_MEASURE( 1.000000000000000082E-05 ), #87, 'distance_accuracy_value', 'NONE');
#123 = ADVANCED_FACE ( 'NONE', ( #131 ), #139, .T. ) ;
#124 = MECHANICAL_DESIGN_GEOMETRIC_PRESENTATION_REPRESENTATION (  '', ( #126 ), #81 ) ;
#125 = DIRECTION ( 'NONE',  ( 1.000000000000000000, 0.0000000000000000000, 0.0000000000000000000 ) ) ;
#126 = STYLED_ITEM ( 'NONE', ( #255 ), #107 ) ;
#127 = EDGE_LOOP ( 'NONE', ( #48, #284, #80, #121 ) ) ;
#128 = CARTESIAN_POINT ( 'NONE',  ( 0.1424804999999990940, 1.744882882659133128E-17, 2.480315000000000047 ) ) ;
#129 = AXIS2_PLACEMENT_3D ( 'NONE', #69, #274, #41 ) ;
#130 = DIRECTION ( 'NONE',  ( 1.000000000000000000, 0.0000000000000000000, 0.0000000000000000000 ) ) ;
#131 = FACE_OUTER_BOUND ( 'NONE', #234, .T. ) ;
#132 = ADVANCED_FACE ( 'NONE', ( #197 ), #104, .T. ) ;
#133 =( LENGTH_UNIT ( ) NAMED_UNIT ( * ) SI_UNIT ( $, .METRE. ) );
#134 = AXIS2_PLACEMENT_3D ( 'NONE', #201, #220, #243 ) ;
#135 = CARTESIAN_POINT ( 'NONE',  ( -0.1573230194999998555, 1.926651322628715702E-17, 0.8661419999999999675 ) ) ;
#136 = DIRECTION ( 'NONE',  ( -0.7071067811865627828, 0.0000000000000000000, -0.7071067811865321406 ) ) ;
#137 = DIRECTION ( 'NONE',  ( -1.224646799147353207E-16, -0.0000000000000000000, -1.000000000000000000 ) ) ;
#138 = EDGE_CURVE ( 'NONE', #148, #195, #109, .T. ) ;
#139 = CONICAL_SURFACE ( 'NONE', #63, 0.1573230194999999665, 0.1745329251994338360 ) ;
#140 = DIRECTION ( 'NONE',  ( -1.000000000000000000, 0.0000000000000000000, 0.0000000000000000000 ) ) ;
#141 = ORIENTED_EDGE ( 'NONE', *, *, #204, .T. ) ;
#142 = CARTESIAN_POINT ( 'NONE',  ( -0.1573230194999999665, 0.0000000000000000000, 1.926651322628715702E-17 ) ) ;
#143 = ORIENTED_EDGE ( 'NONE', *, *, #222, .T. ) ;
#144 = CARTESIAN_POINT ( 'NONE',  ( 0.1573230194999999942, 1.926651322628716011E-17, 3.791200677927629740E-33 ) ) ;
#145 = ORIENTED_EDGE ( 'NONE', *, *, #246, .T. ) ;
#146 = VECTOR ( 'NONE', #157, 39.37007874015748143 ) ;
#147 = CARTESIAN_POINT ( 'NONE',  ( -0.1574804999999998845, 0.0000000000000000000, 0.8670351162965944658 ) ) ;
#148 = VERTEX_POINT ( 'NONE', #12 ) ;
#149 = PRODUCT ( 'Micro_SHRM-080-4X', 'Micro_SHRM-080-4X', '', ( #32 ) ) ;
#150 = DIRECTION ( 'NONE',  ( -1.224646799147353207E-16, -0.0000000000000000000, -1.000000000000000000 ) ) ;
#151 = VERTEX_POINT ( 'NONE', #60 ) ;
#152 = PRESENTATION_STYLE_ASSIGNMENT (( #64 ) ) ;
#153 = AXIS2_PLACEMENT_3D ( 'NONE', #89, #180, #276 ) ;
#154 = CARTESIAN_POINT ( 'NONE',  ( 0.1574804999999999955, 1.928579902531247412E-17, 2.465314999999999923 ) ) ;
#155 = DIRECTION ( 'NONE',  ( 1.000000000000000000, 0.0000000000000000000, 0.0000000000000000000 ) ) ;
#156 = EDGE_CURVE ( 'NONE', #168, #26, #238, .T. ) ;
#157 = DIRECTION ( 'NONE',  ( 0.1736481776669313304, 0.0000000000000000000, 0.9848077530122077983 ) ) ;
#158 = PRODUCT_DEFINITION ( 'UNKNOWN', '', #229, #179 ) ;
#159 = CYLINDRICAL_SURFACE ( 'NONE', #257, 0.1573230194999999665 ) ;
#160 = PLANE ( 'NONE',  #42 ) ;
#161 = COLOUR_RGB ( '',0.7921568627450980005, 0.8196078431372548767, 0.9333333333333333481 ) ;
#162 = ADVANCED_FACE ( 'NONE', ( #242 ), #36, .T. ) ;
#163 = VERTEX_POINT ( 'NONE', #20 ) ;
#164 = STYLED_ITEM ( 'NONE', ( #152 ), #35 ) ;
#165 = ORIENTED_EDGE ( 'NONE', *, *, #9, .F. ) ;
#166 = DIRECTION ( 'NONE',  ( -1.224646799147353207E-16, -0.0000000000000000000, -1.000000000000000000 ) ) ;
#167 =( CONVERSION_BASED_UNIT ( 'INCH', #266 ) LENGTH_UNIT ( ) NAMED_UNIT ( #2 ) );
#168 = VERTEX_POINT ( 'NONE', #68 ) ;
#169 = AXIS2_PLACEMENT_3D ( 'NONE', #22, #209, #47 ) ;
#170 = CARTESIAN_POINT ( 'NONE',  ( 0.1424804999999990940, 1.836731392595189962E-17, 2.480315000000000047 ) ) ;
#171 = APPLICATION_CONTEXT ( 'automotive_design' ) ;
#172 = DIRECTION ( 'NONE',  ( -1.224646799147353207E-16, -0.0000000000000000000, -1.000000000000000000 ) ) ;
#173 = CIRCLE ( 'NONE', #213, 0.1573230194999999665 ) ;
#174 = VECTOR ( 'NONE', #85, 39.37007874015747433 ) ;
#175 = DIRECTION ( 'NONE',  ( -1.224646799147353207E-16, -0.0000000000000000000, -1.000000000000000000 ) ) ;
#176 = CARTESIAN_POINT ( 'NONE',  ( 0.0000000000000000000, 0.0000000000000000000, 2.480315000000000047 ) ) ;
#177 = FILL_AREA_STYLE_COLOUR ( '', #206 ) ;
#178 = CARTESIAN_POINT ( 'NONE',  ( 0.0000000000000000000, 0.0000000000000000000, 2.465314999999999923 ) ) ;
#179 = PRODUCT_DEFINITION_CONTEXT ( 'detailed design', #171, 'design' ) ;
#180 = DIRECTION ( 'NONE',  ( 0.0000000000000000000, 0.0000000000000000000, -1.000000000000000000 ) ) ;
#181 = DIRECTION ( 'NONE',  ( 1.000000000000000000, 0.0000000000000000000, 0.0000000000000000000 ) ) ;
#182 = AXIS2_PLACEMENT_3D ( 'NONE', #263, #166, #241 ) ;
#183 = CIRCLE ( 'NONE', #129, 0.1573230194999999942 ) ;
#184 = CARTESIAN_POINT ( 'NONE',  ( 0.1573230195000000775, 0.0000000000000000000, 0.8661419999999999675 ) ) ;
#185 = EDGE_LOOP ( 'NONE', ( #101, #96, #232, #50 ) ) ;
#186 = PRODUCT_DEFINITION_SHAPE ( 'NONE', 'NONE',  #158 ) ;
#187 = ORIENTED_EDGE ( 'NONE', *, *, #289, .T. ) ;
#188 = ADVANCED_FACE ( 'NONE', ( #116 ), #273, .T. ) ;
#189 = LINE ( 'NONE', #53, #297 ) ;
#190 = EDGE_CURVE ( 'NONE', #148, #58, #205, .T. ) ;
#191 = CIRCLE ( 'NONE', #286, 0.1573230194999999942 ) ;
#192 = ORIENTED_EDGE ( 'NONE', *, *, #18, .T. ) ;
#193 = ORIENTED_EDGE ( 'NONE', *, *, #57, .F. ) ;
#194 = AXIS2_PLACEMENT_3D ( 'NONE', #269, #61, #155 ) ;
#195 = VERTEX_POINT ( 'NONE', #23 ) ;
#196 = ADVANCED_FACE ( 'NONE', ( #43 ), #245, .F. ) ;
#197 = FACE_OUTER_BOUND ( 'NONE', #185, .T. ) ;
#198 = ADVANCED_FACE ( 'NONE', ( #278 ), #160, .T. ) ;
#199 = LINE ( 'NONE', #202, #84 ) ;
#200 = AXIS2_PLACEMENT_3D ( 'NONE', #277, #113, #140 ) ;
#201 = CARTESIAN_POINT ( 'NONE',  ( 0.0000000000000000000, 0.0000000000000000000, 2.480315000000000047 ) ) ;
#202 = CARTESIAN_POINT ( 'NONE',  ( 0.1573230194999999665, 1.926651322628715702E-17, -1.926651322628715702E-17 ) ) ;
#203 = CARTESIAN_POINT ( 'NONE',  ( 1.060718027907086782E-16, 0.0000000000000000000, 0.8661419999999999675 ) ) ;
#204 = EDGE_CURVE ( 'NONE', #98, #58, #73, .T. ) ;
#205 = LINE ( 'NONE', #184, #146 ) ;
#206 = COLOUR_RGB ( '',0.7921568627450980005, 0.8196078431372548767, 0.9333333333333333481 ) ;
#207 = LINE ( 'NONE', #296, #11 ) ;
#208 = CARTESIAN_POINT ( 'NONE',  ( 0.1574804999999999955, 1.928579902531247412E-17, 2.480315000000000047 ) ) ;
#209 = DIRECTION ( 'NONE',  ( -1.224646799147353207E-16, -0.0000000000000000000, -1.000000000000000000 ) ) ;
#210 =( GEOMETRIC_REPRESENTATION_CONTEXT ( 3 ) GLOBAL_UNCERTAINTY_ASSIGNED_CONTEXT ( ( #122 ) ) GLOBAL_UNIT_ASSIGNED_CONTEXT ( ( #87, #282, #52 ) ) REPRESENTATION_CONTEXT ( 'NONE', 'WORKASPACE' ) );
#211 = DIRECTION ( 'NONE',  ( -1.224646799147353207E-16, -0.0000000000000000000, -1.000000000000000000 ) ) ;
#212 = ORIENTED_EDGE ( 'NONE', *, *, #57, .T. ) ;
#213 = AXIS2_PLACEMENT_3D ( 'NONE', #240, #211, #283 ) ;
#214 = AXIS2_PLACEMENT_3D ( 'NONE', #178, #46, #181 ) ;
#215 = DIRECTION ( 'NONE',  ( -0.0000000000000000000, -0.0000000000000000000, -1.000000000000000000 ) ) ;
#216 = SURFACE_STYLE_USAGE ( .BOTH. , #49 ) ;
#217 = ORIENTED_EDGE ( 'NONE', *, *, #289, .F. ) ;
#218 = VERTEX_POINT ( 'NONE', #144 ) ;
#219 = VECTOR ( 'NONE', #115, 39.37007874015748143 ) ;
#220 = DIRECTION ( 'NONE',  ( 0.0000000000000000000, 0.0000000000000000000, 1.000000000000000000 ) ) ;
#221 = CARTESIAN_POINT ( 'NONE',  ( 0.1574805000000000788, 1.928579902531248645E-17, 0.8670351162965944658 ) ) ;
#222 = EDGE_CURVE ( 'NONE', #168, #151, #207, .T. ) ;
#223 = FACE_OUTER_BOUND ( 'NONE', #235, .T. ) ;
#224 = AXIS2_PLACEMENT_3D ( 'NONE', #176, #112, #65 ) ;
#225 = DIRECTION ( 'NONE',  ( 1.000000000000000000, 0.0000000000000000000, 0.0000000000000000000 ) ) ;
#226 = SURFACE_SIDE_STYLE ('',( #244 ) ) ;
#227 = CARTESIAN_POINT ( 'NONE',  ( 0.0000000000000000000, 0.0000000000000000000, 0.0000000000000000000 ) ) ;
#228 = DIRECTION ( 'NONE',  ( -1.000000000000000000, 0.0000000000000000000, 1.224646799147352961E-16 ) ) ;
#229 = PRODUCT_DEFINITION_FORMATION_WITH_SPECIFIED_SOURCE ( 'ANY', '', #149, .NOT_KNOWN. ) ;
#230 = DIRECTION ( 'NONE',  ( 1.000000000000000000, 0.0000000000000000000, -0.0000000000000000000 ) ) ;
#231 =( LENGTH_UNIT ( ) NAMED_UNIT ( * ) SI_UNIT ( $, .METRE. ) );
#232 = ORIENTED_EDGE ( 'NONE', *, *, #190, .T. ) ;
#233 =( GEOMETRIC_REPRESENTATION_CONTEXT ( 3 ) GLOBAL_UNCERTAINTY_ASSIGNED_CONTEXT ( ( #31 ) ) GLOBAL_UNIT_ASSIGNED_CONTEXT ( ( #108, #39, #82 ) ) REPRESENTATION_CONTEXT ( 'NONE', 'WORKASPACE' ) );
#234 = EDGE_LOOP ( 'NONE', ( #165, #24, #103, #117 ) ) ;
#235 = EDGE_LOOP ( 'NONE', ( #79, #141, #105, #94 ) ) ;
#236 = ORIENTED_EDGE ( 'NONE', *, *, #25, .F. ) ;
#237 = ADVANCED_FACE ( 'NONE', ( #91 ), #252, .T. ) ;
#238 = CIRCLE ( 'NONE', #194, 0.1424804999999990940 ) ;
#239 = SHAPE_DEFINITION_REPRESENTATION ( #186, #107 ) ;
#240 = CARTESIAN_POINT ( 'NONE',  ( 1.060718027907086782E-16, 0.0000000000000000000, 0.8661419999999999675 ) ) ;
#241 = DIRECTION ( 'NONE',  ( 1.000000000000000000, 0.0000000000000000000, 0.0000000000000000000 ) ) ;
#242 = FACE_OUTER_BOUND ( 'NONE', #119, .T. ) ;
#243 = DIRECTION ( 'NONE',  ( 1.000000000000000000, 0.0000000000000000000, 0.0000000000000000000 ) ) ;
#244 = SURFACE_STYLE_FILL_AREA ( #271 ) ;
#245 = PLANE ( 'NONE',  #38 ) ;
#246 = EDGE_CURVE ( 'NONE', #218, #163, #183, .T. ) ;
#247 = CARTESIAN_POINT ( 'NONE',  ( 0.0000000000000000000, 0.0000000000000000000, 0.0000000000000000000 ) ) ;
#248 = DIRECTION ( 'NONE',  ( 0.0000000000000000000, 0.0000000000000000000, 1.000000000000000000 ) ) ;
#249 = PRESENTATION_LAYER_ASSIGNMENT (  '', '', ( #126 ) ) ;
#250 = AXIS2_PLACEMENT_3D ( 'NONE', #114, #88, #40 ) ;
#251 = AXIS2_PLACEMENT_3D ( 'NONE', #54, #74, #125 ) ;
#252 = CYLINDRICAL_SURFACE ( 'NONE', #250, 0.1574804999999999955 ) ;
#253 = LENGTH_MEASURE_WITH_UNIT ( LENGTH_MEASURE( 0.02539999999999999897 ), #231 );
#254 = EDGE_LOOP ( 'NONE', ( #10, #212, #287, #217 ) ) ;
#255 = PRESENTATION_STYLE_ASSIGNMENT (( #216 ) ) ;
#256 = ORIENTED_EDGE ( 'NONE', *, *, #45, .T. ) ;
#257 = AXIS2_PLACEMENT_3D ( 'NONE', #247, #137, #228 ) ;
#258 = PRODUCT_RELATED_PRODUCT_CATEGORY ( 'part', '', ( #149 ) ) ;
#259 = FILL_AREA_STYLE ('',( #77 ) ) ;
#260 = EDGE_LOOP ( 'NONE', ( #236, #76, #143, #78 ) ) ;
#261 = ORIENTED_EDGE ( 'NONE', *, *, #204, .F. ) ;
#262 = DIMENSIONAL_EXPONENTS ( 1.000000000000000000, 0.0000000000000000000, 0.0000000000000000000, 0.0000000000000000000, 0.0000000000000000000, 0.0000000000000000000, 0.0000000000000000000 ) ;
#263 = CARTESIAN_POINT ( 'NONE',  ( 1.061811779920977601E-16, 0.0000000000000000000, 0.8670351162965944658 ) ) ;
#264 = EDGE_CURVE ( 'NONE', #151, #98, #99, .T. ) ;
#265 = CIRCLE ( 'NONE', #4, 0.1574804999999999955 ) ;
#266 = LENGTH_MEASURE_WITH_UNIT ( LENGTH_MEASURE( 0.02539999999999999897 ), #7 );
#267 = CARTESIAN_POINT ( 'NONE',  ( 0.0000000000000000000, 0.0000000000000000000, 2.465314999999999923 ) ) ;
#268 = DIRECTION ( 'NONE',  ( -1.000000000000000000, 0.0000000000000000000, 0.0000000000000000000 ) ) ;
#269 = CARTESIAN_POINT ( 'NONE',  ( 0.0000000000000000000, 0.0000000000000000000, 2.480315000000000047 ) ) ;
#270 = AXIS2_PLACEMENT_3D ( 'NONE', #111, #172, #268 ) ;
#271 = FILL_AREA_STYLE ('',( #177 ) ) ;
#272 = ADVANCED_FACE ( 'NONE', ( #298 ), #159, .T. ) ;
#273 = CONICAL_SURFACE ( 'NONE', #200, 0.1424804999999990940, 0.7853981633974699283 ) ;
#274 = DIRECTION ( 'NONE',  ( -1.224646799147353207E-16, -0.0000000000000000000, -1.000000000000000000 ) ) ;
#275 = ADVANCED_FACE ( 'NONE', ( #295 ), #281, .T. ) ;
#276 = DIRECTION ( 'NONE',  ( -1.000000000000000000, 0.0000000000000000000, 0.0000000000000000000 ) ) ;
#277 = CARTESIAN_POINT ( 'NONE',  ( 0.0000000000000000000, 0.0000000000000000000, 2.480315000000000047 ) ) ;
#278 = FACE_OUTER_BOUND ( 'NONE', #285, .T. ) ;
#279 = APPLICATION_CONTEXT ( 'automotive_design' ) ;
#280 = ORIENTED_EDGE ( 'NONE', *, *, #246, .F. ) ;
#281 = CONICAL_SURFACE ( 'NONE', #153, 0.1424804999999990940, 0.7853981633974699283 ) ;
#282 =( NAMED_UNIT ( * ) PLANE_ANGLE_UNIT ( ) SI_UNIT ( $, .RADIAN. ) );
#283 = DIRECTION ( 'NONE',  ( -1.000000000000000000, 0.0000000000000000000, 0.0000000000000000000 ) ) ;
#284 = ORIENTED_EDGE ( 'NONE', *, *, #25, .T. ) ;
#285 = EDGE_LOOP ( 'NONE', ( #100, #256 ) ) ;
#286 = AXIS2_PLACEMENT_3D ( 'NONE', #6, #150, #34 ) ;
#287 = ORIENTED_EDGE ( 'NONE', *, *, #18, .F. ) ;
#288 = VECTOR ( 'NONE', #93, 39.37007874015748143 ) ;
#289 = EDGE_CURVE ( 'NONE', #195, #163, #70, .T. ) ;
#290 = DIRECTION ( 'NONE',  ( -1.224646799147353207E-16, -0.0000000000000000000, -1.000000000000000000 ) ) ;
#291 = LINE ( 'NONE', #135, #174 ) ;
#292 = AXIS2_PLACEMENT_3D ( 'NONE', #203, #17, #14 ) ;
#293 = CARTESIAN_POINT ( 'NONE',  ( 0.0000000000000000000, 0.0000000000000000000, 2.480315000000000047 ) ) ;
#294 = EDGE_LOOP ( 'NONE', ( #261, #30, #1, #51 ) ) ;
#295 = FACE_OUTER_BOUND ( 'NONE', #127, .T. ) ;
#296 = CARTESIAN_POINT ( 'NONE',  ( -0.1424804999999990940, 0.0000000000000000000, 2.480315000000000047 ) ) ;
#297 = VECTOR ( 'NONE', #215, 39.37007874015748143 ) ;
#298 = FACE_OUTER_BOUND ( 'NONE', #254, .T. ) ;
#299 = CIRCLE ( 'NONE', #71, 0.1574804999999999955 ) ;
ENDSEC;
END-ISO-10303-21;
