ISO-10303-21;
HEADER;
FILE_DESCRIPTION (( 'STEP AP214' ),
    '1' );
FILE_NAME ('Micro_SBM-375-2X.STEP',
    '2021-09-02T17:02:11',
    ( '' ),
    ( '' ),
    'SwSTEP 2.0',
    'SolidWorks 2020',
    '' );
FILE_SCHEMA (( 'AUTOMOTIVE_DESIGN' ));
ENDSEC;

DATA;
#1 = PRODUCT ( 'Micro_SBM-375-2X', 'Micro_SBM-375-2X', '', ( #233 ) ) ;
#2 = ORIENTED_EDGE ( 'NONE', *, *, #168, .T. ) ;
#3 = DIRECTION ( 'NONE',  ( -1.000000000000000000, 0.0000000000000000000, 0.0000000000000000000 ) ) ;
#4 = FILL_AREA_STYLE_COLOUR ( '', #256 ) ;
#5 = VERTEX_POINT ( 'NONE', #341 ) ;
#6 = AXIS2_PLACEMENT_3D ( 'NONE', #162, #130, #188 ) ;
#7 = DIRECTION ( 'NONE',  ( -0.0000000000000000000, -0.0000000000000000000, -1.000000000000000000 ) ) ;
#8 = CARTESIAN_POINT ( 'NONE',  ( 0.0000000000000000000, 0.0000000000000000000, 4.000000000000000000 ) ) ;
#9 = ORIENTED_EDGE ( 'NONE', *, *, #211, .F. ) ;
#10 =( LENGTH_UNIT ( ) NAMED_UNIT ( * ) SI_UNIT ( $, .METRE. ) );
#11 = CARTESIAN_POINT ( 'NONE',  ( 0.0000000000000000000, 0.0000000000000000000, 4.000000000000000000 ) ) ;
#12 = CARTESIAN_POINT ( 'NONE',  ( -0.1875000000000000278, 0.0000000000000000000, 4.000000000000000000 ) ) ;
#13 = EDGE_CURVE ( 'NONE', #28, #275, #337, .T. ) ;
#14 = CARTESIAN_POINT ( 'NONE',  ( 0.0000000000000000000, 0.0000000000000000000, 1.200000000000000178 ) ) ;
#15 = DIRECTION ( 'NONE',  ( 1.000000000000000000, 0.0000000000000000000, 0.0000000000000000000 ) ) ;
#16 = DIRECTION ( 'NONE',  ( -0.0000000000000000000, -0.0000000000000000000, -1.000000000000000000 ) ) ;
#17 = AXIS2_PLACEMENT_3D ( 'NONE', #181, #93, #66 ) ;
#18 = CONICAL_SURFACE ( 'NONE', #340, 0.2062499999999998224, 0.09347678115858976122 ) ;
#19 = DIRECTION ( 'NONE',  ( 0.0000000000000000000, 0.0000000000000000000, 1.000000000000000000 ) ) ;
#20 = PRODUCT_DEFINITION ( 'UNKNOWN', '', #45, #255 ) ;
#21 = DIRECTION ( 'NONE',  ( 1.000000000000000000, 0.0000000000000000000, 0.0000000000000000000 ) ) ;
#22 = CYLINDRICAL_SURFACE ( 'NONE', #267, 0.1499999999999999112 ) ;
#23 = EDGE_LOOP ( 'NONE', ( #163, #25, #216, #75 ) ) ;
#24 = ORIENTED_EDGE ( 'NONE', *, *, #50, .T. ) ;
#25 = ORIENTED_EDGE ( 'NONE', *, *, #342, .F. ) ;
#26 = FACE_OUTER_BOUND ( 'NONE', #23, .T. ) ;
#27 = DIRECTION ( 'NONE',  ( 1.000000000000000000, 0.0000000000000000000, 0.0000000000000000000 ) ) ;
#28 = VERTEX_POINT ( 'NONE', #91 ) ;
#29 = AXIS2_PLACEMENT_3D ( 'NONE', #314, #16, #258 ) ;
#30 = ORIENTED_EDGE ( 'NONE', *, *, #179, .F. ) ;
#31 = CLOSED_SHELL ( 'NONE', ( #113, #197, #172, #35, #108, #178, #223, #76, #63, #325, #309 ) ) ;
#32 =( CONVERSION_BASED_UNIT ( 'INCH', #174 ) LENGTH_UNIT ( ) NAMED_UNIT ( #154 ) );
#33 = AXIS2_PLACEMENT_3D ( 'NONE', #344, #38, #338 ) ;
#34 = COLOUR_RGB ( '',0.7921568627450980005, 0.8196078431372548767, 0.9333333333333333481 ) ;
#35 = ADVANCED_FACE ( 'NONE', ( #262 ), #226, .T. ) ;
#36 = DIRECTION ( 'NONE',  ( -0.0000000000000000000, -0.0000000000000000000, -1.000000000000000000 ) ) ;
#37 = UNCERTAINTY_MEASURE_WITH_UNIT (LENGTH_MEASURE( 1.000000000000000082E-05 ), #32, 'distance_accuracy_value', 'NONE');
#38 = DIRECTION ( 'NONE',  ( -1.000000000000000000, 0.0000000000000000000, 0.0000000000000000000 ) ) ;
#39 = DIRECTION ( 'NONE',  ( 1.000000000000000000, 0.0000000000000000000, 0.0000000000000000000 ) ) ;
#40 = CARTESIAN_POINT ( 'NONE',  ( 0.0000000000000000000, 0.0000000000000000000, 0.3000000000000000999 ) ) ;
#41 = DIMENSIONAL_EXPONENTS ( 1.000000000000000000, 0.0000000000000000000, 0.0000000000000000000, 0.0000000000000000000, 0.0000000000000000000, 0.0000000000000000000, 0.0000000000000000000 ) ;
#42 = DIRECTION ( 'NONE',  ( -0.09334070869305856333, 1.143094001310997027E-17, 0.9956342260592879745 ) ) ;
#43 =( CONVERSION_BASED_UNIT ( 'INCH', #247 ) LENGTH_UNIT ( ) NAMED_UNIT ( #41 ) );
#44 = CIRCLE ( 'NONE', #6, 0.1499999999999999389 ) ;
#45 = PRODUCT_DEFINITION_FORMATION_WITH_SPECIFIED_SOURCE ( 'ANY', '', #1, .NOT_KNOWN. ) ;
#46 = CARTESIAN_POINT ( 'NONE',  ( 0.0000000000000000000, 0.0000000000000000000, 0.1875000000000000278 ) ) ;
#47 = VERTEX_POINT ( 'NONE', #343 ) ;
#48 = CARTESIAN_POINT ( 'NONE',  ( 0.0000000000000000000, 0.0000000000000000000, 0.3000000000000000999 ) ) ;
#49 = EDGE_LOOP ( 'NONE', ( #140, #222, #246, #79 ) ) ;
#50 = EDGE_CURVE ( 'NONE', #47, #28, #244, .T. ) ;
#51 = SURFACE_STYLE_USAGE ( .BOTH. , #326 ) ;
#52 = VERTEX_POINT ( 'NONE', #149 ) ;
#53 = ORIENTED_EDGE ( 'NONE', *, *, #280, .T. ) ;
#54 = AXIS2_PLACEMENT_3D ( 'NONE', #287, #123, #187 ) ;
#55 = CARTESIAN_POINT ( 'NONE',  ( -0.1724999999999998757, 0.0000000000000000000, 4.000000000000000000 ) ) ;
#56 = ORIENTED_EDGE ( 'NONE', *, *, #317, .T. ) ;
#57 = EDGE_CURVE ( 'NONE', #173, #266, #335, .T. ) ;
#58 = ORIENTED_EDGE ( 'NONE', *, *, #264, .F. ) ;
#59 = SURFACE_STYLE_FILL_AREA ( #328 ) ;
#60 =( CONVERSION_BASED_UNIT ( 'INCH', #224 ) LENGTH_UNIT ( ) NAMED_UNIT ( #313 ) );
#61 = DIRECTION ( 'NONE',  ( 0.0000000000000000000, 0.0000000000000000000, 1.000000000000000000 ) ) ;
#62 = DIRECTION ( 'NONE',  ( 0.0000000000000000000, 0.0000000000000000000, 1.000000000000000000 ) ) ;
#63 = ADVANCED_FACE ( 'NONE', ( #290 ), #201, .T. ) ;
#64 = CARTESIAN_POINT ( 'NONE',  ( 0.0000000000000000000, 0.0000000000000000000, 3.984999999999998987 ) ) ;
#65 = FACE_OUTER_BOUND ( 'NONE', #109, .T. ) ;
#66 = DIRECTION ( 'NONE',  ( -1.000000000000000000, 0.0000000000000000000, 0.0000000000000000000 ) ) ;
#67 = CIRCLE ( 'NONE', #311, 0.1724999999999998757 ) ;
#68 = EDGE_CURVE ( 'NONE', #102, #275, #282, .T. ) ;
#69 = AXIS2_PLACEMENT_3D ( 'NONE', #332, #307, #281 ) ;
#70 = SPHERICAL_SURFACE ( 'NONE', #330, 0.1874999999999999722 ) ;
#71 = DIRECTION ( 'NONE',  ( 1.000000000000000000, 0.0000000000000000000, 0.0000000000000000000 ) ) ;
#72 = ORIENTED_EDGE ( 'NONE', *, *, #13, .F. ) ;
#73 = ORIENTED_EDGE ( 'NONE', *, *, #179, .T. ) ;
#74 = DIRECTION ( 'NONE',  ( 0.0000000000000000000, 1.000000000000000000, 0.0000000000000000000 ) ) ;
#75 = ORIENTED_EDGE ( 'NONE', *, *, #85, .F. ) ;
#76 = ADVANCED_FACE ( 'NONE', ( #98 ), #208, .T. ) ;
#77 = APPLICATION_CONTEXT ( 'automotive_design' ) ;
#78 = DIRECTION ( 'NONE',  ( -0.0000000000000000000, -0.0000000000000000000, -1.000000000000000000 ) ) ;
#79 = ORIENTED_EDGE ( 'NONE', *, *, #57, .F. ) ;
#80 = CYLINDRICAL_SURFACE ( 'NONE', #251, 0.1875000000000000278 ) ;
#81 = AXIS2_PLACEMENT_3D ( 'NONE', #64, #207, #257 ) ;
#82 = SURFACE_SIDE_STYLE ('',( #59 ) ) ;
#83 = ORIENTED_EDGE ( 'NONE', *, *, #143, .T. ) ;
#84 = CIRCLE ( 'NONE', #283, 0.1874999999999999722 ) ;
#85 = EDGE_CURVE ( 'NONE', #196, #194, #261, .T. ) ;
#86 = DIRECTION ( 'NONE',  ( -1.000000000000000000, 0.0000000000000000000, 0.0000000000000000000 ) ) ;
#87 = LINE ( 'NONE', #278, #95 ) ;
#88 = VECTOR ( 'NONE', #42, 39.37007874015748143 ) ;
#89 = UNCERTAINTY_MEASURE_WITH_UNIT (LENGTH_MEASURE( 1.000000000000000082E-05 ), #60, 'distance_accuracy_value', 'NONE');
#90 =( NAMED_UNIT ( * ) PLANE_ANGLE_UNIT ( ) SI_UNIT ( $, .RADIAN. ) );
#91 = CARTESIAN_POINT ( 'NONE',  ( 0.1499999999999998834, 0.0000000000000000000, 0.8000000000000000444 ) ) ;
#92 = EDGE_CURVE ( 'NONE', #135, #52, #67, .T. ) ;
#93 = DIRECTION ( 'NONE',  ( -0.0000000000000000000, -0.0000000000000000000, -1.000000000000000000 ) ) ;
#94 = CIRCLE ( 'NONE', #142, 0.1499999999999999389 ) ;
#95 = VECTOR ( 'NONE', #176, 39.37007874015748143 ) ;
#96 = EDGE_LOOP ( 'NONE', ( #129, #167, #83, #321 ) ) ;
#97 = EDGE_CURVE ( 'NONE', #47, #196, #319, .T. ) ;
#98 = FACE_OUTER_BOUND ( 'NONE', #170, .T. ) ;
#99 = CIRCLE ( 'NONE', #33, 0.1874999999999999445 ) ;
#100 = AXIS2_PLACEMENT_3D ( 'NONE', #8, #306, #225 ) ;
#101 = CARTESIAN_POINT ( 'NONE',  ( 0.0000000000000000000, 0.0000000000000000000, 3.984999999999998987 ) ) ;
#102 = VERTEX_POINT ( 'NONE', #232 ) ;
#103 = DIRECTION ( 'NONE',  ( -0.0000000000000000000, -0.0000000000000000000, -1.000000000000000000 ) ) ;
#104 = ORIENTED_EDGE ( 'NONE', *, *, #259, .F. ) ;
#105 = CARTESIAN_POINT ( 'NONE',  ( -0.1499999999999999112, 0.0000000000000000000, 0.0000000000000000000 ) ) ;
#106 = ORIENTED_EDGE ( 'NONE', *, *, #200, .T. ) ;
#107 = FACE_OUTER_BOUND ( 'NONE', #96, .T. ) ;
#108 = ADVANCED_FACE ( 'NONE', ( #286 ), #70, .T. ) ;
#109 = EDGE_LOOP ( 'NONE', ( #241, #238, #104, #58 ) ) ;
#110 = AXIS2_PLACEMENT_3D ( 'NONE', #46, #237, #74 ) ;
#111 = PRESENTATION_LAYER_ASSIGNMENT (  '', '', ( #147 ) ) ;
#112 = DIRECTION ( 'NONE',  ( -0.7071067811865321406, 0.0000000000000000000, -0.7071067811865627828 ) ) ;
#113 = ADVANCED_FACE ( 'NONE', ( #65 ), #204, .T. ) ;
#114 = FACE_OUTER_BOUND ( 'NONE', #161, .T. ) ;
#115 =( LENGTH_UNIT ( ) NAMED_UNIT ( * ) SI_UNIT ( $, .METRE. ) );
#116 = MECHANICAL_DESIGN_GEOMETRIC_PRESENTATION_REPRESENTATION (  '', ( #147 ), #160 ) ;
#117 = DIRECTION ( 'NONE',  ( -0.0000000000000000000, -0.0000000000000000000, -1.000000000000000000 ) ) ;
#118 = CARTESIAN_POINT ( 'NONE',  ( -0.2062499999999998224, 2.525834023241413787E-17, 1.399999999999997469 ) ) ;
#119 = SHAPE_DEFINITION_REPRESENTATION ( #136, #277 ) ;
#120 = DIRECTION ( 'NONE',  ( 1.000000000000000000, 0.0000000000000000000, 0.0000000000000000000 ) ) ;
#121 = CARTESIAN_POINT ( 'NONE',  ( 0.0000000000000000000, 0.0000000000000000000, 0.0000000000000000000 ) ) ;
#122 = LINE ( 'NONE', #236, #254 ) ;
#123 = DIRECTION ( 'NONE',  ( -0.0000000000000000000, -0.0000000000000000000, -1.000000000000000000 ) ) ;
#124 =( NAMED_UNIT ( * ) PLANE_ANGLE_UNIT ( ) SI_UNIT ( $, .RADIAN. ) );
#125 = VECTOR ( 'NONE', #36, 39.37007874015748143 ) ;
#126 = CARTESIAN_POINT ( 'NONE',  ( 0.0000000000000000000, 0.0000000000000000000, 0.0000000000000000000 ) ) ;
#127 = EDGE_LOOP ( 'NONE', ( #220, #300, #294, #327 ) ) ;
#128 = CARTESIAN_POINT ( 'NONE',  ( 0.0000000000000000000, 0.0000000000000000000, 0.3000000000000000999 ) ) ;
#129 = ORIENTED_EDGE ( 'NONE', *, *, #259, .T. ) ;
#130 = DIRECTION ( 'NONE',  ( -0.0000000000000000000, -0.0000000000000000000, -1.000000000000000000 ) ) ;
#131 = ORIENTED_EDGE ( 'NONE', *, *, #68, .F. ) ;
#132 = CIRCLE ( 'NONE', #171, 0.1875000000000000278 ) ;
#133 = MECHANICAL_DESIGN_GEOMETRIC_PRESENTATION_REPRESENTATION (  '', ( #206 ), #227 ) ;
#134 = DIRECTION ( 'NONE',  ( 0.0000000000000000000, 0.0000000000000000000, 1.000000000000000000 ) ) ;
#135 = VERTEX_POINT ( 'NONE', #230 ) ;
#136 = PRODUCT_DEFINITION_SHAPE ( 'NONE', 'NONE',  #20 ) ;
#137 = VERTEX_POINT ( 'NONE', #234 ) ;
#138 = ORIENTED_EDGE ( 'NONE', *, *, #13, .T. ) ;
#139 = FACE_OUTER_BOUND ( 'NONE', #49, .T. ) ;
#140 = ORIENTED_EDGE ( 'NONE', *, *, #240, .F. ) ;
#141 = PRESENTATION_STYLE_ASSIGNMENT (( #195 ) ) ;
#142 = AXIS2_PLACEMENT_3D ( 'NONE', #48, #78, #215 ) ;
#143 = EDGE_CURVE ( 'NONE', #194, #196, #132, .T. ) ;
#144 = CARTESIAN_POINT ( 'NONE',  ( 0.0000000000000000000, 0.0000000000000000000, 0.1875000000000000278 ) ) ;
#145 = DIRECTION ( 'NONE',  ( 0.0000000000000000000, 0.0000000000000000000, -1.000000000000000000 ) ) ;
#146 = DIRECTION ( 'NONE',  ( -1.000000000000000000, 0.0000000000000000000, 0.0000000000000000000 ) ) ;
#147 = STYLED_ITEM ( 'NONE', ( #169 ), #235 ) ;
#148 = EDGE_LOOP ( 'NONE', ( #329, #190, #53, #269 ) ) ;
#149 = CARTESIAN_POINT ( 'NONE',  ( -0.1724999999999998757, 0.0000000000000000000, 4.000000000000000000 ) ) ;
#150 = CARTESIAN_POINT ( 'NONE',  ( 0.1499999999999999112, 1.836970198721028825E-17, 0.0000000000000000000 ) ) ;
#151 = AXIS2_PLACEMENT_3D ( 'NONE', #288, #19, #120 ) ;
#152 =( NAMED_UNIT ( * ) PLANE_ANGLE_UNIT ( ) SI_UNIT ( $, .RADIAN. ) );
#153 = CARTESIAN_POINT ( 'NONE',  ( 0.0000000000000000000, 0.0000000000000000000, 4.000000000000000000 ) ) ;
#154 = DIMENSIONAL_EXPONENTS ( 1.000000000000000000, 0.0000000000000000000, 0.0000000000000000000, 0.0000000000000000000, 0.0000000000000000000, 0.0000000000000000000, 0.0000000000000000000 ) ;
#155 = FILL_AREA_STYLE ('',( #4 ) ) ;
#156 = DIRECTION ( 'NONE',  ( 0.7071067811865321406, 8.659560562354744271E-17, -0.7071067811865627828 ) ) ;
#157 = EDGE_CURVE ( 'NONE', #173, #194, #122, .T. ) ;
#158 = ORIENTED_EDGE ( 'NONE', *, *, #302, .F. ) ;
#159 = VECTOR ( 'NONE', #7, 39.37007874015748143 ) ;
#160 =( GEOMETRIC_REPRESENTATION_CONTEXT ( 3 ) GLOBAL_UNCERTAINTY_ASSIGNED_CONTEXT ( ( #308 ) ) GLOBAL_UNIT_ASSIGNED_CONTEXT ( ( #43, #124, #239 ) ) REPRESENTATION_CONTEXT ( 'NONE', 'WORKASPACE' ) );
#161 = EDGE_LOOP ( 'NONE', ( #56, #248 ) ) ;
#162 = CARTESIAN_POINT ( 'NONE',  ( 0.0000000000000000000, 0.0000000000000000000, 0.3000000000000000999 ) ) ;
#163 = ORIENTED_EDGE ( 'NONE', *, *, #97, .F. ) ;
#164 = PRODUCT_RELATED_PRODUCT_CATEGORY ( 'part', '', ( #1 ) ) ;
#165 = ORIENTED_EDGE ( 'NONE', *, *, #342, .T. ) ;
#166 = CARTESIAN_POINT ( 'NONE',  ( 0.1875000000000000278, 2.296212748401287726E-17, 3.984999999999998987 ) ) ;
#167 = ORIENTED_EDGE ( 'NONE', *, *, #157, .T. ) ;
#168 = EDGE_CURVE ( 'NONE', #102, #137, #99, .T. ) ;
#169 = PRESENTATION_STYLE_ASSIGNMENT (( #51 ) ) ;
#170 = EDGE_LOOP ( 'NONE', ( #72, #165, #73, #9, #298 ) ) ;
#171 = AXIS2_PLACEMENT_3D ( 'NONE', #14, #62, #21 ) ;
#172 = ADVANCED_FACE ( 'NONE', ( #205 ), #22, .T. ) ;
#173 = VERTEX_POINT ( 'NONE', #166 ) ;
#174 = LENGTH_MEASURE_WITH_UNIT ( LENGTH_MEASURE( 0.02539999999999999897 ), #10 );
#175 = VECTOR ( 'NONE', #184, 39.37007874015748143 ) ;
#176 = DIRECTION ( 'NONE',  ( 0.09334070869305856333, 0.0000000000000000000, 0.9956342260592879745 ) ) ;
#177 = CARTESIAN_POINT ( 'NONE',  ( 0.1499999999999999389, 1.836970198721029133E-17, 0.3000000000000000999 ) ) ;
#178 = ADVANCED_FACE ( 'NONE', ( #268 ), #322, .T. ) ;
#179 = EDGE_CURVE ( 'NONE', #47, #214, #324, .T. ) ;
#180 = AXIS2_PLACEMENT_3D ( 'NONE', #40, #228, #183 ) ;
#181 = CARTESIAN_POINT ( 'NONE',  ( 0.0000000000000000000, 0.0000000000000000000, 4.000000000000000000 ) ) ;
#182 = AXIS2_PLACEMENT_3D ( 'NONE', #253, #334, #86 ) ;
#183 = DIRECTION ( 'NONE',  ( -1.000000000000000000, 0.0000000000000000000, 0.0000000000000000000 ) ) ;
#184 = DIRECTION ( 'NONE',  ( -0.0000000000000000000, -0.0000000000000000000, -1.000000000000000000 ) ) ;
#185 = DIRECTION ( 'NONE',  ( 0.0000000000000000000, 0.0000000000000000000, 1.000000000000000000 ) ) ;
#186 = VECTOR ( 'NONE', #112, 39.37007874015748854 ) ;
#187 = DIRECTION ( 'NONE',  ( -1.000000000000000000, 0.0000000000000000000, 0.0000000000000000000 ) ) ;
#188 = DIRECTION ( 'NONE',  ( -1.000000000000000000, 0.0000000000000000000, 0.0000000000000000000 ) ) ;
#189 = LINE ( 'NONE', #55, #186 ) ;
#190 = ORIENTED_EDGE ( 'NONE', *, *, #57, .T. ) ;
#191 = EDGE_LOOP ( 'NONE', ( #243, #202, #323, #158 ) ) ;
#192 = CARTESIAN_POINT ( 'NONE',  ( 0.0000000000000000000, 0.0000000000000000000, 4.000000000000000000 ) ) ;
#193 = SURFACE_STYLE_FILL_AREA ( #155 ) ;
#194 = VERTEX_POINT ( 'NONE', #217 ) ;
#195 = SURFACE_STYLE_USAGE ( .BOTH. , #82 ) ;
#196 = VERTEX_POINT ( 'NONE', #345 ) ;
#197 = ADVANCED_FACE ( 'NONE', ( #107 ), #80, .T. ) ;
#198 = DIRECTION ( 'NONE',  ( -1.224646799147353207E-16, 1.000000000000000000, 0.0000000000000000000 ) ) ;
#199 = EDGE_CURVE ( 'NONE', #275, #5, #44, .T. ) ;
#200 = EDGE_CURVE ( 'NONE', #214, #102, #94, .T. ) ;
#201 = CYLINDRICAL_SURFACE ( 'NONE', #17, 0.1875000000000000278 ) ;
#202 = ORIENTED_EDGE ( 'NONE', *, *, #97, .T. ) ;
#203 =( NAMED_UNIT ( * ) SI_UNIT ( $, .STERADIAN. ) SOLID_ANGLE_UNIT ( ) );
#204 = CONICAL_SURFACE ( 'NONE', #289, 0.1724999999999998757, 0.7853981633974266297 ) ;
#205 = FACE_OUTER_BOUND ( 'NONE', #250, .T. ) ;
#206 = STYLED_ITEM ( 'NONE', ( #141 ), #277 ) ;
#207 = DIRECTION ( 'NONE',  ( 0.0000000000000000000, 0.0000000000000000000, -1.000000000000000000 ) ) ;
#208 = CYLINDRICAL_SURFACE ( 'NONE', #54, 0.1499999999999999112 ) ;
#209 = CARTESIAN_POINT ( 'NONE',  ( 0.0000000000000000000, 0.0000000000000000000, 1.399999999999997469 ) ) ;
#210 = CIRCLE ( 'NONE', #245, 0.1875000000000000278 ) ;
#211 = EDGE_CURVE ( 'NONE', #5, #214, #339, .T. ) ;
#212 =( LENGTH_UNIT ( ) NAMED_UNIT ( * ) SI_UNIT ( $, .METRE. ) );
#213 = CARTESIAN_POINT ( 'NONE',  ( 0.0000000000000000000, 0.0000000000000000000, 1.399999999999997469 ) ) ;
#214 = VERTEX_POINT ( 'NONE', #270 ) ;
#215 = DIRECTION ( 'NONE',  ( -1.000000000000000000, 0.0000000000000000000, 0.0000000000000000000 ) ) ;
#216 = ORIENTED_EDGE ( 'NONE', *, *, #302, .T. ) ;
#217 = CARTESIAN_POINT ( 'NONE',  ( 0.1875000000000000278, 0.0000000000000000000, 1.200000000000000178 ) ) ;
#218 = ORIENTED_EDGE ( 'NONE', *, *, #200, .F. ) ;
#219 = DIRECTION ( 'NONE',  ( -1.000000000000000000, 0.0000000000000000000, 0.0000000000000000000 ) ) ;
#220 = ORIENTED_EDGE ( 'NONE', *, *, #68, .T. ) ;
#221 = FILL_AREA_STYLE_COLOUR ( '', #34 ) ;
#222 = ORIENTED_EDGE ( 'NONE', *, *, #317, .F. ) ;
#223 = ADVANCED_FACE ( 'NONE', ( #26 ), #18, .T. ) ;
#224 = LENGTH_MEASURE_WITH_UNIT ( LENGTH_MEASURE( 0.02539999999999999897 ), #115 );
#225 = DIRECTION ( 'NONE',  ( 1.000000000000000000, 0.0000000000000000000, -0.0000000000000000000 ) ) ;
#226 = CONICAL_SURFACE ( 'NONE', #295, 0.2062499999999998224, 0.09347678115858976122 ) ;
#227 =( GEOMETRIC_REPRESENTATION_CONTEXT ( 3 ) GLOBAL_UNCERTAINTY_ASSIGNED_CONTEXT ( ( #37 ) ) GLOBAL_UNIT_ASSIGNED_CONTEXT ( ( #32, #152, #203 ) ) REPRESENTATION_CONTEXT ( 'NONE', 'WORKASPACE' ) );
#228 = DIRECTION ( 'NONE',  ( -0.0000000000000000000, -0.0000000000000000000, -1.000000000000000000 ) ) ;
#229 = DIRECTION ( 'NONE',  ( 1.000000000000000000, 0.0000000000000000000, 0.0000000000000000000 ) ) ;
#230 = CARTESIAN_POINT ( 'NONE',  ( 0.1724999999999998757, 2.204364238465235514E-17, 4.000000000000000000 ) ) ;
#231 = AXIS2_PLACEMENT_3D ( 'NONE', #128, #103, #219 ) ;
#232 = CARTESIAN_POINT ( 'NONE',  ( 0.0000000000000000000, 0.1499999999999999112, 0.3000000000000000999 ) ) ;
#233 = PRODUCT_CONTEXT ( 'NONE', #77, 'mechanical' ) ;
#234 = CARTESIAN_POINT ( 'NONE',  ( 0.0000000000000000000, 1.148106374200643401E-17, 3.414809992080329023E-17 ) ) ;
#235 = MANIFOLD_SOLID_BREP ( 'Cut-Revolve3', #31 ) ;
#236 = CARTESIAN_POINT ( 'NONE',  ( 0.1875000000000000278, 2.296212748401287726E-17, 4.000000000000000000 ) ) ;
#237 = DIRECTION ( 'NONE',  ( 1.000000000000000000, 0.0000000000000000000, 0.0000000000000000000 ) ) ;
#238 = ORIENTED_EDGE ( 'NONE', *, *, #240, .T. ) ;
#239 =( NAMED_UNIT ( * ) SI_UNIT ( $, .STERADIAN. ) SOLID_ANGLE_UNIT ( ) );
#240 = EDGE_CURVE ( 'NONE', #135, #173, #242, .T. ) ;
#241 = ORIENTED_EDGE ( 'NONE', *, *, #92, .F. ) ;
#242 = LINE ( 'NONE', #293, #273 ) ;
#243 = ORIENTED_EDGE ( 'NONE', *, *, #50, .F. ) ;
#244 = CIRCLE ( 'NONE', #29, 0.1499999999999998834 ) ;
#245 = AXIS2_PLACEMENT_3D ( 'NONE', #101, #320, #71 ) ;
#246 = ORIENTED_EDGE ( 'NONE', *, *, #264, .T. ) ;
#247 = LENGTH_MEASURE_WITH_UNIT ( LENGTH_MEASURE( 0.02539999999999999897 ), #212 );
#248 = ORIENTED_EDGE ( 'NONE', *, *, #92, .T. ) ;
#249 = APPLICATION_PROTOCOL_DEFINITION ( 'draft international standard', 'automotive_design', 1998, #77 ) ;
#250 = EDGE_LOOP ( 'NONE', ( #24, #138, #131, #218, #30 ) ) ;
#251 = AXIS2_PLACEMENT_3D ( 'NONE', #192, #296, #299 ) ;
#252 = LINE ( 'NONE', #12, #125 ) ;
#253 = CARTESIAN_POINT ( 'NONE',  ( 0.0000000000000000000, 0.0000000000000000000, 0.8000000000000000444 ) ) ;
#254 = VECTOR ( 'NONE', #117, 39.37007874015748143 ) ;
#255 = PRODUCT_DEFINITION_CONTEXT ( 'detailed design', #301, 'design' ) ;
#256 = COLOUR_RGB ( '',0.7921568627450980005, 0.8196078431372548767, 0.9333333333333333481 ) ;
#257 = DIRECTION ( 'NONE',  ( 1.000000000000000000, 0.0000000000000000000, 0.0000000000000000000 ) ) ;
#258 = DIRECTION ( 'NONE',  ( -1.000000000000000000, 0.0000000000000000000, 0.0000000000000000000 ) ) ;
#259 = EDGE_CURVE ( 'NONE', #266, #173, #210, .T. ) ;
#260 = DIRECTION ( 'NONE',  ( 1.000000000000000000, 0.0000000000000000000, 0.0000000000000000000 ) ) ;
#261 = CIRCLE ( 'NONE', #151, 0.1875000000000000278 ) ;
#262 = FACE_OUTER_BOUND ( 'NONE', #191, .T. ) ;
#263 = CONICAL_SURFACE ( 'NONE', #291, 0.1724999999999998757, 0.7853981633974266297 ) ;
#264 = EDGE_CURVE ( 'NONE', #52, #266, #189, .T. ) ;
#265 = DIRECTION ( 'NONE',  ( 0.0000000000000000000, 1.000000000000000000, 0.0000000000000000000 ) ) ;
#266 = VERTEX_POINT ( 'NONE', #279 ) ;
#267 = AXIS2_PLACEMENT_3D ( 'NONE', #126, #272, #3 ) ;
#268 = FACE_OUTER_BOUND ( 'NONE', #271, .T. ) ;
#269 = ORIENTED_EDGE ( 'NONE', *, *, #85, .T. ) ;
#270 = CARTESIAN_POINT ( 'NONE',  ( -0.1499999999999999389, 0.0000000000000000000, 0.3000000000000000999 ) ) ;
#271 = EDGE_LOOP ( 'NONE', ( #305, #297, #106, #2 ) ) ;
#272 = DIRECTION ( 'NONE',  ( -0.0000000000000000000, -0.0000000000000000000, -1.000000000000000000 ) ) ;
#273 = VECTOR ( 'NONE', #156, 39.37007874015748854 ) ;
#274 = PLANE ( 'NONE',  #100 ) ;
#275 = VERTEX_POINT ( 'NONE', #177 ) ;
#276 = DIRECTION ( 'NONE',  ( 1.000000000000000000, 1.224646799147353207E-16, -0.0000000000000000000 ) ) ;
#277 = ADVANCED_BREP_SHAPE_REPRESENTATION ( 'Micro_SBM-375-2X', ( #235, #312 ), #336 ) ;
#278 = CARTESIAN_POINT ( 'NONE',  ( 0.2062499999999998224, 0.0000000000000000000, 1.399999999999997469 ) ) ;
#279 = CARTESIAN_POINT ( 'NONE',  ( -0.1875000000000000278, 0.0000000000000000000, 3.984999999999998987 ) ) ;
#280 = EDGE_CURVE ( 'NONE', #266, #196, #252, .T. ) ;
#281 = DIRECTION ( 'NONE',  ( 1.000000000000000000, 0.0000000000000000000, 0.0000000000000000000 ) ) ;
#282 = CIRCLE ( 'NONE', #180, 0.1499999999999999389 ) ;
#283 = AXIS2_PLACEMENT_3D ( 'NONE', #144, #276, #198 ) ;
#284 = APPLICATION_PROTOCOL_DEFINITION ( 'draft international standard', 'automotive_design', 1998, #301 ) ;
#285 = EDGE_CURVE ( 'NONE', #5, #137, #84, .T. ) ;
#286 = FACE_OUTER_BOUND ( 'NONE', #127, .T. ) ;
#287 = CARTESIAN_POINT ( 'NONE',  ( 0.0000000000000000000, 0.0000000000000000000, 0.0000000000000000000 ) ) ;
#288 = CARTESIAN_POINT ( 'NONE',  ( 0.0000000000000000000, 0.0000000000000000000, 1.200000000000000178 ) ) ;
#289 = AXIS2_PLACEMENT_3D ( 'NONE', #153, #310, #146 ) ;
#290 = FACE_OUTER_BOUND ( 'NONE', #148, .T. ) ;
#291 = AXIS2_PLACEMENT_3D ( 'NONE', #11, #145, #304 ) ;
#292 = CARTESIAN_POINT ( 'NONE',  ( 0.0000000000000000000, 0.0000000000000000000, 4.000000000000000000 ) ) ;
#293 = CARTESIAN_POINT ( 'NONE',  ( 0.1724999999999998757, 2.112515728529182686E-17, 4.000000000000000000 ) ) ;
#294 = ORIENTED_EDGE ( 'NONE', *, *, #285, .T. ) ;
#295 = AXIS2_PLACEMENT_3D ( 'NONE', #209, #316, #39 ) ;
#296 = DIRECTION ( 'NONE',  ( -0.0000000000000000000, -0.0000000000000000000, -1.000000000000000000 ) ) ;
#297 = ORIENTED_EDGE ( 'NONE', *, *, #211, .T. ) ;
#298 = ORIENTED_EDGE ( 'NONE', *, *, #199, .F. ) ;
#299 = DIRECTION ( 'NONE',  ( -1.000000000000000000, 0.0000000000000000000, 0.0000000000000000000 ) ) ;
#300 = ORIENTED_EDGE ( 'NONE', *, *, #199, .T. ) ;
#301 = APPLICATION_CONTEXT ( 'automotive_design' ) ;
#302 = EDGE_CURVE ( 'NONE', #28, #194, #87, .T. ) ;
#303 = PRESENTATION_LAYER_ASSIGNMENT (  '', '', ( #206 ) ) ;
#304 = DIRECTION ( 'NONE',  ( -1.000000000000000000, 0.0000000000000000000, 0.0000000000000000000 ) ) ;
#305 = ORIENTED_EDGE ( 'NONE', *, *, #285, .F. ) ;
#306 = DIRECTION ( 'NONE',  ( 0.0000000000000000000, 0.0000000000000000000, 1.000000000000000000 ) ) ;
#307 = DIRECTION ( 'NONE',  ( 0.0000000000000000000, 0.0000000000000000000, 1.000000000000000000 ) ) ;
#308 = UNCERTAINTY_MEASURE_WITH_UNIT (LENGTH_MEASURE( 1.000000000000000082E-05 ), #43, 'distance_accuracy_value', 'NONE');
#309 = ADVANCED_FACE ( 'NONE', ( #139 ), #263, .T. ) ;
#310 = DIRECTION ( 'NONE',  ( 0.0000000000000000000, 0.0000000000000000000, -1.000000000000000000 ) ) ;
#311 = AXIS2_PLACEMENT_3D ( 'NONE', #292, #185, #260 ) ;
#312 = AXIS2_PLACEMENT_3D ( 'NONE', #121, #61, #229 ) ;
#313 = DIMENSIONAL_EXPONENTS ( 1.000000000000000000, 0.0000000000000000000, 0.0000000000000000000, 0.0000000000000000000, 0.0000000000000000000, 0.0000000000000000000, 0.0000000000000000000 ) ;
#314 = CARTESIAN_POINT ( 'NONE',  ( 0.0000000000000000000, 0.0000000000000000000, 0.8000000000000000444 ) ) ;
#315 = CARTESIAN_POINT ( 'NONE',  ( 0.0000000000000000000, 0.0000000000000000000, 0.1875000000000000278 ) ) ;
#316 = DIRECTION ( 'NONE',  ( 0.0000000000000000000, 0.0000000000000000000, 1.000000000000000000 ) ) ;
#317 = EDGE_CURVE ( 'NONE', #52, #135, #318, .T. ) ;
#318 = CIRCLE ( 'NONE', #69, 0.1724999999999998757 ) ;
#319 = LINE ( 'NONE', #118, #88 ) ;
#320 = DIRECTION ( 'NONE',  ( 0.0000000000000000000, 0.0000000000000000000, -1.000000000000000000 ) ) ;
#321 = ORIENTED_EDGE ( 'NONE', *, *, #280, .F. ) ;
#322 = SPHERICAL_SURFACE ( 'NONE', #110, 0.1874999999999999722 ) ;
#323 = ORIENTED_EDGE ( 'NONE', *, *, #143, .F. ) ;
#324 = LINE ( 'NONE', #105, #159 ) ;
#325 = ADVANCED_FACE ( 'NONE', ( #114 ), #274, .T. ) ;
#326 = SURFACE_SIDE_STYLE ('',( #193 ) ) ;
#327 = ORIENTED_EDGE ( 'NONE', *, *, #168, .F. ) ;
#328 = FILL_AREA_STYLE ('',( #221 ) ) ;
#329 = ORIENTED_EDGE ( 'NONE', *, *, #157, .F. ) ;
#330 = AXIS2_PLACEMENT_3D ( 'NONE', #315, #15, #265 ) ;
#331 = CIRCLE ( 'NONE', #182, 0.1499999999999998834 ) ;
#332 = CARTESIAN_POINT ( 'NONE',  ( 0.0000000000000000000, 0.0000000000000000000, 4.000000000000000000 ) ) ;
#333 =( NAMED_UNIT ( * ) SI_UNIT ( $, .STERADIAN. ) SOLID_ANGLE_UNIT ( ) );
#334 = DIRECTION ( 'NONE',  ( -0.0000000000000000000, -0.0000000000000000000, -1.000000000000000000 ) ) ;
#335 = CIRCLE ( 'NONE', #81, 0.1875000000000000278 ) ;
#336 =( GEOMETRIC_REPRESENTATION_CONTEXT ( 3 ) GLOBAL_UNCERTAINTY_ASSIGNED_CONTEXT ( ( #89 ) ) GLOBAL_UNIT_ASSIGNED_CONTEXT ( ( #60, #90, #333 ) ) REPRESENTATION_CONTEXT ( 'NONE', 'WORKASPACE' ) );
#337 = LINE ( 'NONE', #150, #175 ) ;
#338 = DIRECTION ( 'NONE',  ( 0.0000000000000000000, 0.0000000000000000000, 1.000000000000000000 ) ) ;
#339 = CIRCLE ( 'NONE', #231, 0.1499999999999999389 ) ;
#340 = AXIS2_PLACEMENT_3D ( 'NONE', #213, #134, #27 ) ;
#341 = CARTESIAN_POINT ( 'NONE',  ( 1.836970198721028825E-17, -0.1499999999999999112, 0.3000000000000000999 ) ) ;
#342 = EDGE_CURVE ( 'NONE', #28, #47, #331, .T. ) ;
#343 = CARTESIAN_POINT ( 'NONE',  ( -0.1499999999999998834, 2.066591473561157967E-17, 0.8000000000000000444 ) ) ;
#344 = CARTESIAN_POINT ( 'NONE',  ( 0.0000000000000000000, 0.0000000000000000000, 0.1875000000000000278 ) ) ;
#345 = CARTESIAN_POINT ( 'NONE',  ( -0.1875000000000000278, 2.296212748401287726E-17, 1.200000000000000178 ) ) ;
ENDSEC;
END-ISO-10303-21;
