ISO-10303-21;
HEADER;
FILE_DESCRIPTION (( 'STEP AP214' ),
    '1' );
FILE_NAME ('Micro_AEMM-040-3X.STEP',
    '2022-03-15T14:25:25',
    ( '' ),
    ( '' ),
    'SwSTEP 2.0',
    'SolidWorks 2022',
    '' );
FILE_SCHEMA (( 'AUTOMOTIVE_DESIGN' ));
ENDSEC;

DATA;
#1 = FACE_OUTER_BOUND ( 'NONE', #150, .T. ) ;
#2 = VECTOR ( 'NONE', #71, 39.37007874015748143 ) ;
#3 = FILL_AREA_STYLE ('',( #91 ) ) ;
#4 =( NAMED_UNIT ( * ) PLANE_ANGLE_UNIT ( ) SI_UNIT ( $, .RADIAN. ) );
#5 = CIRCLE ( 'NONE', #19, 0.1031100000000002570 ) ;
#6 = FACE_OUTER_BOUND ( 'NONE', #246, .T. ) ;
#7 = PRODUCT_DEFINITION_SHAPE ( 'NONE', 'NONE',  #37 ) ;
#8 = ADVANCED_FACE ( 'NONE', ( #239 ), #225, .T. ) ;
#9 = DIRECTION ( 'NONE',  ( -1.224646799147353207E-16, -0.000000000000000000, -1.000000000000000000 ) ) ;
#10 = DIRECTION ( 'NONE',  ( -1.000000000000000000, 0.000000000000000000, 1.224646799147352961E-16 ) ) ;
#11 = CIRCLE ( 'NONE', #17, 0.1181100000000000066 ) ;
#12 = FACE_OUTER_BOUND ( 'NONE', #190, .T. ) ;
#13 = ORIENTED_EDGE ( 'NONE', *, *, #110, .T. ) ;
#14 = DIRECTION ( 'NONE',  ( -1.224646799147353207E-16, -0.000000000000000000, -1.000000000000000000 ) ) ;
#15 = VERTEX_POINT ( 'NONE', #212 ) ;
#16 = CARTESIAN_POINT ( 'NONE',  ( 0.000000000000000000, 0.000000000000000000, 2.244094000000000033 ) ) ;
#17 = AXIS2_PLACEMENT_3D ( 'NONE', #289, #221, #103 ) ;
#18 = VERTEX_POINT ( 'NONE', #48 ) ;
#19 = AXIS2_PLACEMENT_3D ( 'NONE', #16, #120, #223 ) ;
#20 = DIRECTION ( 'NONE',  ( -0.000000000000000000, -0.000000000000000000, -1.000000000000000000 ) ) ;
#21 = LINE ( 'NONE', #240, #2 ) ;
#22 = ORIENTED_EDGE ( 'NONE', *, *, #200, .F. ) ;
#23 = AXIS2_PLACEMENT_3D ( 'NONE', #99, #244, #168 ) ;
#24 = EDGE_CURVE ( 'NONE', #254, #18, #25, .T. ) ;
#25 = LINE ( 'NONE', #210, #176 ) ;
#26 = ADVANCED_BREP_SHAPE_REPRESENTATION ( 'Micro_AEMM-040-3X', ( #55, #141 ), #259 ) ;
#27 = CARTESIAN_POINT ( 'NONE',  ( -0.1181100000000000066, 0.000000000000000000, 2.229093999999999465 ) ) ;
#28 = DIRECTION ( 'NONE',  ( 1.000000000000000000, 0.000000000000000000, 0.000000000000000000 ) ) ;
#29 = VECTOR ( 'NONE', #251, 39.37007874015748143 ) ;
#30 = EDGE_CURVE ( 'NONE', #126, #60, #158, .T. ) ;
#31 = DIRECTION ( 'NONE',  ( -0.000000000000000000, -0.000000000000000000, -1.000000000000000000 ) ) ;
#32 = DIRECTION ( 'NONE',  ( 0.000000000000000000, 0.000000000000000000, 1.000000000000000000 ) ) ;
#33 = DIRECTION ( 'NONE',  ( -1.224646799147353207E-16, -0.000000000000000000, -1.000000000000000000 ) ) ;
#34 = ORIENTED_EDGE ( 'NONE', *, *, #135, .F. ) ;
#35 = VECTOR ( 'NONE', #270, 39.37007874015748143 ) ;
#36 = DIRECTION ( 'NONE',  ( 1.000000000000000000, 0.000000000000000000, -0.000000000000000000 ) ) ;
#37 = PRODUCT_DEFINITION ( 'UNKNOWN', '', #131, #130 ) ;
#38 = CARTESIAN_POINT ( 'NONE',  ( 0.000000000000000000, 0.000000000000000000, 2.229093999999999465 ) ) ;
#39 = ORIENTED_EDGE ( 'NONE', *, *, #143, .F. ) ;
#40 = FACE_OUTER_BOUND ( 'NONE', #173, .T. ) ;
#41 = VECTOR ( 'NONE', #73, 39.37007874015748143 ) ;
#42 = ORIENTED_EDGE ( 'NONE', *, *, #132, .T. ) ;
#43 = AXIS2_PLACEMENT_3D ( 'NONE', #189, #111, #207 ) ;
#44 = ADVANCED_FACE ( 'NONE', ( #182 ), #107, .T. ) ;
#45 = AXIS2_PLACEMENT_3D ( 'NONE', #249, #14, #10 ) ;
#46 = ORIENTED_EDGE ( 'NONE', *, *, #154, .F. ) ;
#47 = CIRCLE ( 'NONE', #45, 0.07866125999999999674 ) ;
#48 = CARTESIAN_POINT ( 'NONE',  ( -0.1181099999999999234, 0.000000000000000000, 0.6567959219688248584 ) ) ;
#49 = CARTESIAN_POINT ( 'NONE',  ( 0.1181100000000000066, 1.446430334472939084E-17, 2.244094000000000033 ) ) ;
#50 = CARTESIAN_POINT ( 'NONE',  ( 0.000000000000000000, 0.000000000000000000, 2.244094000000000033 ) ) ;
#51 = DIRECTION ( 'NONE',  ( -1.000000000000000000, 0.000000000000000000, 0.000000000000000000 ) ) ;
#52 = DIRECTION ( 'NONE',  ( 0.000000000000000000, 0.000000000000000000, 1.000000000000000000 ) ) ;
#53 = VERTEX_POINT ( 'NONE', #260 ) ;
#54 = AXIS2_PLACEMENT_3D ( 'NONE', #63, #20, #299 ) ;
#55 = MANIFOLD_SOLID_BREP ( 'Cut-Revolve1', #184 ) ;
#56 = CARTESIAN_POINT ( 'NONE',  ( 0.000000000000000000, 0.000000000000000000, 2.244094000000000033 ) ) ;
#57 = ORIENTED_EDGE ( 'NONE', *, *, #232, .F. ) ;
#58 = SHAPE_DEFINITION_REPRESENTATION ( #7, #26 ) ;
#59 = EDGE_CURVE ( 'NONE', #172, #53, #21, .T. ) ;
#60 = VERTEX_POINT ( 'NONE', #27 ) ;
#61 = CYLINDRICAL_SURFACE ( 'NONE', #233, 0.07866125999999999674 ) ;
#62 =( GEOMETRIC_REPRESENTATION_CONTEXT ( 3 ) GLOBAL_UNCERTAINTY_ASSIGNED_CONTEXT ( ( #229 ) ) GLOBAL_UNIT_ASSIGNED_CONTEXT ( ( #262, #4, #183 ) ) REPRESENTATION_CONTEXT ( 'NONE', 'WORKASPACE' ) );
#63 = CARTESIAN_POINT ( 'NONE',  ( 0.000000000000000000, 0.000000000000000000, 2.244094000000000033 ) ) ;
#64 = EDGE_CURVE ( 'NONE', #15, #196, #208, .T. ) ;
#65 = DIRECTION ( 'NONE',  ( -0.7071067811865358044, 0.000000000000000000, -0.7071067811865590080 ) ) ;
#66 = CYLINDRICAL_SURFACE ( 'NONE', #112, 0.07866125999999999674 ) ;
#67 = CARTESIAN_POINT ( 'NONE',  ( -0.1031100000000002570, 0.000000000000000000, 2.244094000000000033 ) ) ;
#68 = CIRCLE ( 'NONE', #23, 0.07866125999999999674 ) ;
#69 = UNCERTAINTY_MEASURE_WITH_UNIT (LENGTH_MEASURE( 1.000000000000000082E-05 ), #258, 'distance_accuracy_value', 'NONE');
#70 = ADVANCED_FACE ( 'NONE', ( #6 ), #92, .T. ) ;
#71 = DIRECTION ( 'NONE',  ( 0.1736481776669313859, 0.000000000000000000, 0.9848077530122077983 ) ) ;
#72 = FACE_OUTER_BOUND ( 'NONE', #169, .T. ) ;
#73 = DIRECTION ( 'NONE',  ( -0.000000000000000000, -0.000000000000000000, -1.000000000000000000 ) ) ;
#74 = CARTESIAN_POINT ( 'NONE',  ( 0.07866126000000003837, 0.000000000000000000, 0.4330709999999999837 ) ) ;
#75 = DIRECTION ( 'NONE',  ( 0.000000000000000000, 0.000000000000000000, -1.000000000000000000 ) ) ;
#76 = ORIENTED_EDGE ( 'NONE', *, *, #200, .T. ) ;
#77 = DIRECTION ( 'NONE',  ( 1.000000000000000000, 0.000000000000000000, -0.000000000000000000 ) ) ;
#78 = ORIENTED_EDGE ( 'NONE', *, *, #64, .T. ) ;
#79 = CARTESIAN_POINT ( 'NONE',  ( 0.000000000000000000, 0.000000000000000000, 0.000000000000000000 ) ) ;
#80 = ORIENTED_EDGE ( 'NONE', *, *, #188, .T. ) ;
#81 = LENGTH_MEASURE_WITH_UNIT ( LENGTH_MEASURE( 0.02539999999999999897 ), #197 );
#82 = ORIENTED_EDGE ( 'NONE', *, *, #59, .F. ) ;
#83 = SURFACE_STYLE_USAGE ( .BOTH. , #297 ) ;
#84 = ORIENTED_EDGE ( 'NONE', *, *, #30, .F. ) ;
#85 = CONICAL_SURFACE ( 'NONE', #263, 0.1031100000000002570, 0.7853981633974318477 ) ;
#86 = DIRECTION ( 'NONE',  ( -1.224646799147353207E-16, -0.000000000000000000, -1.000000000000000000 ) ) ;
#87 = APPLICATION_CONTEXT ( 'automotive_design' ) ;
#88 = ORIENTED_EDGE ( 'NONE', *, *, #143, .T. ) ;
#89 = SURFACE_STYLE_FILL_AREA ( #3 ) ;
#90 = DIMENSIONAL_EXPONENTS ( 1.000000000000000000, 0.000000000000000000, 0.000000000000000000, 0.000000000000000000, 0.000000000000000000, 0.000000000000000000, 0.000000000000000000 ) ;
#91 = FILL_AREA_STYLE_COLOUR ( '', #140 ) ;
#92 = CYLINDRICAL_SURFACE ( 'NONE', #43, 0.1181100000000000066 ) ;
#93 = ORIENTED_EDGE ( 'NONE', *, *, #24, .F. ) ;
#94 = LINE ( 'NONE', #243, #41 ) ;
#95 = DIMENSIONAL_EXPONENTS ( 1.000000000000000000, 0.000000000000000000, 0.000000000000000000, 0.000000000000000000, 0.000000000000000000, 0.000000000000000000, 0.000000000000000000 ) ;
#96 = CARTESIAN_POINT ( 'NONE',  ( 8.043430235321561285E-17, 0.000000000000000000, 0.6567959219688248584 ) ) ;
#97 = ADVANCED_FACE ( 'NONE', ( #1 ), #66, .T. ) ;
#98 = AXIS2_PLACEMENT_3D ( 'NONE', #216, #52, #77 ) ;
#99 = CARTESIAN_POINT ( 'NONE',  ( 5.303590139535433909E-17, 0.000000000000000000, 0.4330709999999999837 ) ) ;
#100 = ORIENTED_EDGE ( 'NONE', *, *, #264, .F. ) ;
#101 = DIRECTION ( 'NONE',  ( 1.000000000000000000, 0.000000000000000000, 0.000000000000000000 ) ) ;
#102 = ORIENTED_EDGE ( 'NONE', *, *, #110, .F. ) ;
#103 = DIRECTION ( 'NONE',  ( 1.000000000000000000, 0.000000000000000000, 0.000000000000000000 ) ) ;
#104 = ORIENTED_EDGE ( 'NONE', *, *, #59, .T. ) ;
#105 = ORIENTED_EDGE ( 'NONE', *, *, #177, .F. ) ;
#106 = PRODUCT_CONTEXT ( 'NONE', #87, 'mechanical' ) ;
#107 = CONICAL_SURFACE ( 'NONE', #148, 0.07866125999999999674, 0.1745329251994338915 ) ;
#108 = CIRCLE ( 'NONE', #238, 0.1181100000000000066 ) ;
#109 =( NAMED_UNIT ( * ) PLANE_ANGLE_UNIT ( ) SI_UNIT ( $, .RADIAN. ) );
#110 = EDGE_CURVE ( 'NONE', #126, #122, #162, .T. ) ;
#111 = DIRECTION ( 'NONE',  ( -0.000000000000000000, -0.000000000000000000, -1.000000000000000000 ) ) ;
#112 = AXIS2_PLACEMENT_3D ( 'NONE', #181, #159, #283 ) ;
#113 = CARTESIAN_POINT ( 'NONE',  ( 5.303590139535433909E-17, 0.000000000000000000, 0.4330709999999999837 ) ) ;
#114 = LENGTH_MEASURE_WITH_UNIT ( LENGTH_MEASURE( 0.02539999999999999897 ), #115 );
#115 =( LENGTH_UNIT ( ) NAMED_UNIT ( * ) SI_UNIT ( $, .METRE. ) );
#116 = ADVANCED_FACE ( 'NONE', ( #287 ), #213, .T. ) ;
#117 = STYLED_ITEM ( 'NONE', ( #280 ), #26 ) ;
#118 = DIRECTION ( 'NONE',  ( 0.000000000000000000, 0.000000000000000000, 1.000000000000000000 ) ) ;
#119 = CARTESIAN_POINT ( 'NONE',  ( 0.1031100000000002570, 1.354581824536888722E-17, 2.244094000000000033 ) ) ;
#120 = DIRECTION ( 'NONE',  ( 0.000000000000000000, 0.000000000000000000, 1.000000000000000000 ) ) ;
#121 = VECTOR ( 'NONE', #31, 39.37007874015748143 ) ;
#122 = VERTEX_POINT ( 'NONE', #119 ) ;
#123 = CARTESIAN_POINT ( 'NONE',  ( 0.000000000000000000, 0.000000000000000000, 0.000000000000000000 ) ) ;
#124 = ORIENTED_EDGE ( 'NONE', *, *, #257, .T. ) ;
#125 = FACE_OUTER_BOUND ( 'NONE', #163, .T. ) ;
#126 = VERTEX_POINT ( 'NONE', #195 ) ;
#127 =( LENGTH_UNIT ( ) NAMED_UNIT ( * ) SI_UNIT ( $, .METRE. ) );
#128 = SURFACE_STYLE_FILL_AREA ( #231 ) ;
#129 = ORIENTED_EDGE ( 'NONE', *, *, #188, .F. ) ;
#130 = PRODUCT_DEFINITION_CONTEXT ( 'detailed design', #185, 'design' ) ;
#131 = PRODUCT_DEFINITION_FORMATION_WITH_SPECIFIED_SOURCE ( 'ANY', '', #245, .NOT_KNOWN. ) ;
#132 = EDGE_CURVE ( 'NONE', #172, #15, #149, .T. ) ;
#133 = DIRECTION ( 'NONE',  ( 1.224646799147353207E-16, 0.000000000000000000, 1.000000000000000000 ) ) ;
#134 = SURFACE_SIDE_STYLE ('',( #89 ) ) ;
#135 = EDGE_CURVE ( 'NONE', #60, #18, #94, .T. ) ;
#136 = ORIENTED_EDGE ( 'NONE', *, *, #132, .F. ) ;
#137 = DIRECTION ( 'NONE',  ( 1.000000000000000000, 0.000000000000000000, 0.000000000000000000 ) ) ;
#138 = DIMENSIONAL_EXPONENTS ( 1.000000000000000000, 0.000000000000000000, 0.000000000000000000, 0.000000000000000000, 0.000000000000000000, 0.000000000000000000, 0.000000000000000000 ) ;
#139 = SURFACE_STYLE_USAGE ( .BOTH. , #134 ) ;
#140 = COLOUR_RGB ( '',0.7921568627450980005, 0.8196078431372548767, 0.9333333333333333481 ) ;
#141 = AXIS2_PLACEMENT_3D ( 'NONE', #253, #180, #234 ) ;
#142 = CARTESIAN_POINT ( 'NONE',  ( 0.07866125999999999674, 9.633226027589770864E-18, -9.633226027589770864E-18 ) ) ;
#143 = EDGE_CURVE ( 'NONE', #60, #241, #153, .T. ) ;
#144 = PLANE ( 'NONE',  #268 ) ;
#145 = DIRECTION ( 'NONE',  ( 0.000000000000000000, 0.000000000000000000, -1.000000000000000000 ) ) ;
#146 = ORIENTED_EDGE ( 'NONE', *, *, #209, .T. ) ;
#147 = CARTESIAN_POINT ( 'NONE',  ( 0.1031100000000002570, 1.262733314600838667E-17, 2.244094000000000033 ) ) ;
#148 = AXIS2_PLACEMENT_3D ( 'NONE', #113, #214, #137 ) ;
#149 = LINE ( 'NONE', #142, #29 ) ;
#150 = EDGE_LOOP ( 'NONE', ( #136, #220, #152, #256 ) ) ;
#151 = CYLINDRICAL_SURFACE ( 'NONE', #54, 0.1181100000000000066 ) ;
#152 = ORIENTED_EDGE ( 'NONE', *, *, #177, .T. ) ;
#153 = CIRCLE ( 'NONE', #178, 0.1181100000000000066 ) ;
#154 = EDGE_CURVE ( 'NONE', #254, #172, #68, .T. ) ;
#155 =( NAMED_UNIT ( * ) PLANE_ANGLE_UNIT ( ) SI_UNIT ( $, .RADIAN. ) );
#156 =( CONVERSION_BASED_UNIT ( 'INCH', #81 ) LENGTH_UNIT ( ) NAMED_UNIT ( #138 ) );
#157 = PRESENTATION_LAYER_ASSIGNMENT (  '', '', ( #117 ) ) ;
#158 = LINE ( 'NONE', #67, #237 ) ;
#159 = DIRECTION ( 'NONE',  ( -1.224646799147353207E-16, -0.000000000000000000, -1.000000000000000000 ) ) ;
#160 = ADVANCED_FACE ( 'NONE', ( #125 ), #144, .F. ) ;
#161 = CARTESIAN_POINT ( 'NONE',  ( 5.303590139535433909E-17, 0.000000000000000000, 0.4330709999999999837 ) ) ;
#162 = CIRCLE ( 'NONE', #186, 0.1031100000000002570 ) ;
#163 = EDGE_LOOP ( 'NONE', ( #227, #78 ) ) ;
#164 = CARTESIAN_POINT ( 'NONE',  ( 1.179729942015078748E-33, 0.000000000000000000, 9.633226027589770864E-18 ) ) ;
#165 = CARTESIAN_POINT ( 'NONE',  ( -0.07866125999999994123, 1.204876468615957931E-17, 0.4330709999999999837 ) ) ;
#166 = CARTESIAN_POINT ( 'NONE',  ( -0.07866125999999999674, 0.000000000000000000, 9.633226027589770864E-18 ) ) ;
#167 = DIRECTION ( 'NONE',  ( -1.224646799147353207E-16, -0.000000000000000000, -1.000000000000000000 ) ) ;
#168 = DIRECTION ( 'NONE',  ( -1.000000000000000000, 0.000000000000000000, 0.000000000000000000 ) ) ;
#169 = EDGE_LOOP ( 'NONE', ( #13, #76 ) ) ;
#170 = CARTESIAN_POINT ( 'NONE',  ( 0.1181100000000000066, 1.446430334472939084E-17, 2.229093999999999465 ) ) ;
#171 = COLOUR_RGB ( '',0.7921568627450980005, 0.8196078431372548767, 0.9333333333333333481 ) ;
#172 = VERTEX_POINT ( 'NONE', #74 ) ;
#173 = EDGE_LOOP ( 'NONE', ( #291, #42, #201, #105 ) ) ;
#174 =( NAMED_UNIT ( * ) SI_UNIT ( $, .STERADIAN. ) SOLID_ANGLE_UNIT ( ) );
#175 = FACE_OUTER_BOUND ( 'NONE', #272, .T. ) ;
#176 = VECTOR ( 'NONE', #187, 39.37007874015747433 ) ;
#177 = EDGE_CURVE ( 'NONE', #254, #196, #267, .T. ) ;
#178 = AXIS2_PLACEMENT_3D ( 'NONE', #38, #145, #101 ) ;
#179 = DIRECTION ( 'NONE',  ( -1.000000000000000000, 0.000000000000000000, 1.224646799147352961E-16 ) ) ;
#180 = DIRECTION ( 'NONE',  ( 0.000000000000000000, 0.000000000000000000, 1.000000000000000000 ) ) ;
#181 = CARTESIAN_POINT ( 'NONE',  ( 0.000000000000000000, 0.000000000000000000, 0.000000000000000000 ) ) ;
#182 = FACE_OUTER_BOUND ( 'NONE', #276, .T. ) ;
#183 =( NAMED_UNIT ( * ) SI_UNIT ( $, .STERADIAN. ) SOLID_ANGLE_UNIT ( ) );
#184 = CLOSED_SHELL ( 'NONE', ( #285, #44, #252, #70, #279, #191, #116, #8, #97, #160 ) ) ;
#185 = APPLICATION_CONTEXT ( 'automotive_design' ) ;
#186 = AXIS2_PLACEMENT_3D ( 'NONE', #236, #118, #219 ) ;
#187 = DIRECTION ( 'NONE',  ( -0.1736481776669311916, 2.126576849575783316E-17, 0.9848077530122080203 ) ) ;
#188 = EDGE_CURVE ( 'NONE', #18, #53, #108, .T. ) ;
#189 = CARTESIAN_POINT ( 'NONE',  ( 0.000000000000000000, 0.000000000000000000, 2.244094000000000033 ) ) ;
#190 = EDGE_LOOP ( 'NONE', ( #22, #202, #39, #84 ) ) ;
#191 = ADVANCED_FACE ( 'NONE', ( #72 ), #292, .T. ) ;
#192 = DIRECTION ( 'NONE',  ( 0.7071067811865358044, 8.659560562354788645E-17, -0.7071067811865590080 ) ) ;
#193 = DIRECTION ( 'NONE',  ( 1.000000000000000000, 0.000000000000000000, 0.000000000000000000 ) ) ;
#194 = CARTESIAN_POINT ( 'NONE',  ( 8.043430235321561285E-17, 0.000000000000000000, 0.6567959219688248584 ) ) ;
#195 = CARTESIAN_POINT ( 'NONE',  ( -0.1031100000000002570, 0.000000000000000000, 2.244094000000000033 ) ) ;
#196 = VERTEX_POINT ( 'NONE', #269 ) ;
#197 =( LENGTH_UNIT ( ) NAMED_UNIT ( * ) SI_UNIT ( $, .METRE. ) );
#198 = MECHANICAL_DESIGN_GEOMETRIC_PRESENTATION_REPRESENTATION (  '', ( #117 ), #282 ) ;
#199 = ORIENTED_EDGE ( 'NONE', *, *, #205, .F. ) ;
#200 = EDGE_CURVE ( 'NONE', #122, #126, #5, .T. ) ;
#201 = ORIENTED_EDGE ( 'NONE', *, *, #211, .F. ) ;
#202 = ORIENTED_EDGE ( 'NONE', *, *, #205, .T. ) ;
#203 = APPLICATION_PROTOCOL_DEFINITION ( 'draft international standard', 'automotive_design', 1998, #185 ) ;
#204 = AXIS2_PLACEMENT_3D ( 'NONE', #215, #9, #228 ) ;
#205 = EDGE_CURVE ( 'NONE', #122, #241, #274, .T. ) ;
#206 = PRODUCT_RELATED_PRODUCT_CATEGORY ( 'part', '', ( #245 ) ) ;
#207 = DIRECTION ( 'NONE',  ( -1.000000000000000000, 0.000000000000000000, 0.000000000000000000 ) ) ;
#208 = CIRCLE ( 'NONE', #278, 0.07866125999999999674 ) ;
#209 = EDGE_CURVE ( 'NONE', #241, #60, #11, .T. ) ;
#210 = CARTESIAN_POINT ( 'NONE',  ( -0.07866125999999994123, 9.633226027589770864E-18, 0.4330709999999999837 ) ) ;
#211 = EDGE_CURVE ( 'NONE', #196, #15, #47, .T. ) ;
#212 = CARTESIAN_POINT ( 'NONE',  ( 0.07866125999999999674, 9.633226027589770864E-18, 0.000000000000000000 ) ) ;
#213 = CONICAL_SURFACE ( 'NONE', #288, 0.1031100000000002570, 0.7853981633974318477 ) ;
#214 = DIRECTION ( 'NONE',  ( 1.224646799147353207E-16, 0.000000000000000000, 1.000000000000000000 ) ) ;
#215 = CARTESIAN_POINT ( 'NONE',  ( 5.303590139535433909E-17, 0.000000000000000000, 0.4330709999999999837 ) ) ;
#216 = CARTESIAN_POINT ( 'NONE',  ( 0.000000000000000000, 0.000000000000000000, 2.244094000000000033 ) ) ;
#217 = CIRCLE ( 'NONE', #273, 0.1181100000000000066 ) ;
#218 = VECTOR ( 'NONE', #192, 39.37007874015748854 ) ;
#219 = DIRECTION ( 'NONE',  ( 1.000000000000000000, 0.000000000000000000, 0.000000000000000000 ) ) ;
#220 = ORIENTED_EDGE ( 'NONE', *, *, #264, .T. ) ;
#221 = DIRECTION ( 'NONE',  ( 0.000000000000000000, 0.000000000000000000, -1.000000000000000000 ) ) ;
#222 = ORIENTED_EDGE ( 'NONE', *, *, #257, .F. ) ;
#223 = DIRECTION ( 'NONE',  ( 1.000000000000000000, 0.000000000000000000, 0.000000000000000000 ) ) ;
#224 = LENGTH_MEASURE_WITH_UNIT ( LENGTH_MEASURE( 0.02539999999999999897 ), #127 );
#225 = CONICAL_SURFACE ( 'NONE', #247, 0.07866125999999999674, 0.1745329251994338915 ) ;
#226 = CIRCLE ( 'NONE', #204, 0.07866125999999999674 ) ;
#227 = ORIENTED_EDGE ( 'NONE', *, *, #211, .T. ) ;
#228 = DIRECTION ( 'NONE',  ( -1.000000000000000000, 0.000000000000000000, 0.000000000000000000 ) ) ;
#229 = UNCERTAINTY_MEASURE_WITH_UNIT (LENGTH_MEASURE( 1.000000000000000082E-05 ), #262, 'distance_accuracy_value', 'NONE');
#230 =( NAMED_UNIT ( * ) SI_UNIT ( $, .STERADIAN. ) SOLID_ANGLE_UNIT ( ) );
#231 = FILL_AREA_STYLE ('',( #277 ) ) ;
#232 = EDGE_CURVE ( 'NONE', #53, #18, #217, .T. ) ;
#233 = AXIS2_PLACEMENT_3D ( 'NONE', #79, #86, #179 ) ;
#234 = DIRECTION ( 'NONE',  ( 1.000000000000000000, 0.000000000000000000, 0.000000000000000000 ) ) ;
#235 = PRESENTATION_STYLE_ASSIGNMENT (( #139 ) ) ;
#236 = CARTESIAN_POINT ( 'NONE',  ( 0.000000000000000000, 0.000000000000000000, 2.244094000000000033 ) ) ;
#237 = VECTOR ( 'NONE', #65, 39.37007874015748854 ) ;
#238 = AXIS2_PLACEMENT_3D ( 'NONE', #194, #33, #271 ) ;
#239 = FACE_OUTER_BOUND ( 'NONE', #250, .T. ) ;
#240 = CARTESIAN_POINT ( 'NONE',  ( 0.07866126000000003837, 0.000000000000000000, 0.4330709999999999837 ) ) ;
#241 = VERTEX_POINT ( 'NONE', #170 ) ;
#242 = DIRECTION ( 'NONE',  ( -1.000000000000000000, 0.000000000000000000, 0.000000000000000000 ) ) ;
#243 = CARTESIAN_POINT ( 'NONE',  ( -0.1181100000000000066, 0.000000000000000000, 2.244094000000000033 ) ) ;
#244 = DIRECTION ( 'NONE',  ( -1.224646799147353207E-16, -0.000000000000000000, -1.000000000000000000 ) ) ;
#245 = PRODUCT ( 'Micro_AEMM-040-3X', 'Micro_AEMM-040-3X', '', ( #106 ) ) ;
#246 = EDGE_LOOP ( 'NONE', ( #88, #124, #129, #34 ) ) ;
#247 = AXIS2_PLACEMENT_3D ( 'NONE', #161, #133, #28 ) ;
#248 = PRESENTATION_LAYER_ASSIGNMENT (  '', '', ( #284 ) ) ;
#249 = CARTESIAN_POINT ( 'NONE',  ( 1.179729942015078748E-33, 0.000000000000000000, 9.633226027589770864E-18 ) ) ;
#250 = EDGE_LOOP ( 'NONE', ( #93, #100, #104, #296 ) ) ;
#251 = DIRECTION ( 'NONE',  ( -1.224646799147353207E-16, -0.000000000000000000, -1.000000000000000000 ) ) ;
#252 = ADVANCED_FACE ( 'NONE', ( #12 ), #85, .T. ) ;
#253 = CARTESIAN_POINT ( 'NONE',  ( 0.000000000000000000, 0.000000000000000000, 0.000000000000000000 ) ) ;
#254 = VERTEX_POINT ( 'NONE', #165 ) ;
#255 = UNCERTAINTY_MEASURE_WITH_UNIT (LENGTH_MEASURE( 1.000000000000000082E-05 ), #156, 'distance_accuracy_value', 'NONE');
#256 = ORIENTED_EDGE ( 'NONE', *, *, #64, .F. ) ;
#257 = EDGE_CURVE ( 'NONE', #241, #53, #290, .T. ) ;
#258 =( CONVERSION_BASED_UNIT ( 'INCH', #224 ) LENGTH_UNIT ( ) NAMED_UNIT ( #90 ) );
#259 =( GEOMETRIC_REPRESENTATION_CONTEXT ( 3 ) GLOBAL_UNCERTAINTY_ASSIGNED_CONTEXT ( ( #69 ) ) GLOBAL_UNIT_ASSIGNED_CONTEXT ( ( #258, #155, #230 ) ) REPRESENTATION_CONTEXT ( 'NONE', 'WORKASPACE' ) );
#260 = CARTESIAN_POINT ( 'NONE',  ( 0.1181100000000000899, 1.446430334472940009E-17, 0.6567959219688248584 ) ) ;
#261 = DIRECTION ( 'NONE',  ( -1.000000000000000000, 0.000000000000000000, 1.224646799147352961E-16 ) ) ;
#262 =( CONVERSION_BASED_UNIT ( 'INCH', #114 ) LENGTH_UNIT ( ) NAMED_UNIT ( #95 ) );
#263 = AXIS2_PLACEMENT_3D ( 'NONE', #56, #286, #242 ) ;
#264 = EDGE_CURVE ( 'NONE', #172, #254, #226, .T. ) ;
#265 = EDGE_LOOP ( 'NONE', ( #199, #102, #281, #298 ) ) ;
#266 = DIRECTION ( 'NONE',  ( -1.224646799147353207E-16, -0.000000000000000000, -1.000000000000000000 ) ) ;
#267 = LINE ( 'NONE', #166, #35 ) ;
#268 = AXIS2_PLACEMENT_3D ( 'NONE', #123, #32, #36 ) ;
#269 = CARTESIAN_POINT ( 'NONE',  ( -0.07866125999999999674, 0.000000000000000000, 1.926645205517954173E-17 ) ) ;
#270 = DIRECTION ( 'NONE',  ( -1.224646799147353207E-16, -0.000000000000000000, -1.000000000000000000 ) ) ;
#271 = DIRECTION ( 'NONE',  ( 1.000000000000000000, 0.000000000000000000, 0.000000000000000000 ) ) ;
#272 = EDGE_LOOP ( 'NONE', ( #222, #146, #293, #57 ) ) ;
#273 = AXIS2_PLACEMENT_3D ( 'NONE', #96, #167, #193 ) ;
#274 = LINE ( 'NONE', #147, #218 ) ;
#275 = APPLICATION_PROTOCOL_DEFINITION ( 'draft international standard', 'automotive_design', 1998, #87 ) ;
#276 = EDGE_LOOP ( 'NONE', ( #46, #295, #80, #82 ) ) ;
#277 = FILL_AREA_STYLE_COLOUR ( '', #171 ) ;
#278 = AXIS2_PLACEMENT_3D ( 'NONE', #164, #266, #261 ) ;
#279 = ADVANCED_FACE ( 'NONE', ( #175 ), #151, .T. ) ;
#280 = PRESENTATION_STYLE_ASSIGNMENT (( #83 ) ) ;
#281 = ORIENTED_EDGE ( 'NONE', *, *, #30, .T. ) ;
#282 =( GEOMETRIC_REPRESENTATION_CONTEXT ( 3 ) GLOBAL_UNCERTAINTY_ASSIGNED_CONTEXT ( ( #255 ) ) GLOBAL_UNIT_ASSIGNED_CONTEXT ( ( #156, #109, #174 ) ) REPRESENTATION_CONTEXT ( 'NONE', 'WORKASPACE' ) );
#283 = DIRECTION ( 'NONE',  ( -1.000000000000000000, 0.000000000000000000, 1.224646799147352961E-16 ) ) ;
#284 = STYLED_ITEM ( 'NONE', ( #235 ), #55 ) ;
#285 = ADVANCED_FACE ( 'NONE', ( #40 ), #61, .T. ) ;
#286 = DIRECTION ( 'NONE',  ( 0.000000000000000000, 0.000000000000000000, -1.000000000000000000 ) ) ;
#287 = FACE_OUTER_BOUND ( 'NONE', #265, .T. ) ;
#288 = AXIS2_PLACEMENT_3D ( 'NONE', #50, #75, #51 ) ;
#289 = CARTESIAN_POINT ( 'NONE',  ( 0.000000000000000000, 0.000000000000000000, 2.229093999999999465 ) ) ;
#290 = LINE ( 'NONE', #49, #121 ) ;
#291 = ORIENTED_EDGE ( 'NONE', *, *, #154, .T. ) ;
#292 = PLANE ( 'NONE',  #98 ) ;
#293 = ORIENTED_EDGE ( 'NONE', *, *, #135, .T. ) ;
#294 = MECHANICAL_DESIGN_GEOMETRIC_PRESENTATION_REPRESENTATION (  '', ( #284 ), #62 ) ;
#295 = ORIENTED_EDGE ( 'NONE', *, *, #24, .T. ) ;
#296 = ORIENTED_EDGE ( 'NONE', *, *, #232, .T. ) ;
#297 = SURFACE_SIDE_STYLE ('',( #128 ) ) ;
#298 = ORIENTED_EDGE ( 'NONE', *, *, #209, .F. ) ;
#299 = DIRECTION ( 'NONE',  ( -1.000000000000000000, 0.000000000000000000, 0.000000000000000000 ) ) ;
ENDSEC;
END-ISO-10303-21;
