ISO-10303-21;
HEADER;
FILE_DESCRIPTION (( 'STEP AP214' ),
    '1' );
FILE_NAME ('82525.STEP',
    '2023-06-23T06:08:42',
    ( '' ),
    ( '' ),
    'SwSTEP 2.0',
    'SolidWorks 2023',
    '' );
FILE_SCHEMA (( 'AUTOMOTIVE_DESIGN' ));
ENDSEC;

DATA;
#1 = DIRECTION ( 'NONE',  ( -3.014515197901178074E-16, -1.000000000000000000, 0.000000000000000000 ) ) ;
#2 =( NAMED_UNIT ( * ) SI_UNIT ( $, .STERADIAN. ) SOLID_ANGLE_UNIT ( ) );
#3 = PRESENTATION_LAYER_ASSIGNMENT (  '', '', ( #264 ) ) ;
#4 = DIMENSIONAL_EXPONENTS ( 1.000000000000000000, 0.000000000000000000, 0.000000000000000000, 0.000000000000000000, 0.000000000000000000, 0.000000000000000000, 0.000000000000000000 ) ;
#5 = SURFACE_SIDE_STYLE ('',( #124 ) ) ;
#6 = DIMENSIONAL_EXPONENTS ( 1.000000000000000000, 0.000000000000000000, 0.000000000000000000, 0.000000000000000000, 0.000000000000000000, 0.000000000000000000, 0.000000000000000000 ) ;
#7 = ORIENTED_EDGE ( 'NONE', *, *, #239, .F. ) ;
#8 = FACE_OUTER_BOUND ( 'NONE', #134, .T. ) ;
#9 = VERTEX_POINT ( 'NONE', #110 ) ;
#10 = FACE_OUTER_BOUND ( 'NONE', #78, .T. ) ;
#11 = VECTOR ( 'NONE', #22, 39.37007874015748143 ) ;
#12 = FACE_OUTER_BOUND ( 'NONE', #34, .T. ) ;
#13 = LINE ( 'NONE', #81, #11 ) ;
#14 =( GEOMETRIC_REPRESENTATION_CONTEXT ( 3 ) GLOBAL_UNCERTAINTY_ASSIGNED_CONTEXT ( ( #170 ) ) GLOBAL_UNIT_ASSIGNED_CONTEXT ( ( #82, #229, #2 ) ) REPRESENTATION_CONTEXT ( 'NONE', 'WORKASPACE' ) );
#15 = CARTESIAN_POINT ( 'NONE',  ( 4.898587196589413815E-16, 2.000000000000000000, 0.000000000000000000 ) ) ;
#16 = ORIENTED_EDGE ( 'NONE', *, *, #218, .T. ) ;
#17 = DIRECTION ( 'NONE',  ( 1.000000000000000000, -3.014515197901178074E-16, 0.000000000000000000 ) ) ;
#18 = CYLINDRICAL_SURFACE ( 'NONE', #139, 0.06250000000000001388 ) ;
#19 = PLANE ( 'NONE',  #77 ) ;
#20 =( LENGTH_UNIT ( ) NAMED_UNIT ( * ) SI_UNIT ( $, .METRE. ) );
#21 = FACE_OUTER_BOUND ( 'NONE', #158, .T. ) ;
#22 = DIRECTION ( 'NONE',  ( 3.014515197901178074E-16, 1.000000000000000000, -0.000000000000000000 ) ) ;
#23 = DIRECTION ( 'NONE',  ( -1.000000000000000000, 0.000000000000000000, 0.000000000000000000 ) ) ;
#24 = CIRCLE ( 'NONE', #116, 0.06249999999999949346 ) ;
#25 = AXIS2_PLACEMENT_3D ( 'NONE', #308, #144, #257 ) ;
#26 = DIRECTION ( 'NONE',  ( -1.000000000000000000, 0.000000000000000000, 0.000000000000000000 ) ) ;
#27 = ORIENTED_EDGE ( 'NONE', *, *, #239, .T. ) ;
#28 = DIRECTION ( 'NONE',  ( 3.014515197901178074E-16, 1.000000000000000000, -0.000000000000000000 ) ) ;
#29 = FILL_AREA_STYLE_COLOUR ( '', #135 ) ;
#30 = PRODUCT_DEFINITION ( 'UNKNOWN', '', #295, #117 ) ;
#31 = CIRCLE ( 'NONE', #69, 0.06250000000000001388 ) ;
#32 = APPLICATION_CONTEXT ( 'automotive_design' ) ;
#33 = CARTESIAN_POINT ( 'NONE',  ( 4.898587196589413815E-16, 2.000000000000000000, 0.000000000000000000 ) ) ;
#34 = EDGE_LOOP ( 'NONE', ( #123, #300, #27, #266 ) ) ;
#35 =( NAMED_UNIT ( * ) SI_UNIT ( $, .STERADIAN. ) SOLID_ANGLE_UNIT ( ) );
#36 = PRESENTATION_LAYER_ASSIGNMENT (  '', '', ( #214 ) ) ;
#37 = VERTEX_POINT ( 'NONE', #206 ) ;
#38 = ORIENTED_EDGE ( 'NONE', *, *, #127, .T. ) ;
#39 = VECTOR ( 'NONE', #271, 39.37007874015748143 ) ;
#40 =( GEOMETRIC_REPRESENTATION_CONTEXT ( 3 ) GLOBAL_UNCERTAINTY_ASSIGNED_CONTEXT ( ( #41 ) ) GLOBAL_UNIT_ASSIGNED_CONTEXT ( ( #294, #151, #54 ) ) REPRESENTATION_CONTEXT ( 'NONE', 'WORKASPACE' ) );
#41 = UNCERTAINTY_MEASURE_WITH_UNIT (LENGTH_MEASURE( 1.000000000000000082E-05 ), #294, 'distance_accuracy_value', 'NONE');
#42 = PRESENTATION_STYLE_ASSIGNMENT (( #262 ) ) ;
#43 = CARTESIAN_POINT ( 'NONE',  ( 6.065921084684207584E-32, 0.3750000000000002220, 0.000000000000000000 ) ) ;
#44 = DIRECTION ( 'NONE',  ( 1.000000000000000000, 0.000000000000000000, 0.000000000000000000 ) ) ;
#45 = MECHANICAL_DESIGN_GEOMETRIC_PRESENTATION_REPRESENTATION (  '', ( #194 ), #14 ) ;
#46 = FILL_AREA_STYLE_COLOUR ( '', #278 ) ;
#47 = DIRECTION ( 'NONE',  ( -0.000000000000000000, -1.000000000000000000, -0.000000000000000000 ) ) ;
#48 = AXIS2_PLACEMENT_3D ( 'NONE', #238, #47, #190 ) ;
#49 =( CONVERSION_BASED_UNIT ( 'INCH', #76 ) LENGTH_UNIT ( ) NAMED_UNIT ( #172 ) );
#50 = ADVANCED_FACE ( 'NONE', ( #130 ), #205, .T. ) ;
#51 = SURFACE_SIDE_STYLE ('',( #173 ) ) ;
#52 = CARTESIAN_POINT ( 'NONE',  ( 0.000000000000000000, 0.3750000000000002220, 0.000000000000000000 ) ) ;
#53 = STYLED_ITEM ( 'NONE', ( #79 ), #177 ) ;
#54 =( NAMED_UNIT ( * ) SI_UNIT ( $, .STERADIAN. ) SOLID_ANGLE_UNIT ( ) );
#55 = PLANE ( 'NONE',  #148 ) ;
#56 = PRESENTATION_STYLE_ASSIGNMENT (( #225 ) ) ;
#57 = ORIENTED_EDGE ( 'NONE', *, *, #108, .T. ) ;
#58 = ORIENTED_EDGE ( 'NONE', *, *, #141, .F. ) ;
#59 = PRODUCT ( '82525', '82525', '', ( #261 ) ) ;
#60 =( CONVERSION_BASED_UNIT ( 'INCH', #162 ) LENGTH_UNIT ( ) NAMED_UNIT ( #4 ) );
#61 =( NAMED_UNIT ( * ) PLANE_ANGLE_UNIT ( ) SI_UNIT ( $, .RADIAN. ) );
#62 =( GEOMETRIC_REPRESENTATION_CONTEXT ( 3 ) GLOBAL_UNCERTAINTY_ASSIGNED_CONTEXT ( ( #107 ) ) GLOBAL_UNIT_ASSIGNED_CONTEXT ( ( #60, #61, #35 ) ) REPRESENTATION_CONTEXT ( 'NONE', 'WORKASPACE' ) );
#63 = CIRCLE ( 'NONE', #25, 0.06250000000000001388 ) ;
#64 = STYLED_ITEM ( 'NONE', ( #252 ), #176 ) ;
#65 = LINE ( 'NONE', #165, #93 ) ;
#66 = UNCERTAINTY_MEASURE_WITH_UNIT (LENGTH_MEASURE( 1.000000000000000082E-05 ), #204, 'distance_accuracy_value', 'NONE');
#67 = DIRECTION ( 'NONE',  ( -1.000000000000000000, 0.000000000000000000, 0.000000000000000000 ) ) ;
#68 = APPLICATION_PROTOCOL_DEFINITION ( 'draft international standard', 'automotive_design', 1998, #147 ) ;
#69 = AXIS2_PLACEMENT_3D ( 'NONE', #52, #243, #175 ) ;
#70 = PRESENTATION_STYLE_ASSIGNMENT (( #246 ) ) ;
#71 = EDGE_CURVE ( 'NONE', #292, #245, #101, .T. ) ;
#72 = FACE_OUTER_BOUND ( 'NONE', #102, .T. ) ;
#73 =( LENGTH_UNIT ( ) NAMED_UNIT ( * ) SI_UNIT ( $, .METRE. ) );
#74 = EDGE_LOOP ( 'NONE', ( #150, #155, #129, #111 ) ) ;
#75 = EDGE_CURVE ( 'NONE', #9, #157, #163, .T. ) ;
#76 = LENGTH_MEASURE_WITH_UNIT ( LENGTH_MEASURE( 0.02539999999999999897 ), #73 );
#77 = AXIS2_PLACEMENT_3D ( 'NONE', #267, #100, #152 ) ;
#78 = EDGE_LOOP ( 'NONE', ( #272, #171 ) ) ;
#79 = PRESENTATION_STYLE_ASSIGNMENT (( #248 ) ) ;
#80 = CARTESIAN_POINT ( 'NONE',  ( 0.000000000000000000, 0.000000000000000000, -0.06250000000000001388 ) ) ;
#81 = CARTESIAN_POINT ( 'NONE',  ( -0.06249999999999927142, 2.000000000000000000, 0.000000000000000000 ) ) ;
#82 =( CONVERSION_BASED_UNIT ( 'INCH', #301 ) LENGTH_UNIT ( ) NAMED_UNIT ( #195 ) );
#83 = AXIS2_PLACEMENT_3D ( 'NONE', #43, #188, #67 ) ;
#84 = EDGE_CURVE ( 'NONE', #106, #303, #63, .T. ) ;
#85 = ORIENTED_EDGE ( 'NONE', *, *, #207, .F. ) ;
#86 = CARTESIAN_POINT ( 'NONE',  ( 0.000000000000000000, 0.3750000000000002220, 0.000000000000000000 ) ) ;
#87 = CARTESIAN_POINT ( 'NONE',  ( 0.06250000000000024980, 2.000000000000000000, 7.654042494670928271E-18 ) ) ;
#88 = COLOUR_RGB ( '',1.000000000000000000, 0.000000000000000000, 0.000000000000000000 ) ;
#89 = CARTESIAN_POINT ( 'NONE',  ( 0.000000000000000000, 0.000000000000000000, 0.000000000000000000 ) ) ;
#90 = DIRECTION ( 'NONE',  ( 0.000000000000000000, 0.000000000000000000, -1.000000000000000000 ) ) ;
#91 = SHAPE_DEFINITION_REPRESENTATION ( #224, #201 ) ;
#92 = CARTESIAN_POINT ( 'NONE',  ( 4.898587196589413815E-16, 2.000000000000000000, 0.000000000000000000 ) ) ;
#93 = VECTOR ( 'NONE', #258, 39.37007874015748143 ) ;
#94 = CARTESIAN_POINT ( 'NONE',  ( -0.06250000000000001388, 0.3750000000000002220, 0.000000000000000000 ) ) ;
#95 = AXIS2_PLACEMENT_3D ( 'NONE', #256, #1, #17 ) ;
#96 =( NAMED_UNIT ( * ) PLANE_ANGLE_UNIT ( ) SI_UNIT ( $, .RADIAN. ) );
#97 = SURFACE_STYLE_USAGE ( .BOTH. , #5 ) ;
#98 = PRODUCT_RELATED_PRODUCT_CATEGORY ( 'part', '', ( #59 ) ) ;
#99 = UNCERTAINTY_MEASURE_WITH_UNIT (LENGTH_MEASURE( 1.000000000000000082E-05 ), #49, 'distance_accuracy_value', 'NONE');
#100 = DIRECTION ( 'NONE',  ( 0.000000000000000000, -1.000000000000000000, -0.000000000000000000 ) ) ;
#101 = CIRCLE ( 'NONE', #83, 0.06250000000000001388 ) ;
#102 = EDGE_LOOP ( 'NONE', ( #113, #57, #125, #7 ) ) ;
#103 = PRESENTATION_LAYER_ASSIGNMENT (  '', '', ( #64 ) ) ;
#104 = CARTESIAN_POINT ( 'NONE',  ( 2.839781836992869480E-33, 0.3750000000000002220, 0.000000000000000000 ) ) ;
#105 = MECHANICAL_DESIGN_GEOMETRIC_PRESENTATION_REPRESENTATION (  '', ( #214 ), #285 ) ;
#106 = VERTEX_POINT ( 'NONE', #121 ) ;
#107 = UNCERTAINTY_MEASURE_WITH_UNIT (LENGTH_MEASURE( 1.000000000000000082E-05 ), #60, 'distance_accuracy_value', 'NONE');
#108 = EDGE_CURVE ( 'NONE', #245, #9, #212, .T. ) ;
#109 = DIRECTION ( 'NONE',  ( -0.000000000000000000, -1.000000000000000000, -0.000000000000000000 ) ) ;
#110 = CARTESIAN_POINT ( 'NONE',  ( 0.06249999999999997918, 2.000000000000000000, 7.654042494670942137E-18 ) ) ;
#111 = ORIENTED_EDGE ( 'NONE', *, *, #199, .F. ) ;
#112 = DIRECTION ( 'NONE',  ( -1.000000000000000000, 0.000000000000000000, 0.000000000000000000 ) ) ;
#113 = ORIENTED_EDGE ( 'NONE', *, *, #71, .T. ) ;
#114 = ADVANCED_FACE ( 'NONE', ( #215 ), #18, .T. ) ;
#115 = FACE_OUTER_BOUND ( 'NONE', #181, .T. ) ;
#116 = AXIS2_PLACEMENT_3D ( 'NONE', #15, #270, #112 ) ;
#117 = PRODUCT_DEFINITION_CONTEXT ( 'detailed design', #147, 'design' ) ;
#118 = SURFACE_STYLE_FILL_AREA ( #137 ) ;
#119 = SURFACE_SIDE_STYLE ('',( #236 ) ) ;
#120 = PLANE ( 'NONE',  #95 ) ;
#121 = CARTESIAN_POINT ( 'NONE',  ( 0.000000000000000000, 0.000000000000000000, -0.06250000000000001388 ) ) ;
#122 = AXIS2_PLACEMENT_3D ( 'NONE', #89, #284, #44 ) ;
#123 = ORIENTED_EDGE ( 'NONE', *, *, #108, .F. ) ;
#124 = SURFACE_STYLE_FILL_AREA ( #192 ) ;
#125 = ORIENTED_EDGE ( 'NONE', *, *, #183, .F. ) ;
#126 = DIRECTION ( 'NONE',  ( 3.014515197901178074E-16, 1.000000000000000000, -0.000000000000000000 ) ) ;
#127 = EDGE_CURVE ( 'NONE', #193, #303, #65, .T. ) ;
#128 = FILL_AREA_STYLE ('',( #298 ) ) ;
#129 = ORIENTED_EDGE ( 'NONE', *, *, #207, .T. ) ;
#130 = FACE_OUTER_BOUND ( 'NONE', #231, .T. ) ;
#131 =( LENGTH_UNIT ( ) NAMED_UNIT ( * ) SI_UNIT ( $, .METRE. ) );
#132 = DIRECTION ( 'NONE',  ( 0.000000000000000000, 0.000000000000000000, -1.000000000000000000 ) ) ;
#133 = AXIS2_PLACEMENT_3D ( 'NONE', #291, #28, #26 ) ;
#134 = EDGE_LOOP ( 'NONE', ( #247, #58 ) ) ;
#135 = COLOUR_RGB ( '',1.000000000000000000, 0.000000000000000000, 0.000000000000000000 ) ;
#136 = ADVANCED_FACE ( 'NONE', ( #21 ), #19, .T. ) ;
#137 = FILL_AREA_STYLE ('',( #187 ) ) ;
#138 =( NAMED_UNIT ( * ) PLANE_ANGLE_UNIT ( ) SI_UNIT ( $, .RADIAN. ) );
#139 = AXIS2_PLACEMENT_3D ( 'NONE', #164, #208, #90 ) ;
#140 = CARTESIAN_POINT ( 'NONE',  ( 0.06250000000000001388, 0.3750000000000002220, 7.654042494670943678E-18 ) ) ;
#141 = EDGE_CURVE ( 'NONE', #193, #37, #31, .T. ) ;
#142 = FILL_AREA_STYLE ('',( #46 ) ) ;
#143 = DIRECTION ( 'NONE',  ( 3.014515197901178074E-16, 1.000000000000000000, -0.000000000000000000 ) ) ;
#144 = DIRECTION ( 'NONE',  ( -0.000000000000000000, -1.000000000000000000, -0.000000000000000000 ) ) ;
#145 =( GEOMETRIC_REPRESENTATION_CONTEXT ( 3 ) GLOBAL_UNCERTAINTY_ASSIGNED_CONTEXT ( ( #66 ) ) GLOBAL_UNIT_ASSIGNED_CONTEXT ( ( #204, #161, #203 ) ) REPRESENTATION_CONTEXT ( 'NONE', 'WORKASPACE' ) );
#146 = ADVANCED_FACE ( 'NONE', ( #72 ), #153, .T. ) ;
#147 = APPLICATION_CONTEXT ( 'automotive_design' ) ;
#148 = AXIS2_PLACEMENT_3D ( 'NONE', #104, #222, #200 ) ;
#149 = LENGTH_MEASURE_WITH_UNIT ( LENGTH_MEASURE( 0.02539999999999999897 ), #197 );
#150 = ORIENTED_EDGE ( 'NONE', *, *, #127, .F. ) ;
#151 =( NAMED_UNIT ( * ) PLANE_ANGLE_UNIT ( ) SI_UNIT ( $, .RADIAN. ) );
#152 = DIRECTION ( 'NONE',  ( 0.000000000000000000, 0.000000000000000000, -1.000000000000000000 ) ) ;
#153 = CYLINDRICAL_SURFACE ( 'NONE', #244, 0.06249999999999975714 ) ;
#154 = STYLED_ITEM ( 'NONE', ( #309 ), #136 ) ;
#155 = ORIENTED_EDGE ( 'NONE', *, *, #141, .T. ) ;
#156 = CARTESIAN_POINT ( 'NONE',  ( -0.06249999999999900774, 2.000000000000000000, 0.000000000000000000 ) ) ;
#157 = VERTEX_POINT ( 'NONE', #156 ) ;
#158 = EDGE_LOOP ( 'NONE', ( #269, #296 ) ) ;
#159 = CARTESIAN_POINT ( 'NONE',  ( 4.898587196589413815E-16, 2.000000000000000000, 0.000000000000000000 ) ) ;
#160 = ORIENTED_EDGE ( 'NONE', *, *, #84, .F. ) ;
#161 =( NAMED_UNIT ( * ) PLANE_ANGLE_UNIT ( ) SI_UNIT ( $, .RADIAN. ) );
#162 = LENGTH_MEASURE_WITH_UNIT ( LENGTH_MEASURE( 0.02539999999999999897 ), #131 );
#163 = CIRCLE ( 'NONE', #273, 0.06249999999999949346 ) ;
#164 = CARTESIAN_POINT ( 'NONE',  ( 0.000000000000000000, 0.000000000000000000, 0.000000000000000000 ) ) ;
#165 = CARTESIAN_POINT ( 'NONE',  ( 7.654042494670959086E-18, 0.000000000000000000, 0.06250000000000001388 ) ) ;
#166 =( GEOMETRIC_REPRESENTATION_CONTEXT ( 3 ) GLOBAL_UNCERTAINTY_ASSIGNED_CONTEXT ( ( #99 ) ) GLOBAL_UNIT_ASSIGNED_CONTEXT ( ( #49, #96, #196 ) ) REPRESENTATION_CONTEXT ( 'NONE', 'WORKASPACE' ) );
#167 =( NAMED_UNIT ( * ) SI_UNIT ( $, .STERADIAN. ) SOLID_ANGLE_UNIT ( ) );
#168 = ADVANCED_FACE ( 'NONE', ( #8 ), #217, .T. ) ;
#169 = DIRECTION ( 'NONE',  ( 0.000000000000000000, 1.000000000000000000, 0.000000000000000000 ) ) ;
#170 = UNCERTAINTY_MEASURE_WITH_UNIT (LENGTH_MEASURE( 1.000000000000000082E-05 ), #82, 'distance_accuracy_value', 'NONE');
#171 = ORIENTED_EDGE ( 'NONE', *, *, #174, .F. ) ;
#172 = DIMENSIONAL_EXPONENTS ( 1.000000000000000000, 0.000000000000000000, 0.000000000000000000, 0.000000000000000000, 0.000000000000000000, 0.000000000000000000, 0.000000000000000000 ) ;
#173 = SURFACE_STYLE_FILL_AREA ( #265 ) ;
#174 = EDGE_CURVE ( 'NONE', #245, #292, #242, .T. ) ;
#175 = DIRECTION ( 'NONE',  ( 0.000000000000000000, 0.000000000000000000, -1.000000000000000000 ) ) ;
#176 = MANIFOLD_SOLID_BREP ( 'Revolve - Tool Body (Straight Shanked)', #302 ) ;
#177 = MANIFOLD_SOLID_BREP ( 'Revolve - Cutting Edge', #306 ) ;
#178 = CYLINDRICAL_SURFACE ( 'NONE', #186, 0.06249999999999975714 ) ;
#179 = DIRECTION ( 'NONE',  ( -1.000000000000000000, 0.000000000000000000, 0.000000000000000000 ) ) ;
#180 = PRESENTATION_LAYER_ASSIGNMENT (  '', '', ( #154 ) ) ;
#181 = EDGE_LOOP ( 'NONE', ( #250, #293 ) ) ;
#182 = SURFACE_STYLE_FILL_AREA ( #128 ) ;
#183 = EDGE_CURVE ( 'NONE', #157, #9, #24, .T. ) ;
#184 = LENGTH_MEASURE_WITH_UNIT ( LENGTH_MEASURE( 0.02539999999999999897 ), #228 );
#185 = UNCERTAINTY_MEASURE_WITH_UNIT (LENGTH_MEASURE( 1.000000000000000082E-05 ), #286, 'distance_accuracy_value', 'NONE');
#186 = AXIS2_PLACEMENT_3D ( 'NONE', #159, #251, #179 ) ;
#187 = FILL_AREA_STYLE_COLOUR ( '', #88 ) ;
#188 = DIRECTION ( 'NONE',  ( 3.014515197901178074E-16, 1.000000000000000000, -0.000000000000000000 ) ) ;
#189 = APPLICATION_PROTOCOL_DEFINITION ( 'draft international standard', 'automotive_design', 1998, #32 ) ;
#190 = DIRECTION ( 'NONE',  ( 0.000000000000000000, 0.000000000000000000, -1.000000000000000000 ) ) ;
#191 = LENGTH_MEASURE_WITH_UNIT ( LENGTH_MEASURE( 0.02539999999999999897 ), #233 );
#192 = FILL_AREA_STYLE ('',( #216 ) ) ;
#193 = VERTEX_POINT ( 'NONE', #254 ) ;
#194 = STYLED_ITEM ( 'NONE', ( #56 ), #50 ) ;
#195 = DIMENSIONAL_EXPONENTS ( 1.000000000000000000, 0.000000000000000000, 0.000000000000000000, 0.000000000000000000, 0.000000000000000000, 0.000000000000000000, 0.000000000000000000 ) ;
#196 =( NAMED_UNIT ( * ) SI_UNIT ( $, .STERADIAN. ) SOLID_ANGLE_UNIT ( ) );
#197 =( LENGTH_UNIT ( ) NAMED_UNIT ( * ) SI_UNIT ( $, .METRE. ) );
#198 = PRESENTATION_LAYER_ASSIGNMENT (  '', '', ( #53 ) ) ;
#199 = EDGE_CURVE ( 'NONE', #303, #106, #213, .T. ) ;
#200 = DIRECTION ( 'NONE',  ( -1.000000000000000000, 3.014515197901178074E-16, 0.000000000000000000 ) ) ;
#201 = ADVANCED_BREP_SHAPE_REPRESENTATION ( '82525', ( #177, #176, #122 ), #253 ) ;
#202 = SURFACE_SIDE_STYLE ('',( #305 ) ) ;
#203 =( NAMED_UNIT ( * ) SI_UNIT ( $, .STERADIAN. ) SOLID_ANGLE_UNIT ( ) );
#204 =( CONVERSION_BASED_UNIT ( 'INCH', #184 ) LENGTH_UNIT ( ) NAMED_UNIT ( #6 ) );
#205 = CYLINDRICAL_SURFACE ( 'NONE', #48, 0.06250000000000001388 ) ;
#206 = CARTESIAN_POINT ( 'NONE',  ( 0.000000000000000000, 0.3750000000000002220, -0.06250000000000001388 ) ) ;
#207 = EDGE_CURVE ( 'NONE', #37, #106, #230, .T. ) ;
#208 = DIRECTION ( 'NONE',  ( -0.000000000000000000, -1.000000000000000000, -0.000000000000000000 ) ) ;
#209 = SURFACE_SIDE_STYLE ('',( #118 ) ) ;
#210 = LENGTH_MEASURE_WITH_UNIT ( LENGTH_MEASURE( 0.02539999999999999897 ), #20 );
#211 = SURFACE_STYLE_USAGE ( .BOTH. , #119 ) ;
#212 = LINE ( 'NONE', #87, #307 ) ;
#213 = CIRCLE ( 'NONE', #255, 0.06250000000000001388 ) ;
#214 = STYLED_ITEM ( 'NONE', ( #42 ), #114 ) ;
#215 = FACE_OUTER_BOUND ( 'NONE', #74, .T. ) ;
#216 = FILL_AREA_STYLE_COLOUR ( '', #223 ) ;
#217 = PLANE ( 'NONE',  #279 ) ;
#218 = EDGE_CURVE ( 'NONE', #37, #193, #240, .T. ) ;
#219 = DIRECTION ( 'NONE',  ( -1.000000000000000000, 0.000000000000000000, 0.000000000000000000 ) ) ;
#220 = ADVANCED_FACE ( 'NONE', ( #10 ), #55, .F. ) ;
#221 = DIRECTION ( 'NONE',  ( 0.000000000000000000, 0.000000000000000000, -1.000000000000000000 ) ) ;
#222 = DIRECTION ( 'NONE',  ( 3.014515197901178074E-16, 1.000000000000000000, -0.000000000000000000 ) ) ;
#223 = COLOUR_RGB ( '',0.7921568627450980005, 0.8196078431372548767, 0.9333333333333333481 ) ;
#224 = PRODUCT_DEFINITION_SHAPE ( 'NONE', 'NONE',  #30 ) ;
#225 = SURFACE_STYLE_USAGE ( .BOTH. , #202 ) ;
#226 = CARTESIAN_POINT ( 'NONE',  ( 0.000000000000000000, 0.000000000000000000, 0.000000000000000000 ) ) ;
#227 = FILL_AREA_STYLE_COLOUR ( '', #234 ) ;
#228 =( LENGTH_UNIT ( ) NAMED_UNIT ( * ) SI_UNIT ( $, .METRE. ) );
#229 =( NAMED_UNIT ( * ) PLANE_ANGLE_UNIT ( ) SI_UNIT ( $, .RADIAN. ) );
#230 = LINE ( 'NONE', #80, #39 ) ;
#231 = EDGE_LOOP ( 'NONE', ( #16, #38, #160, #85 ) ) ;
#232 = ADVANCED_FACE ( 'NONE', ( #12 ), #178, .T. ) ;
#233 =( LENGTH_UNIT ( ) NAMED_UNIT ( * ) SI_UNIT ( $, .METRE. ) );
#234 = COLOUR_RGB ( '',1.000000000000000000, 0.000000000000000000, 0.000000000000000000 ) ;
#235 =( NAMED_UNIT ( * ) PLANE_ANGLE_UNIT ( ) SI_UNIT ( $, .RADIAN. ) );
#236 = SURFACE_STYLE_FILL_AREA ( #142 ) ;
#237 = CARTESIAN_POINT ( 'NONE',  ( 7.654042494670959086E-18, 0.000000000000000000, 0.06250000000000001388 ) ) ;
#238 = CARTESIAN_POINT ( 'NONE',  ( 0.000000000000000000, 0.000000000000000000, 0.000000000000000000 ) ) ;
#239 = EDGE_CURVE ( 'NONE', #292, #157, #13, .T. ) ;
#240 = CIRCLE ( 'NONE', #277, 0.06250000000000001388 ) ;
#241 = PRESENTATION_LAYER_ASSIGNMENT (  '', '', ( #194 ) ) ;
#242 = CIRCLE ( 'NONE', #133, 0.06250000000000001388 ) ;
#243 = DIRECTION ( 'NONE',  ( -0.000000000000000000, -1.000000000000000000, -0.000000000000000000 ) ) ;
#244 = AXIS2_PLACEMENT_3D ( 'NONE', #33, #126, #219 ) ;
#245 = VERTEX_POINT ( 'NONE', #140 ) ;
#246 = SURFACE_STYLE_USAGE ( .BOTH. , #51 ) ;
#247 = ORIENTED_EDGE ( 'NONE', *, *, #218, .F. ) ;
#248 = SURFACE_STYLE_USAGE ( .BOTH. , #276 ) ;
#249 = MECHANICAL_DESIGN_GEOMETRIC_PRESENTATION_REPRESENTATION (  '', ( #53 ), #62 ) ;
#250 = ORIENTED_EDGE ( 'NONE', *, *, #183, .T. ) ;
#251 = DIRECTION ( 'NONE',  ( 3.014515197901178074E-16, 1.000000000000000000, -0.000000000000000000 ) ) ;
#252 = PRESENTATION_STYLE_ASSIGNMENT (( #97 ) ) ;
#253 =( GEOMETRIC_REPRESENTATION_CONTEXT ( 3 ) GLOBAL_UNCERTAINTY_ASSIGNED_CONTEXT ( ( #185 ) ) GLOBAL_UNIT_ASSIGNED_CONTEXT ( ( #286, #235, #281 ) ) REPRESENTATION_CONTEXT ( 'NONE', 'WORKASPACE' ) );
#254 = CARTESIAN_POINT ( 'NONE',  ( 7.654042494670959086E-18, 0.3750000000000002220, 0.06250000000000001388 ) ) ;
#255 = AXIS2_PLACEMENT_3D ( 'NONE', #226, #109, #132 ) ;
#256 = CARTESIAN_POINT ( 'NONE',  ( 0.06249999999999997918, 2.000000000000000000, 0.000000000000000000 ) ) ;
#257 = DIRECTION ( 'NONE',  ( 0.000000000000000000, 0.000000000000000000, -1.000000000000000000 ) ) ;
#258 = DIRECTION ( 'NONE',  ( -0.000000000000000000, -1.000000000000000000, -0.000000000000000000 ) ) ;
#259 = MECHANICAL_DESIGN_GEOMETRIC_PRESENTATION_REPRESENTATION (  '', ( #154 ), #166 ) ;
#260 = ADVANCED_FACE ( 'NONE', ( #115 ), #120, .F. ) ;
#261 = PRODUCT_CONTEXT ( 'NONE', #32, 'mechanical' ) ;
#262 = SURFACE_STYLE_USAGE ( .BOTH. , #209 ) ;
#263 = DIRECTION ( 'NONE',  ( 0.000000000000000000, -0.000000000000000000, 1.000000000000000000 ) ) ;
#264 = STYLED_ITEM ( 'NONE', ( #70 ), #168 ) ;
#265 = FILL_AREA_STYLE ('',( #29 ) ) ;
#266 = ORIENTED_EDGE ( 'NONE', *, *, #75, .F. ) ;
#267 = CARTESIAN_POINT ( 'NONE',  ( 0.000000000000000000, 0.000000000000000000, 0.000000000000000000 ) ) ;
#268 = MECHANICAL_DESIGN_GEOMETRIC_PRESENTATION_REPRESENTATION (  '', ( #64 ), #145 ) ;
#269 = ORIENTED_EDGE ( 'NONE', *, *, #84, .T. ) ;
#270 = DIRECTION ( 'NONE',  ( 3.014515197901178074E-16, 1.000000000000000000, -0.000000000000000000 ) ) ;
#271 = DIRECTION ( 'NONE',  ( -0.000000000000000000, -1.000000000000000000, -0.000000000000000000 ) ) ;
#272 = ORIENTED_EDGE ( 'NONE', *, *, #71, .F. ) ;
#273 = AXIS2_PLACEMENT_3D ( 'NONE', #92, #143, #23 ) ;
#274 = UNCERTAINTY_MEASURE_WITH_UNIT (LENGTH_MEASURE( 1.000000000000000082E-05 ), #280, 'distance_accuracy_value', 'NONE');
#275 = DIRECTION ( 'NONE',  ( -0.000000000000000000, -1.000000000000000000, -0.000000000000000000 ) ) ;
#276 = SURFACE_SIDE_STYLE ('',( #182 ) ) ;
#277 = AXIS2_PLACEMENT_3D ( 'NONE', #86, #275, #221 ) ;
#278 = COLOUR_RGB ( '',1.000000000000000000, 0.000000000000000000, 0.000000000000000000 ) ;
#279 = AXIS2_PLACEMENT_3D ( 'NONE', #288, #169, #263 ) ;
#280 =( CONVERSION_BASED_UNIT ( 'INCH', #191 ) LENGTH_UNIT ( ) NAMED_UNIT ( #287 ) );
#281 =( NAMED_UNIT ( * ) SI_UNIT ( $, .STERADIAN. ) SOLID_ANGLE_UNIT ( ) );
#282 = DIMENSIONAL_EXPONENTS ( 1.000000000000000000, 0.000000000000000000, 0.000000000000000000, 0.000000000000000000, 0.000000000000000000, 0.000000000000000000, 0.000000000000000000 ) ;
#283 = DIRECTION ( 'NONE',  ( 3.014515197901178074E-16, 1.000000000000000000, -0.000000000000000000 ) ) ;
#284 = DIRECTION ( 'NONE',  ( 0.000000000000000000, 0.000000000000000000, 1.000000000000000000 ) ) ;
#285 =( GEOMETRIC_REPRESENTATION_CONTEXT ( 3 ) GLOBAL_UNCERTAINTY_ASSIGNED_CONTEXT ( ( #274 ) ) GLOBAL_UNIT_ASSIGNED_CONTEXT ( ( #280, #138, #167 ) ) REPRESENTATION_CONTEXT ( 'NONE', 'WORKASPACE' ) );
#286 =( CONVERSION_BASED_UNIT ( 'INCH', #210 ) LENGTH_UNIT ( ) NAMED_UNIT ( #282 ) );
#287 = DIMENSIONAL_EXPONENTS ( 1.000000000000000000, 0.000000000000000000, 0.000000000000000000, 0.000000000000000000, 0.000000000000000000, 0.000000000000000000, 0.000000000000000000 ) ;
#288 = CARTESIAN_POINT ( 'NONE',  ( 0.000000000000000000, 0.3750000000000002220, 0.000000000000000000 ) ) ;
#289 = DIMENSIONAL_EXPONENTS ( 1.000000000000000000, 0.000000000000000000, 0.000000000000000000, 0.000000000000000000, 0.000000000000000000, 0.000000000000000000, 0.000000000000000000 ) ;
#290 = MECHANICAL_DESIGN_GEOMETRIC_PRESENTATION_REPRESENTATION (  '', ( #264 ), #40 ) ;
#291 = CARTESIAN_POINT ( 'NONE',  ( 6.065921084684207584E-32, 0.3750000000000002220, 0.000000000000000000 ) ) ;
#292 = VERTEX_POINT ( 'NONE', #94 ) ;
#293 = ORIENTED_EDGE ( 'NONE', *, *, #75, .T. ) ;
#294 =( CONVERSION_BASED_UNIT ( 'INCH', #149 ) LENGTH_UNIT ( ) NAMED_UNIT ( #289 ) );
#295 = PRODUCT_DEFINITION_FORMATION_WITH_SPECIFIED_SOURCE ( 'ANY', '', #59, .NOT_KNOWN. ) ;
#296 = ORIENTED_EDGE ( 'NONE', *, *, #199, .T. ) ;
#297 = COLOUR_RGB ( '',0.7921568627450980005, 0.8196078431372548767, 0.9333333333333333481 ) ;
#298 = FILL_AREA_STYLE_COLOUR ( '', #297 ) ;
#299 =( LENGTH_UNIT ( ) NAMED_UNIT ( * ) SI_UNIT ( $, .METRE. ) );
#300 = ORIENTED_EDGE ( 'NONE', *, *, #174, .T. ) ;
#301 = LENGTH_MEASURE_WITH_UNIT ( LENGTH_MEASURE( 0.02539999999999999897 ), #299 );
#302 = CLOSED_SHELL ( 'NONE', ( #146, #220, #232, #260 ) ) ;
#303 = VERTEX_POINT ( 'NONE', #237 ) ;
#304 = FILL_AREA_STYLE ('',( #227 ) ) ;
#305 = SURFACE_STYLE_FILL_AREA ( #304 ) ;
#306 = CLOSED_SHELL ( 'NONE', ( #50, #168, #114, #136 ) ) ;
#307 = VECTOR ( 'NONE', #283, 39.37007874015748143 ) ;
#308 = CARTESIAN_POINT ( 'NONE',  ( 0.000000000000000000, 0.000000000000000000, 0.000000000000000000 ) ) ;
#309 = PRESENTATION_STYLE_ASSIGNMENT (( #211 ) ) ;
ENDSEC;
END-ISO-10303-21;
