ISO-10303-21;
HEADER;
FILE_DESCRIPTION (( 'STEP AP214' ),
    '1' );
FILE_NAME ('Micro_SFL-500-812.STEP',
    '2021-09-02T05:05:07',
    ( '' ),
    ( '' ),
    'SwSTEP 2.0',
    'SolidWorks 2020',
    '' );
FILE_SCHEMA (( 'AUTOMOTIVE_DESIGN' ));
ENDSEC;

DATA;
#1 = FACE_OUTER_BOUND ( 'NONE', #213, .T. ) ;
#2 = ORIENTED_EDGE ( 'NONE', *, *, #67, .F. ) ;
#3 = DIRECTION ( 'NONE',  ( -1.000000000000000000, 0.0000000000000000000, 0.0000000000000000000 ) ) ;
#4 = ORIENTED_EDGE ( 'NONE', *, *, #24, .F. ) ;
#5 = EDGE_CURVE ( 'NONE', #32, #171, #150, .T. ) ;
#6 = STYLED_ITEM ( 'NONE', ( #291 ), #109 ) ;
#7 = FACE_OUTER_BOUND ( 'NONE', #165, .T. ) ;
#8 = ORIENTED_EDGE ( 'NONE', *, *, #67, .T. ) ;
#9 = AXIS2_PLACEMENT_3D ( 'NONE', #230, #169, #261 ) ;
#10 = DIRECTION ( 'NONE',  ( 1.000000000000000000, 0.0000000000000000000, -0.0000000000000000000 ) ) ;
#11 = ORIENTED_EDGE ( 'NONE', *, *, #133, .F. ) ;
#12 = LINE ( 'NONE', #260, #202 ) ;
#13 =( LENGTH_UNIT ( ) NAMED_UNIT ( * ) SI_UNIT ( $, .METRE. ) );
#14 = SURFACE_SIDE_STYLE ('',( #152 ) ) ;
#15 = EDGE_CURVE ( 'NONE', #171, #32, #299, .T. ) ;
#16 = CARTESIAN_POINT ( 'NONE',  ( 0.0000000000000000000, 0.0000000000000000000, 0.0000000000000000000 ) ) ;
#17 = DIRECTION ( 'NONE',  ( -1.224646799147353207E-16, -0.0000000000000000000, -1.000000000000000000 ) ) ;
#18 = SHAPE_DEFINITION_REPRESENTATION ( #263, #109 ) ;
#19 = VECTOR ( 'NONE', #186, 39.37007874015748143 ) ;
#20 = FILL_AREA_STYLE ('',( #62 ) ) ;
#21 = AXIS2_PLACEMENT_3D ( 'NONE', #253, #50, #53 ) ;
#22 = PRODUCT ( 'Micro_SFL-500-812', 'Micro_SFL-500-812', '', ( #155 ) ) ;
#23 = APPLICATION_CONTEXT ( 'automotive_design' ) ;
#24 = EDGE_CURVE ( 'NONE', #58, #32, #282, .T. ) ;
#25 = ORIENTED_EDGE ( 'NONE', *, *, #296, .F. ) ;
#26 = FACE_OUTER_BOUND ( 'NONE', #237, .T. ) ;
#27 = ORIENTED_EDGE ( 'NONE', *, *, #161, .T. ) ;
#28 = CYLINDRICAL_SURFACE ( 'NONE', #159, 0.2500000000000000000 ) ;
#29 = ORIENTED_EDGE ( 'NONE', *, *, #5, .T. ) ;
#30 = UNCERTAINTY_MEASURE_WITH_UNIT (LENGTH_MEASURE( 1.000000000000000082E-05 ), #226, 'distance_accuracy_value', 'NONE');
#31 = DIRECTION ( 'NONE',  ( -0.0000000000000000000, -0.0000000000000000000, -1.000000000000000000 ) ) ;
#32 = VERTEX_POINT ( 'NONE', #192 ) ;
#33 = CONICAL_SURFACE ( 'NONE', #154, 0.2350000000000006251, 0.7853981633974369547 ) ;
#34 = CARTESIAN_POINT ( 'NONE',  ( 0.0000000000000000000, 0.0000000000000000000, 4.000000000000000000 ) ) ;
#35 = VERTEX_POINT ( 'NONE', #111 ) ;
#36 = CIRCLE ( 'NONE', #189, 0.2497499999999999998 ) ;
#37 = CARTESIAN_POINT ( 'NONE',  ( 0.2497500000000001941, 0.0000000000000000000, 1.500000000000000222 ) ) ;
#38 = CYLINDRICAL_SURFACE ( 'NONE', #163, 0.2497499999999999998 ) ;
#39 = ADVANCED_FACE ( 'NONE', ( #246 ), #61, .F. ) ;
#40 = DIRECTION ( 'NONE',  ( -1.000000000000000000, 0.0000000000000000000, 0.0000000000000000000 ) ) ;
#41 = EDGE_CURVE ( 'NONE', #218, #297, #244, .T. ) ;
#42 = DIRECTION ( 'NONE',  ( 0.0000000000000000000, 0.0000000000000000000, 1.000000000000000000 ) ) ;
#43 =( LENGTH_UNIT ( ) NAMED_UNIT ( * ) SI_UNIT ( $, .METRE. ) );
#44 = EDGE_CURVE ( 'NONE', #120, #171, #82, .T. ) ;
#45 = APPLICATION_PROTOCOL_DEFINITION ( 'draft international standard', 'automotive_design', 1998, #180 ) ;
#46 = ADVANCED_FACE ( 'NONE', ( #243 ), #38, .T. ) ;
#47 = CONICAL_SURFACE ( 'NONE', #51, 0.2350000000000006251, 0.7853981633974369547 ) ;
#48 = ORIENTED_EDGE ( 'NONE', *, *, #241, .T. ) ;
#49 = DIMENSIONAL_EXPONENTS ( 1.000000000000000000, 0.0000000000000000000, 0.0000000000000000000, 0.0000000000000000000, 0.0000000000000000000, 0.0000000000000000000, 0.0000000000000000000 ) ;
#50 = DIRECTION ( 'NONE',  ( 1.224646799147353207E-16, 0.0000000000000000000, 1.000000000000000000 ) ) ;
#51 = AXIS2_PLACEMENT_3D ( 'NONE', #231, #136, #3 ) ;
#52 = ORIENTED_EDGE ( 'NONE', *, *, #227, .F. ) ;
#53 = DIRECTION ( 'NONE',  ( 1.000000000000000000, 0.0000000000000000000, 0.0000000000000000000 ) ) ;
#54 = DIRECTION ( 'NONE',  ( 1.000000000000000000, 0.0000000000000000000, 0.0000000000000000000 ) ) ;
#55 = DIRECTION ( 'NONE',  ( -1.224646799147353207E-16, -0.0000000000000000000, -1.000000000000000000 ) ) ;
#56 = DIRECTION ( 'NONE',  ( -0.1736481776669311916, 2.126576849575783316E-17, 0.9848077530122080203 ) ) ;
#57 = DIRECTION ( 'NONE',  ( 0.0000000000000000000, 0.0000000000000000000, 1.000000000000000000 ) ) ;
#58 = VERTEX_POINT ( 'NONE', #223 ) ;
#59 = CIRCLE ( 'NONE', #177, 0.2350000000000006251 ) ;
#60 = CARTESIAN_POINT ( 'NONE',  ( 3.745650057197989622E-33, 0.0000000000000000000, 3.058555380870514950E-17 ) ) ;
#61 = PLANE ( 'NONE',  #77 ) ;
#62 = FILL_AREA_STYLE_COLOUR ( '', #194 ) ;
#63 = CARTESIAN_POINT ( 'NONE',  ( 0.2500000000000000000, 3.061616997868383018E-17, 4.000000000000000000 ) ) ;
#64 = LENGTH_MEASURE_WITH_UNIT ( LENGTH_MEASURE( 0.02539999999999999897 ), #43 );
#65 = COLOUR_RGB ( '',0.7921568627450980005, 0.8196078431372548767, 0.9333333333333333481 ) ;
#66 =( NAMED_UNIT ( * ) PLANE_ANGLE_UNIT ( ) SI_UNIT ( $, .RADIAN. ) );
#67 = EDGE_CURVE ( 'NONE', #298, #297, #36, .T. ) ;
#68 = STYLED_ITEM ( 'NONE', ( #284 ), #71 ) ;
#69 = ORIENTED_EDGE ( 'NONE', *, *, #161, .F. ) ;
#70 = ORIENTED_EDGE ( 'NONE', *, *, #296, .T. ) ;
#71 = MANIFOLD_SOLID_BREP ( 'Cut-Revolve1', #132 ) ;
#72 = CARTESIAN_POINT ( 'NONE',  ( 1.836970198721030181E-16, 0.0000000000000000000, 1.500000000000000222 ) ) ;
#73 = VECTOR ( 'NONE', #122, 39.37007874015748143 ) ;
#74 = ORIENTED_EDGE ( 'NONE', *, *, #133, .T. ) ;
#75 = PLANE ( 'NONE',  #185 ) ;
#76 = ORIENTED_EDGE ( 'NONE', *, *, #129, .F. ) ;
#77 = AXIS2_PLACEMENT_3D ( 'NONE', #16, #42, #130 ) ;
#78 = CARTESIAN_POINT ( 'NONE',  ( 0.0000000000000000000, 0.0000000000000000000, 4.000000000000000000 ) ) ;
#79 = ORIENTED_EDGE ( 'NONE', *, *, #129, .T. ) ;
#80 = DIRECTION ( 'NONE',  ( 1.000000000000000000, 0.0000000000000000000, 0.0000000000000000000 ) ) ;
#81 = CARTESIAN_POINT ( 'NONE',  ( 1.836970198721030181E-16, 0.0000000000000000000, 1.500000000000000222 ) ) ;
#82 = LINE ( 'NONE', #63, #157 ) ;
#83 = DIRECTION ( 'NONE',  ( -1.224646799147353207E-16, -0.0000000000000000000, -1.000000000000000000 ) ) ;
#84 = PRESENTATION_LAYER_ASSIGNMENT (  '', '', ( #6 ) ) ;
#85 =( NAMED_UNIT ( * ) SI_UNIT ( $, .STERADIAN. ) SOLID_ANGLE_UNIT ( ) );
#86 = DIRECTION ( 'NONE',  ( 1.000000000000000000, 0.0000000000000000000, 0.0000000000000000000 ) ) ;
#87 = VECTOR ( 'NONE', #266, 39.37007874015748143 ) ;
#88 = ORIENTED_EDGE ( 'NONE', *, *, #24, .T. ) ;
#89 = PRODUCT_DEFINITION_FORMATION_WITH_SPECIFIED_SOURCE ( 'ANY', '', #22, .NOT_KNOWN. ) ;
#90 = ORIENTED_EDGE ( 'NONE', *, *, #289, .T. ) ;
#91 = CARTESIAN_POINT ( 'NONE',  ( 0.0000000000000000000, 0.0000000000000000000, 4.000000000000000000 ) ) ;
#92 = ORIENTED_EDGE ( 'NONE', *, *, #227, .T. ) ;
#93 = DIRECTION ( 'NONE',  ( -1.224646799147353207E-16, -0.0000000000000000000, -1.000000000000000000 ) ) ;
#94 = VERTEX_POINT ( 'NONE', #199 ) ;
#95 = DIRECTION ( 'NONE',  ( -1.000000000000000000, 0.0000000000000000000, 0.0000000000000000000 ) ) ;
#96 = EDGE_LOOP ( 'NONE', ( #79, #190, #2, #69 ) ) ;
#97 = CARTESIAN_POINT ( 'NONE',  ( 0.0000000000000000000, 0.0000000000000000000, 3.985000000000000320 ) ) ;
#98 = EDGE_LOOP ( 'NONE', ( #76, #88, #29, #252 ) ) ;
#99 = LINE ( 'NONE', #172, #73 ) ;
#100 =( CONVERSION_BASED_UNIT ( 'INCH', #176 ) LENGTH_UNIT ( ) NAMED_UNIT ( #206 ) );
#101 = AXIS2_PLACEMENT_3D ( 'NONE', #148, #55, #215 ) ;
#102 = SURFACE_STYLE_USAGE ( .BOTH. , #14 ) ;
#103 = CARTESIAN_POINT ( 'NONE',  ( 0.0000000000000000000, 0.0000000000000000000, 4.000000000000000000 ) ) ;
#104 = DIRECTION ( 'NONE',  ( -1.000000000000000000, 0.0000000000000000000, 1.224646799147353454E-16 ) ) ;
#105 =( NAMED_UNIT ( * ) PLANE_ANGLE_UNIT ( ) SI_UNIT ( $, .RADIAN. ) );
#106 =( NAMED_UNIT ( * ) SI_UNIT ( $, .STERADIAN. ) SOLID_ANGLE_UNIT ( ) );
#107 =( GEOMETRIC_REPRESENTATION_CONTEXT ( 3 ) GLOBAL_UNCERTAINTY_ASSIGNED_CONTEXT ( ( #141 ) ) GLOBAL_UNIT_ASSIGNED_CONTEXT ( ( #100, #156, #106 ) ) REPRESENTATION_CONTEXT ( 'NONE', 'WORKASPACE' ) );
#108 =( GEOMETRIC_REPRESENTATION_CONTEXT ( 3 ) GLOBAL_UNCERTAINTY_ASSIGNED_CONTEXT ( ( #30 ) ) GLOBAL_UNIT_ASSIGNED_CONTEXT ( ( #226, #105, #85 ) ) REPRESENTATION_CONTEXT ( 'NONE', 'WORKASPACE' ) );
#109 = ADVANCED_BREP_SHAPE_REPRESENTATION ( 'Micro_SFL-500-812', ( #71, #225 ), #228 ) ;
#110 = AXIS2_PLACEMENT_3D ( 'NONE', #219, #178, #294 ) ;
#111 = CARTESIAN_POINT ( 'NONE',  ( -0.2350000000000006251, 0.0000000000000000000, 4.000000000000000000 ) ) ;
#112 = ADVANCED_FACE ( 'NONE', ( #288 ), #33, .T. ) ;
#113 = CARTESIAN_POINT ( 'NONE',  ( 0.0000000000000000000, 0.0000000000000000000, 4.000000000000000000 ) ) ;
#114 = ORIENTED_EDGE ( 'NONE', *, *, #124, .F. ) ;
#115 = CYLINDRICAL_SURFACE ( 'NONE', #162, 0.2500000000000000000 ) ;
#116 = PRODUCT_DEFINITION ( 'UNKNOWN', '', #89, #121 ) ;
#117 = EDGE_LOOP ( 'NONE', ( #48, #147 ) ) ;
#118 = CARTESIAN_POINT ( 'NONE',  ( -0.2497499999999999998, 0.0000000000000000000, 3.058555380870514950E-17 ) ) ;
#119 = CIRCLE ( 'NONE', #292, 0.2500000000000000000 ) ;
#120 = VERTEX_POINT ( 'NONE', #127 ) ;
#121 = PRODUCT_DEFINITION_CONTEXT ( 'detailed design', #180, 'design' ) ;
#122 = DIRECTION ( 'NONE',  ( -0.0000000000000000000, -0.0000000000000000000, -1.000000000000000000 ) ) ;
#123 = EDGE_LOOP ( 'NONE', ( #8, #135 ) ) ;
#124 = EDGE_CURVE ( 'NONE', #254, #35, #285, .T. ) ;
#125 = FACE_OUTER_BOUND ( 'NONE', #117, .T. ) ;
#126 = DIRECTION ( 'NONE',  ( -1.000000000000000000, 0.0000000000000000000, 1.224646799147353454E-16 ) ) ;
#127 = CARTESIAN_POINT ( 'NONE',  ( 0.2500000000000000000, 3.061616997868383018E-17, 3.985000000000000320 ) ) ;
#128 = AXIS2_PLACEMENT_3D ( 'NONE', #196, #83, #95 ) ;
#129 = EDGE_CURVE ( 'NONE', #58, #218, #134, .T. ) ;
#130 = DIRECTION ( 'NONE',  ( 1.000000000000000000, 0.0000000000000000000, -0.0000000000000000000 ) ) ;
#131 = CARTESIAN_POINT ( 'NONE',  ( 0.0000000000000000000, 0.0000000000000000000, 0.0000000000000000000 ) ) ;
#132 = CLOSED_SHELL ( 'NONE', ( #46, #256, #112, #269, #146, #273, #184, #250, #195, #39 ) ) ;
#133 = EDGE_CURVE ( 'NONE', #35, #94, #142, .T. ) ;
#134 = CIRCLE ( 'NONE', #128, 0.2497499999999999998 ) ;
#135 = ORIENTED_EDGE ( 'NONE', *, *, #200, .T. ) ;
#136 = DIRECTION ( 'NONE',  ( 0.0000000000000000000, 0.0000000000000000000, -1.000000000000000000 ) ) ;
#137 = ORIENTED_EDGE ( 'NONE', *, *, #5, .F. ) ;
#138 = CYLINDRICAL_SURFACE ( 'NONE', #101, 0.2497499999999999998 ) ;
#139 = VECTOR ( 'NONE', #174, 39.37007874015748143 ) ;
#140 = EDGE_LOOP ( 'NONE', ( #114, #187, #25, #11 ) ) ;
#141 = UNCERTAINTY_MEASURE_WITH_UNIT (LENGTH_MEASURE( 1.000000000000000082E-05 ), #100, 'distance_accuracy_value', 'NONE');
#142 = LINE ( 'NONE', #236, #295 ) ;
#143 = EDGE_CURVE ( 'NONE', #254, #120, #12, .T. ) ;
#144 = ORIENTED_EDGE ( 'NONE', *, *, #44, .T. ) ;
#145 = DIRECTION ( 'NONE',  ( -0.0000000000000000000, -0.0000000000000000000, -1.000000000000000000 ) ) ;
#146 = ADVANCED_FACE ( 'NONE', ( #193 ), #115, .T. ) ;
#147 = ORIENTED_EDGE ( 'NONE', *, *, #124, .T. ) ;
#148 = CARTESIAN_POINT ( 'NONE',  ( 0.0000000000000000000, 0.0000000000000000000, 0.0000000000000000000 ) ) ;
#149 = CARTESIAN_POINT ( 'NONE',  ( 0.2497499999999999998, 3.058555380870514950E-17, -3.058555380870514950E-17 ) ) ;
#150 = CIRCLE ( 'NONE', #293, 0.2500000000000000000 ) ;
#151 = SURFACE_STYLE_FILL_AREA ( #201 ) ;
#152 = SURFACE_STYLE_FILL_AREA ( #20 ) ;
#153 = SURFACE_SIDE_STYLE ('',( #151 ) ) ;
#154 = AXIS2_PLACEMENT_3D ( 'NONE', #267, #287, #40 ) ;
#155 = PRODUCT_CONTEXT ( 'NONE', #23, 'mechanical' ) ;
#156 =( NAMED_UNIT ( * ) PLANE_ANGLE_UNIT ( ) SI_UNIT ( $, .RADIAN. ) );
#157 = VECTOR ( 'NONE', #222, 39.37007874015748143 ) ;
#158 =( LENGTH_UNIT ( ) NAMED_UNIT ( * ) SI_UNIT ( $, .METRE. ) );
#159 = AXIS2_PLACEMENT_3D ( 'NONE', #113, #145, #239 ) ;
#160 = ORIENTED_EDGE ( 'NONE', *, *, #15, .F. ) ;
#161 = EDGE_CURVE ( 'NONE', #58, #298, #182, .T. ) ;
#162 = AXIS2_PLACEMENT_3D ( 'NONE', #78, #31, #211 ) ;
#163 = AXIS2_PLACEMENT_3D ( 'NONE', #131, #270, #104 ) ;
#164 = EDGE_LOOP ( 'NONE', ( #265, #232, #27, #181 ) ) ;
#165 = EDGE_LOOP ( 'NONE', ( #70, #144, #137, #52 ) ) ;
#166 = DIRECTION ( 'NONE',  ( 1.224646799147353207E-16, 0.0000000000000000000, 1.000000000000000000 ) ) ;
#167 = ORIENTED_EDGE ( 'NONE', *, *, #264, .T. ) ;
#168 = FACE_OUTER_BOUND ( 'NONE', #98, .T. ) ;
#169 = DIRECTION ( 'NONE',  ( -1.224646799147353207E-16, -0.0000000000000000000, -1.000000000000000000 ) ) ;
#170 = FACE_OUTER_BOUND ( 'NONE', #164, .T. ) ;
#171 = VERTEX_POINT ( 'NONE', #277 ) ;
#172 = CARTESIAN_POINT ( 'NONE',  ( -0.2500000000000000000, 0.0000000000000000000, 4.000000000000000000 ) ) ;
#173 = CARTESIAN_POINT ( 'NONE',  ( 0.2497499999999999998, 3.058555380870514950E-17, 0.0000000000000000000 ) ) ;
#174 = DIRECTION ( 'NONE',  ( -1.224646799147353207E-16, -0.0000000000000000000, -1.000000000000000000 ) ) ;
#175 = DIRECTION ( 'NONE',  ( 1.000000000000000000, 0.0000000000000000000, 0.0000000000000000000 ) ) ;
#176 = LENGTH_MEASURE_WITH_UNIT ( LENGTH_MEASURE( 0.02539999999999999897 ), #13 );
#177 = AXIS2_PLACEMENT_3D ( 'NONE', #91, #57, #209 ) ;
#178 = DIRECTION ( 'NONE',  ( 0.0000000000000000000, 0.0000000000000000000, -1.000000000000000000 ) ) ;
#179 = AXIS2_PLACEMENT_3D ( 'NONE', #103, #221, #175 ) ;
#180 = APPLICATION_CONTEXT ( 'automotive_design' ) ;
#181 = ORIENTED_EDGE ( 'NONE', *, *, #200, .F. ) ;
#182 = LINE ( 'NONE', #118, #87 ) ;
#183 = ORIENTED_EDGE ( 'NONE', *, *, #44, .F. ) ;
#184 = ADVANCED_FACE ( 'NONE', ( #1 ), #47, .T. ) ;
#185 = AXIS2_PLACEMENT_3D ( 'NONE', #34, #217, #10 ) ;
#186 = DIRECTION ( 'NONE',  ( 0.1736481776669313859, 0.0000000000000000000, 0.9848077530122077983 ) ) ;
#187 = ORIENTED_EDGE ( 'NONE', *, *, #143, .T. ) ;
#188 = DIRECTION ( 'NONE',  ( 0.7071067811865394681, 8.659560562354834251E-17, -0.7071067811865555663 ) ) ;
#189 = AXIS2_PLACEMENT_3D ( 'NONE', #220, #17, #126 ) ;
#190 = ORIENTED_EDGE ( 'NONE', *, *, #41, .T. ) ;
#191 = LINE ( 'NONE', #37, #19 ) ;
#192 = CARTESIAN_POINT ( 'NONE',  ( -0.2499999999999998335, 0.0000000000000000000, 1.501417820454904462 ) ) ;
#193 = FACE_OUTER_BOUND ( 'NONE', #258, .T. ) ;
#194 = COLOUR_RGB ( '',0.7921568627450980005, 0.8196078431372548767, 0.9333333333333333481 ) ;
#195 = ADVANCED_FACE ( 'NONE', ( #170 ), #138, .T. ) ;
#196 = CARTESIAN_POINT ( 'NONE',  ( 1.836970198721030181E-16, 0.0000000000000000000, 1.500000000000000222 ) ) ;
#197 = VECTOR ( 'NONE', #56, 39.37007874015747433 ) ;
#198 = DIRECTION ( 'NONE',  ( 0.0000000000000000000, 0.0000000000000000000, 1.000000000000000000 ) ) ;
#199 = CARTESIAN_POINT ( 'NONE',  ( -0.2500000000000000000, 0.0000000000000000000, 3.985000000000000320 ) ) ;
#200 = EDGE_CURVE ( 'NONE', #297, #298, #249, .T. ) ;
#201 = FILL_AREA_STYLE ('',( #268 ) ) ;
#202 = VECTOR ( 'NONE', #188, 39.37007874015748143 ) ;
#203 = PRESENTATION_LAYER_ASSIGNMENT (  '', '', ( #68 ) ) ;
#204 = LENGTH_MEASURE_WITH_UNIT ( LENGTH_MEASURE( 0.02539999999999999897 ), #158 );
#205 = AXIS2_PLACEMENT_3D ( 'NONE', #72, #262, #286 ) ;
#206 = DIMENSIONAL_EXPONENTS ( 1.000000000000000000, 0.0000000000000000000, 0.0000000000000000000, 0.0000000000000000000, 0.0000000000000000000, 0.0000000000000000000, 0.0000000000000000000 ) ;
#207 = CIRCLE ( 'NONE', #110, 0.2500000000000000000 ) ;
#208 = ORIENTED_EDGE ( 'NONE', *, *, #15, .T. ) ;
#209 = DIRECTION ( 'NONE',  ( 1.000000000000000000, 0.0000000000000000000, 0.0000000000000000000 ) ) ;
#210 = ORIENTED_EDGE ( 'NONE', *, *, #212, .F. ) ;
#211 = DIRECTION ( 'NONE',  ( -1.000000000000000000, 0.0000000000000000000, 0.0000000000000000000 ) ) ;
#212 = EDGE_CURVE ( 'NONE', #218, #58, #238, .T. ) ;
#213 = EDGE_LOOP ( 'NONE', ( #235, #278, #74, #276 ) ) ;
#214 = AXIS2_PLACEMENT_3D ( 'NONE', #60, #93, #242 ) ;
#215 = DIRECTION ( 'NONE',  ( -1.000000000000000000, 0.0000000000000000000, 1.224646799147353454E-16 ) ) ;
#216 = CARTESIAN_POINT ( 'NONE',  ( 1.838706528002894427E-16, 0.0000000000000000000, 1.501417820454904462 ) ) ;
#217 = DIRECTION ( 'NONE',  ( 0.0000000000000000000, 0.0000000000000000000, 1.000000000000000000 ) ) ;
#218 = VERTEX_POINT ( 'NONE', #234 ) ;
#219 = CARTESIAN_POINT ( 'NONE',  ( 0.0000000000000000000, 0.0000000000000000000, 3.985000000000000320 ) ) ;
#220 = CARTESIAN_POINT ( 'NONE',  ( 3.745650057197989622E-33, 0.0000000000000000000, 3.058555380870514950E-17 ) ) ;
#221 = DIRECTION ( 'NONE',  ( 0.0000000000000000000, 0.0000000000000000000, 1.000000000000000000 ) ) ;
#222 = DIRECTION ( 'NONE',  ( -0.0000000000000000000, -0.0000000000000000000, -1.000000000000000000 ) ) ;
#223 = CARTESIAN_POINT ( 'NONE',  ( -0.2497499999999998332, 3.060086189369449292E-17, 1.500000000000000222 ) ) ;
#224 = CARTESIAN_POINT ( 'NONE',  ( 0.0000000000000000000, 0.0000000000000000000, 0.0000000000000000000 ) ) ;
#225 = AXIS2_PLACEMENT_3D ( 'NONE', #224, #198, #86 ) ;
#226 =( CONVERSION_BASED_UNIT ( 'INCH', #64 ) LENGTH_UNIT ( ) NAMED_UNIT ( #49 ) );
#227 = EDGE_CURVE ( 'NONE', #94, #32, #99, .T. ) ;
#228 =( GEOMETRIC_REPRESENTATION_CONTEXT ( 3 ) GLOBAL_UNCERTAINTY_ASSIGNED_CONTEXT ( ( #259 ) ) GLOBAL_UNIT_ASSIGNED_CONTEXT ( ( #247, #66, #271 ) ) REPRESENTATION_CONTEXT ( 'NONE', 'WORKASPACE' ) );
#229 = DIMENSIONAL_EXPONENTS ( 1.000000000000000000, 0.0000000000000000000, 0.0000000000000000000, 0.0000000000000000000, 0.0000000000000000000, 0.0000000000000000000, 0.0000000000000000000 ) ;
#230 = CARTESIAN_POINT ( 'NONE',  ( 1.838706528002894427E-16, 0.0000000000000000000, 1.501417820454904462 ) ) ;
#231 = CARTESIAN_POINT ( 'NONE',  ( 0.0000000000000000000, 0.0000000000000000000, 4.000000000000000000 ) ) ;
#232 = ORIENTED_EDGE ( 'NONE', *, *, #212, .T. ) ;
#233 = MECHANICAL_DESIGN_GEOMETRIC_PRESENTATION_REPRESENTATION (  '', ( #68 ), #107 ) ;
#234 = CARTESIAN_POINT ( 'NONE',  ( 0.2497500000000001941, 0.0000000000000000000, 1.500000000000000222 ) ) ;
#235 = ORIENTED_EDGE ( 'NONE', *, *, #143, .F. ) ;
#236 = CARTESIAN_POINT ( 'NONE',  ( -0.2350000000000006251, 0.0000000000000000000, 4.000000000000000000 ) ) ;
#237 = EDGE_LOOP ( 'NONE', ( #4, #210, #167, #208 ) ) ;
#238 = CIRCLE ( 'NONE', #205, 0.2497499999999999998 ) ;
#239 = DIRECTION ( 'NONE',  ( -1.000000000000000000, 0.0000000000000000000, 0.0000000000000000000 ) ) ;
#240 = CARTESIAN_POINT ( 'NONE',  ( -0.2497499999999998332, 3.058555380870514950E-17, 1.500000000000000222 ) ) ;
#241 = EDGE_CURVE ( 'NONE', #35, #254, #59, .T. ) ;
#242 = DIRECTION ( 'NONE',  ( -1.000000000000000000, 0.0000000000000000000, 1.224646799147353454E-16 ) ) ;
#243 = FACE_OUTER_BOUND ( 'NONE', #96, .T. ) ;
#244 = LINE ( 'NONE', #149, #139 ) ;
#245 = CONICAL_SURFACE ( 'NONE', #21, 0.2497499999999999998, 0.1745329251994338915 ) ;
#246 = FACE_OUTER_BOUND ( 'NONE', #123, .T. ) ;
#247 =( CONVERSION_BASED_UNIT ( 'INCH', #204 ) LENGTH_UNIT ( ) NAMED_UNIT ( #229 ) );
#248 = APPLICATION_PROTOCOL_DEFINITION ( 'draft international standard', 'automotive_design', 1998, #23 ) ;
#249 = CIRCLE ( 'NONE', #214, 0.2497499999999999998 ) ;
#250 = ADVANCED_FACE ( 'NONE', ( #26 ), #275, .T. ) ;
#251 = AXIS2_PLACEMENT_3D ( 'NONE', #81, #166, #279 ) ;
#252 = ORIENTED_EDGE ( 'NONE', *, *, #264, .F. ) ;
#253 = CARTESIAN_POINT ( 'NONE',  ( 1.836970198721030181E-16, 0.0000000000000000000, 1.500000000000000222 ) ) ;
#254 = VERTEX_POINT ( 'NONE', #257 ) ;
#255 = MECHANICAL_DESIGN_GEOMETRIC_PRESENTATION_REPRESENTATION (  '', ( #6 ), #108 ) ;
#256 = ADVANCED_FACE ( 'NONE', ( #168 ), #245, .T. ) ;
#257 = CARTESIAN_POINT ( 'NONE',  ( 0.2350000000000006251, 2.969768487932335429E-17, 4.000000000000000000 ) ) ;
#258 = EDGE_LOOP ( 'NONE', ( #183, #90, #92, #160 ) ) ;
#259 = UNCERTAINTY_MEASURE_WITH_UNIT (LENGTH_MEASURE( 1.000000000000000082E-05 ), #247, 'distance_accuracy_value', 'NONE');
#260 = CARTESIAN_POINT ( 'NONE',  ( 0.2350000000000006251, 2.877919977996287839E-17, 4.000000000000000000 ) ) ;
#261 = DIRECTION ( 'NONE',  ( 1.000000000000000000, 0.0000000000000000000, 0.0000000000000000000 ) ) ;
#262 = DIRECTION ( 'NONE',  ( -1.224646799147353207E-16, -0.0000000000000000000, -1.000000000000000000 ) ) ;
#263 = PRODUCT_DEFINITION_SHAPE ( 'NONE', 'NONE',  #116 ) ;
#264 = EDGE_CURVE ( 'NONE', #218, #171, #191, .T. ) ;
#265 = ORIENTED_EDGE ( 'NONE', *, *, #41, .F. ) ;
#266 = DIRECTION ( 'NONE',  ( -1.224646799147353207E-16, -0.0000000000000000000, -1.000000000000000000 ) ) ;
#267 = CARTESIAN_POINT ( 'NONE',  ( 0.0000000000000000000, 0.0000000000000000000, 4.000000000000000000 ) ) ;
#268 = FILL_AREA_STYLE_COLOUR ( '', #65 ) ;
#269 = ADVANCED_FACE ( 'NONE', ( #7 ), #28, .T. ) ;
#270 = DIRECTION ( 'NONE',  ( -1.224646799147353207E-16, -0.0000000000000000000, -1.000000000000000000 ) ) ;
#271 =( NAMED_UNIT ( * ) SI_UNIT ( $, .STERADIAN. ) SOLID_ANGLE_UNIT ( ) );
#272 = CARTESIAN_POINT ( 'NONE',  ( -0.2497499999999999998, 0.0000000000000000000, 6.117110761741029900E-17 ) ) ;
#273 = ADVANCED_FACE ( 'NONE', ( #125 ), #75, .T. ) ;
#274 = PRODUCT_RELATED_PRODUCT_CATEGORY ( 'part', '', ( #22 ) ) ;
#275 = CONICAL_SURFACE ( 'NONE', #251, 0.2497499999999999998, 0.1745329251994338915 ) ;
#276 = ORIENTED_EDGE ( 'NONE', *, *, #289, .F. ) ;
#277 = CARTESIAN_POINT ( 'NONE',  ( 0.2500000000000001665, 3.061616997868384867E-17, 1.501417820454904462 ) ) ;
#278 = ORIENTED_EDGE ( 'NONE', *, *, #241, .F. ) ;
#279 = DIRECTION ( 'NONE',  ( 1.000000000000000000, 0.0000000000000000000, 0.0000000000000000000 ) ) ;
#280 = DIRECTION ( 'NONE',  ( -1.224646799147353207E-16, -0.0000000000000000000, -1.000000000000000000 ) ) ;
#281 = DIRECTION ( 'NONE',  ( -0.7071067811865394681, 0.0000000000000000000, -0.7071067811865555663 ) ) ;
#282 = LINE ( 'NONE', #240, #197 ) ;
#283 = DIRECTION ( 'NONE',  ( 0.0000000000000000000, 0.0000000000000000000, -1.000000000000000000 ) ) ;
#284 = PRESENTATION_STYLE_ASSIGNMENT (( #290 ) ) ;
#285 = CIRCLE ( 'NONE', #179, 0.2350000000000006251 ) ;
#286 = DIRECTION ( 'NONE',  ( -1.000000000000000000, 0.0000000000000000000, 0.0000000000000000000 ) ) ;
#287 = DIRECTION ( 'NONE',  ( 0.0000000000000000000, 0.0000000000000000000, -1.000000000000000000 ) ) ;
#288 = FACE_OUTER_BOUND ( 'NONE', #140, .T. ) ;
#289 = EDGE_CURVE ( 'NONE', #120, #94, #119, .T. ) ;
#290 = SURFACE_STYLE_USAGE ( .BOTH. , #153 ) ;
#291 = PRESENTATION_STYLE_ASSIGNMENT (( #102 ) ) ;
#292 = AXIS2_PLACEMENT_3D ( 'NONE', #97, #283, #80 ) ;
#293 = AXIS2_PLACEMENT_3D ( 'NONE', #216, #280, #54 ) ;
#294 = DIRECTION ( 'NONE',  ( 1.000000000000000000, 0.0000000000000000000, 0.0000000000000000000 ) ) ;
#295 = VECTOR ( 'NONE', #281, 39.37007874015748143 ) ;
#296 = EDGE_CURVE ( 'NONE', #94, #120, #207, .T. ) ;
#297 = VERTEX_POINT ( 'NONE', #173 ) ;
#298 = VERTEX_POINT ( 'NONE', #272 ) ;
#299 = CIRCLE ( 'NONE', #9, 0.2500000000000000000 ) ;
ENDSEC;
END-ISO-10303-21;
