ISO-10303-21;
HEADER;
FILE_DESCRIPTION (( 'STEP AP214' ),
    '1' );
FILE_NAME ('Micro_EMS-031-4.STEP',
    '2021-09-01T17:32:25',
    ( '' ),
    ( '' ),
    'SwSTEP 2.0',
    'SolidWorks 2020',
    '' );
FILE_SCHEMA (( 'AUTOMOTIVE_DESIGN' ));
ENDSEC;

DATA;
#1 = EDGE_LOOP ( 'NONE', ( #74, #53, #96, #58 ) ) ;
#2 = ORIENTED_EDGE ( 'NONE', *, *, #114, .T. ) ;
#3 = PRESENTATION_STYLE_ASSIGNMENT (( #211 ) ) ;
#4 = EDGE_CURVE ( 'NONE', #256, #112, #180, .T. ) ;
#5 = VERTEX_POINT ( 'NONE', #40 ) ;
#6 = AXIS2_PLACEMENT_3D ( 'NONE', #200, #158, #202 ) ;
#7 = ORIENTED_EDGE ( 'NONE', *, *, #24, .F. ) ;
#8 =( NAMED_UNIT ( * ) SI_UNIT ( $, .STERADIAN. ) SOLID_ANGLE_UNIT ( ) );
#9 = ORIENTED_EDGE ( 'NONE', *, *, #20, .T. ) ;
#10 = EDGE_CURVE ( 'NONE', #231, #15, #152, .T. ) ;
#11 = AXIS2_PLACEMENT_3D ( 'NONE', #189, #132, #19 ) ;
#12 = DIRECTION ( 'NONE',  ( 0.0000000000000000000, 0.0000000000000000000, -1.000000000000000000 ) ) ;
#13 = DIRECTION ( 'NONE',  ( 0.0000000000000000000, 0.0000000000000000000, -1.000000000000000000 ) ) ;
#14 = CONICAL_SURFACE ( 'NONE', #276, 0.01558440000000000519, 0.1745329251994338360 ) ;
#15 = VERTEX_POINT ( 'NONE', #226 ) ;
#16 = DIRECTION ( 'NONE',  ( 1.000000000000000000, 0.0000000000000000000, 0.0000000000000000000 ) ) ;
#17 = FILL_AREA_STYLE ('',( #144 ) ) ;
#18 = ORIENTED_EDGE ( 'NONE', *, *, #253, .T. ) ;
#19 = DIRECTION ( 'NONE',  ( -1.000000000000000000, 0.0000000000000000000, 0.0000000000000000000 ) ) ;
#20 = EDGE_CURVE ( 'NONE', #42, #231, #149, .T. ) ;
#21 = DIRECTION ( 'NONE',  ( 1.000000000000000000, 0.0000000000000000000, 0.0000000000000000000 ) ) ;
#22 = ORIENTED_EDGE ( 'NONE', *, *, #20, .F. ) ;
#23 = DIRECTION ( 'NONE',  ( -1.000000000000000000, 0.0000000000000000000, 1.224646799147353700E-16 ) ) ;
#24 = EDGE_CURVE ( 'NONE', #15, #207, #235, .T. ) ;
#25 = PRODUCT_DEFINITION_FORMATION_WITH_SPECIFIED_SOURCE ( 'ANY', '', #117, .NOT_KNOWN. ) ;
#26 = ORIENTED_EDGE ( 'NONE', *, *, #115, .T. ) ;
#27 = AXIS2_PLACEMENT_3D ( 'NONE', #120, #12, #142 ) ;
#28 = ORIENTED_EDGE ( 'NONE', *, *, #243, .F. ) ;
#29 = LENGTH_MEASURE_WITH_UNIT ( LENGTH_MEASURE( 0.02539999999999999897 ), #233 );
#30 = CIRCLE ( 'NONE', #297, 0.01558440000000001387 ) ;
#31 = ORIENTED_EDGE ( 'NONE', *, *, #4, .F. ) ;
#32 = ORIENTED_EDGE ( 'NONE', *, *, #156, .T. ) ;
#33 = PLANE ( 'NONE',  #227 ) ;
#34 = AXIS2_PLACEMENT_3D ( 'NONE', #140, #75, #239 ) ;
#35 = FILL_AREA_STYLE_COLOUR ( '', #298 ) ;
#36 =( NAMED_UNIT ( * ) PLANE_ANGLE_UNIT ( ) SI_UNIT ( $, .RADIAN. ) );
#37 = CARTESIAN_POINT ( 'NONE',  ( 0.06250000000000006939, 7.654042494670963708E-18, 0.3440715893364554301 ) ) ;
#38 = CONICAL_SURFACE ( 'NONE', #27, 0.04750000000000064587, 0.7853981633974466137 ) ;
#39 = PRODUCT_RELATED_PRODUCT_CATEGORY ( 'part', '', ( #117 ) ) ;
#40 = CARTESIAN_POINT ( 'NONE',  ( 0.01558440000000001387, 0.0000000000000000000, 0.07800000000000009703 ) ) ;
#41 = FACE_OUTER_BOUND ( 'NONE', #127, .T. ) ;
#42 = VERTEX_POINT ( 'NONE', #215 ) ;
#43 = CARTESIAN_POINT ( 'NONE',  ( 0.06250000000000002776, 7.654042494670959086E-18, 1.485000000000000764 ) ) ;
#44 = CARTESIAN_POINT ( 'NONE',  ( 2.337285635691549169E-34, 0.0000000000000000000, 1.908538557663203788E-18 ) ) ;
#45 = UNCERTAINTY_MEASURE_WITH_UNIT (LENGTH_MEASURE( 1.000000000000000082E-05 ), #164, 'distance_accuracy_value', 'NONE');
#46 = ADVANCED_FACE ( 'NONE', ( #265 ), #199, .T. ) ;
#47 = ORIENTED_EDGE ( 'NONE', *, *, #260, .F. ) ;
#48 = ADVANCED_FACE ( 'NONE', ( #109 ), #33, .F. ) ;
#49 = AXIS2_PLACEMENT_3D ( 'NONE', #246, #191, #123 ) ;
#50 = VECTOR ( 'NONE', #177, 39.37007874015748143 ) ;
#51 = ORIENTED_EDGE ( 'NONE', *, *, #167, .T. ) ;
#52 = LINE ( 'NONE', #263, #151 ) ;
#53 = ORIENTED_EDGE ( 'NONE', *, *, #243, .T. ) ;
#54 = DIRECTION ( 'NONE',  ( -0.0000000000000000000, -0.0000000000000000000, -1.000000000000000000 ) ) ;
#55 = CARTESIAN_POINT ( 'NONE',  ( 0.0000000000000000000, 0.0000000000000000000, 1.485000000000000764 ) ) ;
#56 = DIMENSIONAL_EXPONENTS ( 1.000000000000000000, 0.0000000000000000000, 0.0000000000000000000, 0.0000000000000000000, 0.0000000000000000000, 0.0000000000000000000, 0.0000000000000000000 ) ;
#57 = CARTESIAN_POINT ( 'NONE',  ( 0.01558440000000001560, 1.908538557663202632E-18, 0.0000000000000000000 ) ) ;
#58 = ORIENTED_EDGE ( 'NONE', *, *, #238, .F. ) ;
#59 = CYLINDRICAL_SURFACE ( 'NONE', #11, 0.06250000000000002776 ) ;
#60 = CIRCLE ( 'NONE', #93, 0.06250000000000002776 ) ;
#61 = PLANE ( 'NONE',  #6 ) ;
#62 = DIRECTION ( 'NONE',  ( 1.000000000000000000, 0.0000000000000000000, 0.0000000000000000000 ) ) ;
#63 = AXIS2_PLACEMENT_3D ( 'NONE', #55, #13, #143 ) ;
#64 = VERTEX_POINT ( 'NONE', #37 ) ;
#65 = LINE ( 'NONE', #250, #173 ) ;
#66 =( LENGTH_UNIT ( ) NAMED_UNIT ( * ) SI_UNIT ( $, .METRE. ) );
#67 = ORIENTED_EDGE ( 'NONE', *, *, #183, .T. ) ;
#68 = FACE_OUTER_BOUND ( 'NONE', #80, .T. ) ;
#69 = DIRECTION ( 'NONE',  ( 1.000000000000000000, 0.0000000000000000000, 0.0000000000000000000 ) ) ;
#70 = DIRECTION ( 'NONE',  ( -1.224646799147353700E-16, -0.0000000000000000000, -1.000000000000000000 ) ) ;
#71 = MECHANICAL_DESIGN_GEOMETRIC_PRESENTATION_REPRESENTATION (  '', ( #179 ), #217 ) ;
#72 = VECTOR ( 'NONE', #220, 39.37007874015747433 ) ;
#73 = MECHANICAL_DESIGN_GEOMETRIC_PRESENTATION_REPRESENTATION (  '', ( #163 ), #101 ) ;
#74 = ORIENTED_EDGE ( 'NONE', *, *, #102, .T. ) ;
#75 = DIRECTION ( 'NONE',  ( -1.224646799147353700E-16, -0.0000000000000000000, -1.000000000000000000 ) ) ;
#76 = EDGE_CURVE ( 'NONE', #42, #207, #104, .T. ) ;
#77 = DIMENSIONAL_EXPONENTS ( 1.000000000000000000, 0.0000000000000000000, 0.0000000000000000000, 0.0000000000000000000, 0.0000000000000000000, 0.0000000000000000000, 0.0000000000000000000 ) ;
#78 = SURFACE_STYLE_USAGE ( .BOTH. , #280 ) ;
#79 = EDGE_CURVE ( 'NONE', #5, #64, #148, .T. ) ;
#80 = EDGE_LOOP ( 'NONE', ( #28, #95, #224, #31 ) ) ;
#81 = SURFACE_STYLE_FILL_AREA ( #236 ) ;
#82 = DIRECTION ( 'NONE',  ( -1.224646799147353700E-16, -0.0000000000000000000, -1.000000000000000000 ) ) ;
#83 = CARTESIAN_POINT ( 'NONE',  ( 0.0000000000000000000, 0.0000000000000000000, 0.0000000000000000000 ) ) ;
#84 = ORIENTED_EDGE ( 'NONE', *, *, #24, .T. ) ;
#85 = PRODUCT_DEFINITION_SHAPE ( 'NONE', 'NONE',  #124 ) ;
#86 =( LENGTH_UNIT ( ) NAMED_UNIT ( * ) SI_UNIT ( $, .METRE. ) );
#87 = CLOSED_SHELL ( 'NONE', ( #46, #271, #286, #186, #161, #228, #193, #205, #138, #48 ) ) ;
#88 = CARTESIAN_POINT ( 'NONE',  ( 0.04750000000000064587, 5.817072295950006528E-18, 1.500000000000000222 ) ) ;
#89 = DIRECTION ( 'NONE',  ( -1.224646799147353700E-16, -0.0000000000000000000, -1.000000000000000000 ) ) ;
#90 = ORIENTED_EDGE ( 'NONE', *, *, #102, .F. ) ;
#91 = DIRECTION ( 'NONE',  ( 0.0000000000000000000, 0.0000000000000000000, -1.000000000000000000 ) ) ;
#92 = DIRECTION ( 'NONE',  ( -1.000000000000000000, 0.0000000000000000000, 0.0000000000000000000 ) ) ;
#93 = AXIS2_PLACEMENT_3D ( 'NONE', #267, #91, #242 ) ;
#94 = VERTEX_POINT ( 'NONE', #192 ) ;
#95 = ORIENTED_EDGE ( 'NONE', *, *, #260, .T. ) ;
#96 = ORIENTED_EDGE ( 'NONE', *, *, #114, .F. ) ;
#97 = AXIS2_PLACEMENT_3D ( 'NONE', #221, #168, #99 ) ;
#98 = DIRECTION ( 'NONE',  ( -1.000000000000000000, 0.0000000000000000000, 1.224646799147353700E-16 ) ) ;
#99 = DIRECTION ( 'NONE',  ( 1.000000000000000000, 0.0000000000000000000, 0.0000000000000000000 ) ) ;
#100 = DIRECTION ( 'NONE',  ( 1.000000000000000000, 0.0000000000000000000, 0.0000000000000000000 ) ) ;
#101 =( GEOMETRIC_REPRESENTATION_CONTEXT ( 3 ) GLOBAL_UNCERTAINTY_ASSIGNED_CONTEXT ( ( #206 ) ) GLOBAL_UNIT_ASSIGNED_CONTEXT ( ( #126, #103, #195 ) ) REPRESENTATION_CONTEXT ( 'NONE', 'WORKASPACE' ) );
#102 = EDGE_CURVE ( 'NONE', #94, #5, #292, .T. ) ;
#103 =( NAMED_UNIT ( * ) PLANE_ANGLE_UNIT ( ) SI_UNIT ( $, .RADIAN. ) );
#104 = LINE ( 'NONE', #88, #255 ) ;
#105 = SURFACE_SIDE_STYLE ('',( #81 ) ) ;
#106 = DIRECTION ( 'NONE',  ( 0.1736481776669313304, 0.0000000000000000000, 0.9848077530122077983 ) ) ;
#107 = FACE_OUTER_BOUND ( 'NONE', #234, .T. ) ;
#108 = LENGTH_MEASURE_WITH_UNIT ( LENGTH_MEASURE( 0.02539999999999999897 ), #66 );
#109 = FACE_OUTER_BOUND ( 'NONE', #278, .T. ) ;
#110 = DIRECTION ( 'NONE',  ( 0.0000000000000000000, 0.0000000000000000000, -1.000000000000000000 ) ) ;
#111 = VECTOR ( 'NONE', #247, 39.37007874015748854 ) ;
#112 = VERTEX_POINT ( 'NONE', #204 ) ;
#113 = CARTESIAN_POINT ( 'NONE',  ( 4.213661705584329151E-17, 0.0000000000000000000, 0.3440715893364554301 ) ) ;
#114 = EDGE_CURVE ( 'NONE', #112, #256, #30, .T. ) ;
#115 = EDGE_CURVE ( 'NONE', #94, #119, #201, .T. ) ;
#116 = PRESENTATION_LAYER_ASSIGNMENT (  '', '', ( #179 ) ) ;
#117 = PRODUCT ( 'Micro_EMS-031-4', 'Micro_EMS-031-4', '', ( #293 ) ) ;
#118 = VECTOR ( 'NONE', #288, 39.37007874015748143 ) ;
#119 = VERTEX_POINT ( 'NONE', #249 ) ;
#120 = CARTESIAN_POINT ( 'NONE',  ( 0.0000000000000000000, 0.0000000000000000000, 1.500000000000000222 ) ) ;
#121 = VECTOR ( 'NONE', #106, 39.37007874015748143 ) ;
#122 =( NAMED_UNIT ( * ) PLANE_ANGLE_UNIT ( ) SI_UNIT ( $, .RADIAN. ) );
#123 = DIRECTION ( 'NONE',  ( -1.000000000000000000, 0.0000000000000000000, 1.224646799147353700E-16 ) ) ;
#124 = PRODUCT_DEFINITION ( 'UNKNOWN', '', #25, #184 ) ;
#125 = DIRECTION ( 'NONE',  ( 1.000000000000000000, 0.0000000000000000000, 0.0000000000000000000 ) ) ;
#126 =( CONVERSION_BASED_UNIT ( 'INCH', #108 ) LENGTH_UNIT ( ) NAMED_UNIT ( #56 ) );
#127 = EDGE_LOOP ( 'NONE', ( #251, #185, #134, #272 ) ) ;
#128 = FACE_OUTER_BOUND ( 'NONE', #136, .T. ) ;
#129 = COLOUR_RGB ( '',0.7921568627450980005, 0.8196078431372548767, 0.9333333333333333481 ) ;
#130 = SHAPE_DEFINITION_REPRESENTATION ( #85, #216 ) ;
#131 = EDGE_LOOP ( 'NONE', ( #90, #26, #32, #281 ) ) ;
#132 = DIRECTION ( 'NONE',  ( -0.0000000000000000000, -0.0000000000000000000, -1.000000000000000000 ) ) ;
#133 =( CONVERSION_BASED_UNIT ( 'INCH', #264 ) LENGTH_UNIT ( ) NAMED_UNIT ( #77 ) );
#134 = ORIENTED_EDGE ( 'NONE', *, *, #10, .T. ) ;
#135 = CARTESIAN_POINT ( 'NONE',  ( 0.0000000000000000000, 0.0000000000000000000, 1.500000000000000222 ) ) ;
#136 = EDGE_LOOP ( 'NONE', ( #208, #51, #18, #229 ) ) ;
#137 = CARTESIAN_POINT ( 'NONE',  ( 0.0000000000000000000, 0.0000000000000000000, 0.0000000000000000000 ) ) ;
#138 = ADVANCED_FACE ( 'NONE', ( #68 ), #178, .T. ) ;
#139 = CIRCLE ( 'NONE', #190, 0.06250000000000002776 ) ;
#140 = CARTESIAN_POINT ( 'NONE',  ( 9.552245033349369302E-18, 0.0000000000000000000, 0.07800000000000009703 ) ) ;
#141 = ORIENTED_EDGE ( 'NONE', *, *, #214, .T. ) ;
#142 = DIRECTION ( 'NONE',  ( -1.000000000000000000, 0.0000000000000000000, 0.0000000000000000000 ) ) ;
#143 = DIRECTION ( 'NONE',  ( 1.000000000000000000, 0.0000000000000000000, 0.0000000000000000000 ) ) ;
#144 = FILL_AREA_STYLE_COLOUR ( '', #129 ) ;
#145 = ORIENTED_EDGE ( 'NONE', *, *, #76, .T. ) ;
#146 = FACE_OUTER_BOUND ( 'NONE', #131, .T. ) ;
#147 = DIRECTION ( 'NONE',  ( 0.0000000000000000000, 0.0000000000000000000, 1.000000000000000000 ) ) ;
#148 = LINE ( 'NONE', #171, #121 ) ;
#149 = CIRCLE ( 'NONE', #97, 0.04750000000000064587 ) ;
#150 =( NAMED_UNIT ( * ) SI_UNIT ( $, .STERADIAN. ) SOLID_ANGLE_UNIT ( ) );
#151 = VECTOR ( 'NONE', #54, 39.37007874015748143 ) ;
#152 = LINE ( 'NONE', #188, #111 ) ;
#153 = CARTESIAN_POINT ( 'NONE',  ( 0.0000000000000000000, 0.0000000000000000000, 0.0000000000000000000 ) ) ;
#154 = FACE_OUTER_BOUND ( 'NONE', #165, .T. ) ;
#155 = CARTESIAN_POINT ( 'NONE',  ( 0.06250000000000002776, 7.654042494670959086E-18, 1.500000000000000222 ) ) ;
#156 = EDGE_CURVE ( 'NONE', #119, #64, #277, .T. ) ;
#157 = APPLICATION_CONTEXT ( 'automotive_design' ) ;
#158 = DIRECTION ( 'NONE',  ( 0.0000000000000000000, 0.0000000000000000000, 1.000000000000000000 ) ) ;
#159 = AXIS2_PLACEMENT_3D ( 'NONE', #232, #259, #125 ) ;
#160 = AXIS2_PLACEMENT_3D ( 'NONE', #285, #269, #92 ) ;
#161 = ADVANCED_FACE ( 'NONE', ( #128 ), #59, .T. ) ;
#162 = AXIS2_PLACEMENT_3D ( 'NONE', #83, #147, #21 ) ;
#163 = STYLED_ITEM ( 'NONE', ( #176 ), #216 ) ;
#164 =( CONVERSION_BASED_UNIT ( 'INCH', #29 ) LENGTH_UNIT ( ) NAMED_UNIT ( #266 ) );
#165 = EDGE_LOOP ( 'NONE', ( #284, #9 ) ) ;
#166 = ORIENTED_EDGE ( 'NONE', *, *, #79, .T. ) ;
#167 = EDGE_CURVE ( 'NONE', #207, #15, #60, .T. ) ;
#168 = DIRECTION ( 'NONE',  ( 0.0000000000000000000, 0.0000000000000000000, 1.000000000000000000 ) ) ;
#169 = DIRECTION ( 'NONE',  ( 0.7071067811865462405, 8.659560562354916834E-17, -0.7071067811865486830 ) ) ;
#170 = CARTESIAN_POINT ( 'NONE',  ( 4.213661705584329151E-17, 0.0000000000000000000, 0.3440715893364554301 ) ) ;
#171 = CARTESIAN_POINT ( 'NONE',  ( 0.01558440000000001387, 0.0000000000000000000, 0.07800000000000009703 ) ) ;
#172 = CYLINDRICAL_SURFACE ( 'NONE', #289, 0.06250000000000002776 ) ;
#173 = VECTOR ( 'NONE', #299, 39.37007874015748143 ) ;
#174 = EDGE_LOOP ( 'NONE', ( #218, #47, #166, #67 ) ) ;
#175 = CARTESIAN_POINT ( 'NONE',  ( 9.552245033349369302E-18, 0.0000000000000000000, 0.07800000000000009703 ) ) ;
#176 = PRESENTATION_STYLE_ASSIGNMENT (( #78 ) ) ;
#177 = DIRECTION ( 'NONE',  ( -0.0000000000000000000, -0.0000000000000000000, -1.000000000000000000 ) ) ;
#178 = CYLINDRICAL_SURFACE ( 'NONE', #254, 0.01558440000000000866 ) ;
#179 = STYLED_ITEM ( 'NONE', ( #3 ), #287 ) ;
#180 = CIRCLE ( 'NONE', #49, 0.01558440000000001387 ) ;
#181 = LINE ( 'NONE', #223, #118 ) ;
#182 = AXIS2_PLACEMENT_3D ( 'NONE', #113, #89, #100 ) ;
#183 = EDGE_CURVE ( 'NONE', #64, #119, #139, .T. ) ;
#184 = PRODUCT_DEFINITION_CONTEXT ( 'detailed design', #262, 'design' ) ;
#185 = ORIENTED_EDGE ( 'NONE', *, *, #295, .F. ) ;
#186 = ADVANCED_FACE ( 'NONE', ( #107 ), #172, .T. ) ;
#187 = ORIENTED_EDGE ( 'NONE', *, *, #156, .F. ) ;
#188 = CARTESIAN_POINT ( 'NONE',  ( -0.04750000000000064587, 0.0000000000000000000, 1.500000000000000222 ) ) ;
#189 = CARTESIAN_POINT ( 'NONE',  ( 0.0000000000000000000, 0.0000000000000000000, 1.500000000000000222 ) ) ;
#190 = AXIS2_PLACEMENT_3D ( 'NONE', #170, #222, #16 ) ;
#191 = DIRECTION ( 'NONE',  ( -1.224646799147353700E-16, -0.0000000000000000000, -1.000000000000000000 ) ) ;
#192 = CARTESIAN_POINT ( 'NONE',  ( -0.01558439999999999652, 4.781290526167081051E-18, 0.07800000000000009703 ) ) ;
#193 = ADVANCED_FACE ( 'NONE', ( #41 ), #274, .T. ) ;
#194 = CARTESIAN_POINT ( 'NONE',  ( -0.01558439999999999652, 1.908538557663201862E-18, 0.07800000000000009703 ) ) ;
#195 =( NAMED_UNIT ( * ) SI_UNIT ( $, .STERADIAN. ) SOLID_ANGLE_UNIT ( ) );
#196 = DIRECTION ( 'NONE',  ( 0.0000000000000000000, 0.0000000000000000000, 1.000000000000000000 ) ) ;
#197 = DIRECTION ( 'NONE',  ( -1.000000000000000000, 0.0000000000000000000, 0.0000000000000000000 ) ) ;
#198 = APPLICATION_PROTOCOL_DEFINITION ( 'draft international standard', 'automotive_design', 1998, #157 ) ;
#199 = CYLINDRICAL_SURFACE ( 'NONE', #213, 0.01558440000000000866 ) ;
#200 = CARTESIAN_POINT ( 'NONE',  ( 0.0000000000000000000, 0.0000000000000000000, 1.500000000000000222 ) ) ;
#201 = LINE ( 'NONE', #194, #72 ) ;
#202 = DIRECTION ( 'NONE',  ( 1.000000000000000000, 0.0000000000000000000, -0.0000000000000000000 ) ) ;
#203 = PRESENTATION_LAYER_ASSIGNMENT (  '', '', ( #163 ) ) ;
#204 = CARTESIAN_POINT ( 'NONE',  ( -0.01558440000000001387, 0.0000000000000000000, 3.817077115326407575E-18 ) ) ;
#205 = ADVANCED_FACE ( 'NONE', ( #291 ), #14, .T. ) ;
#206 = UNCERTAINTY_MEASURE_WITH_UNIT (LENGTH_MEASURE( 1.000000000000000082E-05 ), #126, 'distance_accuracy_value', 'NONE');
#207 = VERTEX_POINT ( 'NONE', #43 ) ;
#208 = ORIENTED_EDGE ( 'NONE', *, *, #214, .F. ) ;
#209 = DIRECTION ( 'NONE',  ( -1.224646799147353700E-16, -0.0000000000000000000, -1.000000000000000000 ) ) ;
#210 = AXIS2_PLACEMENT_3D ( 'NONE', #225, #110, #197 ) ;
#211 = SURFACE_STYLE_USAGE ( .BOTH. , #105 ) ;
#212 = ORIENTED_EDGE ( 'NONE', *, *, #253, .F. ) ;
#213 = AXIS2_PLACEMENT_3D ( 'NONE', #241, #82, #294 ) ;
#214 = EDGE_CURVE ( 'NONE', #207, #64, #252, .T. ) ;
#215 = CARTESIAN_POINT ( 'NONE',  ( 0.04750000000000064587, 6.735557395310483192E-18, 1.500000000000000222 ) ) ;
#216 = ADVANCED_BREP_SHAPE_REPRESENTATION ( 'Micro_EMS-031-4', ( #287, #162 ), #257 ) ;
#217 =( GEOMETRIC_REPRESENTATION_CONTEXT ( 3 ) GLOBAL_UNCERTAINTY_ASSIGNED_CONTEXT ( ( #45 ) ) GLOBAL_UNIT_ASSIGNED_CONTEXT ( ( #164, #122, #150 ) ) REPRESENTATION_CONTEXT ( 'NONE', 'WORKASPACE' ) );
#218 = ORIENTED_EDGE ( 'NONE', *, *, #115, .F. ) ;
#219 = AXIS2_PLACEMENT_3D ( 'NONE', #279, #283, #62 ) ;
#220 = DIRECTION ( 'NONE',  ( -0.1736481776669311639, 2.126576849575782392E-17, 0.9848077530122080203 ) ) ;
#221 = CARTESIAN_POINT ( 'NONE',  ( 0.0000000000000000000, 0.0000000000000000000, 1.500000000000000222 ) ) ;
#222 = DIRECTION ( 'NONE',  ( -1.224646799147353700E-16, -0.0000000000000000000, -1.000000000000000000 ) ) ;
#223 = CARTESIAN_POINT ( 'NONE',  ( -0.01558440000000000866, 0.0000000000000000000, 1.908538557663203017E-18 ) ) ;
#224 = ORIENTED_EDGE ( 'NONE', *, *, #238, .T. ) ;
#225 = CARTESIAN_POINT ( 'NONE',  ( 0.0000000000000000000, 0.0000000000000000000, 1.500000000000000222 ) ) ;
#226 = CARTESIAN_POINT ( 'NONE',  ( -0.06250000000000002776, 0.0000000000000000000, 1.485000000000000764 ) ) ;
#227 = AXIS2_PLACEMENT_3D ( 'NONE', #153, #196, #290 ) ;
#228 = ADVANCED_FACE ( 'NONE', ( #154 ), #61, .T. ) ;
#229 = ORIENTED_EDGE ( 'NONE', *, *, #183, .F. ) ;
#230 = CIRCLE ( 'NONE', #219, 0.04750000000000064587 ) ;
#231 = VERTEX_POINT ( 'NONE', #296 ) ;
#232 = CARTESIAN_POINT ( 'NONE',  ( 9.552245033349369302E-18, 0.0000000000000000000, 0.07800000000000009703 ) ) ;
#233 =( LENGTH_UNIT ( ) NAMED_UNIT ( * ) SI_UNIT ( $, .METRE. ) );
#234 = EDGE_LOOP ( 'NONE', ( #84, #141, #187, #212 ) ) ;
#235 = CIRCLE ( 'NONE', #63, 0.06250000000000002776 ) ;
#236 = FILL_AREA_STYLE ('',( #35 ) ) ;
#237 = ORIENTED_EDGE ( 'NONE', *, *, #10, .F. ) ;
#238 = EDGE_CURVE ( 'NONE', #94, #112, #181, .T. ) ;
#239 = DIRECTION ( 'NONE',  ( -1.000000000000000000, 0.0000000000000000000, 0.0000000000000000000 ) ) ;
#240 = SURFACE_STYLE_FILL_AREA ( #17 ) ;
#241 = CARTESIAN_POINT ( 'NONE',  ( 0.0000000000000000000, 0.0000000000000000000, 0.0000000000000000000 ) ) ;
#242 = DIRECTION ( 'NONE',  ( 1.000000000000000000, 0.0000000000000000000, 0.0000000000000000000 ) ) ;
#243 = EDGE_CURVE ( 'NONE', #5, #256, #65, .T. ) ;
#244 = FACE_OUTER_BOUND ( 'NONE', #261, .T. ) ;
#245 = APPLICATION_PROTOCOL_DEFINITION ( 'draft international standard', 'automotive_design', 1998, #262 ) ;
#246 = CARTESIAN_POINT ( 'NONE',  ( 2.337285635691549169E-34, 0.0000000000000000000, 1.908538557663203788E-18 ) ) ;
#247 = DIRECTION ( 'NONE',  ( -0.7071067811865462405, 0.0000000000000000000, -0.7071067811865486830 ) ) ;
#248 = DIRECTION ( 'NONE',  ( -1.000000000000000000, 0.0000000000000000000, 0.0000000000000000000 ) ) ;
#249 = CARTESIAN_POINT ( 'NONE',  ( -0.06249999999999997918, 0.0000000000000000000, 0.3440715893364554301 ) ) ;
#250 = CARTESIAN_POINT ( 'NONE',  ( 0.01558440000000000866, 1.908538557663202247E-18, -1.908538557663203017E-18 ) ) ;
#251 = ORIENTED_EDGE ( 'NONE', *, *, #76, .F. ) ;
#252 = LINE ( 'NONE', #155, #50 ) ;
#253 = EDGE_CURVE ( 'NONE', #15, #119, #52, .T. ) ;
#254 = AXIS2_PLACEMENT_3D ( 'NONE', #137, #70, #23 ) ;
#255 = VECTOR ( 'NONE', #169, 39.37007874015748854 ) ;
#256 = VERTEX_POINT ( 'NONE', #57 ) ;
#257 =( GEOMETRIC_REPRESENTATION_CONTEXT ( 3 ) GLOBAL_UNCERTAINTY_ASSIGNED_CONTEXT ( ( #275 ) ) GLOBAL_UNIT_ASSIGNED_CONTEXT ( ( #133, #36, #8 ) ) REPRESENTATION_CONTEXT ( 'NONE', 'WORKASPACE' ) );
#258 = CONICAL_SURFACE ( 'NONE', #159, 0.01558440000000000519, 0.1745329251994338360 ) ;
#259 = DIRECTION ( 'NONE',  ( 1.224646799147353700E-16, 0.0000000000000000000, 1.000000000000000000 ) ) ;
#260 = EDGE_CURVE ( 'NONE', #5, #94, #282, .T. ) ;
#261 = EDGE_LOOP ( 'NONE', ( #22, #145, #7, #237 ) ) ;
#262 = APPLICATION_CONTEXT ( 'automotive_design' ) ;
#263 = CARTESIAN_POINT ( 'NONE',  ( -0.06250000000000002776, 0.0000000000000000000, 1.500000000000000222 ) ) ;
#264 = LENGTH_MEASURE_WITH_UNIT ( LENGTH_MEASURE( 0.02539999999999999897 ), #86 );
#265 = FACE_OUTER_BOUND ( 'NONE', #1, .T. ) ;
#266 = DIMENSIONAL_EXPONENTS ( 1.000000000000000000, 0.0000000000000000000, 0.0000000000000000000, 0.0000000000000000000, 0.0000000000000000000, 0.0000000000000000000, 0.0000000000000000000 ) ;
#267 = CARTESIAN_POINT ( 'NONE',  ( 0.0000000000000000000, 0.0000000000000000000, 1.485000000000000764 ) ) ;
#268 = ORIENTED_EDGE ( 'NONE', *, *, #4, .T. ) ;
#269 = DIRECTION ( 'NONE',  ( -1.224646799147353700E-16, -0.0000000000000000000, -1.000000000000000000 ) ) ;
#270 = DIRECTION ( 'NONE',  ( -0.0000000000000000000, -0.0000000000000000000, -1.000000000000000000 ) ) ;
#271 = ADVANCED_FACE ( 'NONE', ( #146 ), #258, .T. ) ;
#272 = ORIENTED_EDGE ( 'NONE', *, *, #167, .F. ) ;
#273 = DIRECTION ( 'NONE',  ( 1.224646799147353700E-16, 0.0000000000000000000, 1.000000000000000000 ) ) ;
#274 = CONICAL_SURFACE ( 'NONE', #210, 0.04750000000000064587, 0.7853981633974466137 ) ;
#275 = UNCERTAINTY_MEASURE_WITH_UNIT (LENGTH_MEASURE( 1.000000000000000082E-05 ), #133, 'distance_accuracy_value', 'NONE');
#276 = AXIS2_PLACEMENT_3D ( 'NONE', #175, #273, #69 ) ;
#277 = CIRCLE ( 'NONE', #182, 0.06250000000000002776 ) ;
#278 = EDGE_LOOP ( 'NONE', ( #2, #268 ) ) ;
#279 = CARTESIAN_POINT ( 'NONE',  ( 0.0000000000000000000, 0.0000000000000000000, 1.500000000000000222 ) ) ;
#280 = SURFACE_SIDE_STYLE ('',( #240 ) ) ;
#281 = ORIENTED_EDGE ( 'NONE', *, *, #79, .F. ) ;
#282 = CIRCLE ( 'NONE', #34, 0.01558440000000000519 ) ;
#283 = DIRECTION ( 'NONE',  ( 0.0000000000000000000, 0.0000000000000000000, 1.000000000000000000 ) ) ;
#284 = ORIENTED_EDGE ( 'NONE', *, *, #295, .T. ) ;
#285 = CARTESIAN_POINT ( 'NONE',  ( 9.552245033349369302E-18, 0.0000000000000000000, 0.07800000000000009703 ) ) ;
#286 = ADVANCED_FACE ( 'NONE', ( #244 ), #38, .T. ) ;
#287 = MANIFOLD_SOLID_BREP ( 'Cut-Revolve1', #87 ) ;
#288 = DIRECTION ( 'NONE',  ( -1.224646799147353700E-16, -0.0000000000000000000, -1.000000000000000000 ) ) ;
#289 = AXIS2_PLACEMENT_3D ( 'NONE', #135, #270, #248 ) ;
#290 = DIRECTION ( 'NONE',  ( 1.000000000000000000, 0.0000000000000000000, -0.0000000000000000000 ) ) ;
#291 = FACE_OUTER_BOUND ( 'NONE', #174, .T. ) ;
#292 = CIRCLE ( 'NONE', #160, 0.01558440000000000519 ) ;
#293 = PRODUCT_CONTEXT ( 'NONE', #157, 'mechanical' ) ;
#294 = DIRECTION ( 'NONE',  ( -1.000000000000000000, 0.0000000000000000000, 1.224646799147353700E-16 ) ) ;
#295 = EDGE_CURVE ( 'NONE', #231, #42, #230, .T. ) ;
#296 = CARTESIAN_POINT ( 'NONE',  ( -0.04750000000000064587, 0.0000000000000000000, 1.500000000000000222 ) ) ;
#297 = AXIS2_PLACEMENT_3D ( 'NONE', #44, #209, #98 ) ;
#298 = COLOUR_RGB ( '',0.7921568627450980005, 0.8196078431372548767, 0.9333333333333333481 ) ;
#299 = DIRECTION ( 'NONE',  ( -1.224646799147353700E-16, -0.0000000000000000000, -1.000000000000000000 ) ) ;
ENDSEC;
END-ISO-10303-21;
