ISO-10303-21;
HEADER;
FILE_DESCRIPTION (( 'STEP AP214' ),
    '1' );
FILE_NAME ('06075.STEP',
    '2023-07-05T16:00:33',
    ( '' ),
    ( '' ),
    'SwSTEP 2.0',
    'SolidWorks 2023',
    '' );
FILE_SCHEMA (( 'AUTOMOTIVE_DESIGN' ));
ENDSEC;

DATA;
#1 =( LENGTH_UNIT ( ) NAMED_UNIT ( * ) SI_UNIT ( $, .METRE. ) );
#2 = PRESENTATION_STYLE_ASSIGNMENT (( #265 ) ) ;
#3 = ORIENTED_EDGE ( 'NONE', *, *, #157, .F. ) ;
#4 = DIRECTION ( 'NONE',  ( 0.000000000000000000, 0.000000000000000000, 1.000000000000000000 ) ) ;
#5 =( CONVERSION_BASED_UNIT ( 'INCH', #80 ) LENGTH_UNIT ( ) NAMED_UNIT ( #188 ) );
#6 = ORIENTED_EDGE ( 'NONE', *, *, #115, .T. ) ;
#7 = VECTOR ( 'NONE', #94, 39.37007874015748854 ) ;
#8 = ORIENTED_EDGE ( 'NONE', *, *, #115, .F. ) ;
#9 = CARTESIAN_POINT ( 'NONE',  ( 2.731847993664263218E-16, 0.2499999999999991118, 0.000000000000000000 ) ) ;
#10 = CARTESIAN_POINT ( 'NONE',  ( 0.2499999999999999722, 3.000000000000000444, 0.000000000000000000 ) ) ;
#11 = EDGE_CURVE ( 'NONE', #173, #50, #25, .T. ) ;
#12 = DIRECTION ( 'NONE',  ( 8.659560562354947649E-17, 0.7071067811865462405, -0.7071067811865486830 ) ) ;
#13 = LENGTH_MEASURE_WITH_UNIT ( LENGTH_MEASURE( 0.02539999999999999897 ), #107 );
#14 = AXIS2_PLACEMENT_3D ( 'NONE', #198, #88, #177 ) ;
#15 = ADVANCED_FACE ( 'NONE', ( #176 ), #197, .T. ) ;
#16 = SURFACE_SIDE_STYLE ('',( #114 ) ) ;
#17 = COLOUR_RGB ( '',0.7921568627450980005, 0.8196078431372548767, 0.9333333333333333481 ) ;
#18 = PRESENTATION_LAYER_ASSIGNMENT (  '', '', ( #22 ) ) ;
#19 = EDGE_LOOP ( 'NONE', ( #248, #83 ) ) ;
#20 = CARTESIAN_POINT ( 'NONE',  ( 0.000000000000000000, 0.000000000000000000, 0.000000000000000000 ) ) ;
#21 = ORIENTED_EDGE ( 'NONE', *, *, #129, .F. ) ;
#22 = STYLED_ITEM ( 'NONE', ( #219 ), #135 ) ;
#23 = STYLED_ITEM ( 'NONE', ( #139 ), #205 ) ;
#24 = DIRECTION ( 'NONE',  ( 0.000000000000000000, 0.000000000000000000, 1.000000000000000000 ) ) ;
#25 = LINE ( 'NONE', #133, #58 ) ;
#26 = AXIS2_PLACEMENT_3D ( 'NONE', #143, #202, #72 ) ;
#27 = DIRECTION ( 'NONE',  ( -0.000000000000000000, -1.000000000000000000, -0.000000000000000000 ) ) ;
#28 = FACE_OUTER_BOUND ( 'NONE', #63, .T. ) ;
#29 = CARTESIAN_POINT ( 'NONE',  ( -0.2499999999999999167, 3.000000000000000444, 0.000000000000000000 ) ) ;
#30 = EDGE_LOOP ( 'NONE', ( #3, #214 ) ) ;
#31 = DIRECTION ( 'NONE',  ( -1.216062324813796344E-16, 1.000000000000000000, -0.000000000000000000 ) ) ;
#32 = SURFACE_SIDE_STYLE ('',( #105 ) ) ;
#33 = MECHANICAL_DESIGN_GEOMETRIC_PRESENTATION_REPRESENTATION (  '', ( #64 ), #199 ) ;
#34 = DIMENSIONAL_EXPONENTS ( 1.000000000000000000, 0.000000000000000000, 0.000000000000000000, 0.000000000000000000, 0.000000000000000000, 0.000000000000000000, 0.000000000000000000 ) ;
#35 = CARTESIAN_POINT ( 'NONE',  ( -6.123233995736772199E-17, 3.000000000000000444, 0.000000000000000000 ) ) ;
#36 = CLOSED_SHELL ( 'NONE', ( #172, #55, #205 ) ) ;
#37 = COLOUR_RGB ( '',1.000000000000000000, 0.000000000000000000, 0.000000000000000000 ) ;
#38 = CARTESIAN_POINT ( 'NONE',  ( 0.000000000000000000, 0.000000000000000000, 0.000000000000000000 ) ) ;
#39 = FACE_OUTER_BOUND ( 'NONE', #190, .T. ) ;
#40 = EDGE_CURVE ( 'NONE', #106, #148, #212, .T. ) ;
#41 = ORIENTED_EDGE ( 'NONE', *, *, #11, .T. ) ;
#42 = DIRECTION ( 'NONE',  ( 0.000000000000000000, 0.000000000000000000, 1.000000000000000000 ) ) ;
#43 = PRESENTATION_LAYER_ASSIGNMENT (  '', '', ( #256 ) ) ;
#44 = PLANE ( 'NONE',  #73 ) ;
#45 =( NAMED_UNIT ( * ) SI_UNIT ( $, .STERADIAN. ) SOLID_ANGLE_UNIT ( ) );
#46 =( NAMED_UNIT ( * ) PLANE_ANGLE_UNIT ( ) SI_UNIT ( $, .RADIAN. ) );
#47 = DIRECTION ( 'NONE',  ( -1.000000000000000000, 0.000000000000000000, 0.000000000000000000 ) ) ;
#48 = ORIENTED_EDGE ( 'NONE', *, *, #100, .F. ) ;
#49 =( CONVERSION_BASED_UNIT ( 'INCH', #13 ) LENGTH_UNIT ( ) NAMED_UNIT ( #263 ) );
#50 = VERTEX_POINT ( 'NONE', #51 ) ;
#51 = CARTESIAN_POINT ( 'NONE',  ( 0.2499999999999999722, 3.000000000000000444, 3.061616997868383018E-17 ) ) ;
#52 =( NAMED_UNIT ( * ) SI_UNIT ( $, .STERADIAN. ) SOLID_ANGLE_UNIT ( ) );
#53 = AXIS2_PLACEMENT_3D ( 'NONE', #10, #85, #179 ) ;
#54 = CARTESIAN_POINT ( 'NONE',  ( 0.000000000000000000, 0.000000000000000000, 0.000000000000000000 ) ) ;
#55 = ADVANCED_FACE ( 'NONE', ( #180 ), #44, .T. ) ;
#56 = DIRECTION ( 'NONE',  ( -1.216062324813796344E-16, 1.000000000000000000, -0.000000000000000000 ) ) ;
#57 = DIMENSIONAL_EXPONENTS ( 1.000000000000000000, 0.000000000000000000, 0.000000000000000000, 0.000000000000000000, 0.000000000000000000, 0.000000000000000000, 0.000000000000000000 ) ;
#58 = VECTOR ( 'NONE', #155, 39.37007874015748143 ) ;
#59 = UNCERTAINTY_MEASURE_WITH_UNIT (LENGTH_MEASURE( 1.000000000000000082E-05 ), #201, 'distance_accuracy_value', 'NONE');
#60 = EDGE_CURVE ( 'NONE', #210, #77, #108, .T. ) ;
#61 = DIRECTION ( 'NONE',  ( 0.000000000000000000, 1.000000000000000000, 0.000000000000000000 ) ) ;
#62 =( NAMED_UNIT ( * ) PLANE_ANGLE_UNIT ( ) SI_UNIT ( $, .RADIAN. ) );
#63 = EDGE_LOOP ( 'NONE', ( #145, #6 ) ) ;
#64 = STYLED_ITEM ( 'NONE', ( #131 ), #55 ) ;
#65 = DIRECTION ( 'NONE',  ( 0.000000000000000000, 1.000000000000000000, 0.000000000000000000 ) ) ;
#66 = ORIENTED_EDGE ( 'NONE', *, *, #92, .T. ) ;
#67 = DIRECTION ( 'NONE',  ( -1.000000000000000000, -1.216062324813796344E-16, 0.000000000000000000 ) ) ;
#68 = SURFACE_STYLE_USAGE ( .BOTH. , #16 ) ;
#69 = PRESENTATION_LAYER_ASSIGNMENT (  '', '', ( #64 ) ) ;
#70 = APPLICATION_CONTEXT ( 'automotive_design' ) ;
#71 = CARTESIAN_POINT ( 'NONE',  ( 2.731847993664263711E-16, 0.2499999999999992506, 0.000000000000000000 ) ) ;
#72 = DIRECTION ( 'NONE',  ( 0.000000000000000000, 0.000000000000000000, -1.000000000000000000 ) ) ;
#73 = AXIS2_PLACEMENT_3D ( 'NONE', #183, #65, #153 ) ;
#74 = ADVANCED_FACE ( 'NONE', ( #103 ), #194, .F. ) ;
#75 = SURFACE_SIDE_STYLE ('',( #166 ) ) ;
#76 =( LENGTH_UNIT ( ) NAMED_UNIT ( * ) SI_UNIT ( $, .METRE. ) );
#77 = VERTEX_POINT ( 'NONE', #233 ) ;
#78 = CIRCLE ( 'NONE', #14, 0.2499999999999996947 ) ;
#79 = COLOUR_RGB ( '',1.000000000000000000, 0.000000000000000000, 0.000000000000000000 ) ;
#80 = LENGTH_MEASURE_WITH_UNIT ( LENGTH_MEASURE( 0.02539999999999999897 ), #76 );
#81 = ORIENTED_EDGE ( 'NONE', *, *, #40, .T. ) ;
#82 = STYLED_ITEM ( 'NONE', ( #90 ), #141 ) ;
#83 = ORIENTED_EDGE ( 'NONE', *, *, #110, .F. ) ;
#84 = ORIENTED_EDGE ( 'NONE', *, *, #60, .T. ) ;
#85 = DIRECTION ( 'NONE',  ( 1.216062324813796344E-16, -1.000000000000000000, 0.000000000000000000 ) ) ;
#86 = DIRECTION ( 'NONE',  ( -1.000000000000000000, 0.000000000000000000, 0.000000000000000000 ) ) ;
#87 = PRODUCT_DEFINITION_FORMATION_WITH_SPECIFIED_SOURCE ( 'ANY', '', #207, .NOT_KNOWN. ) ;
#88 = DIRECTION ( 'NONE',  ( -1.216062324813796344E-16, 1.000000000000000000, -0.000000000000000000 ) ) ;
#89 = CARTESIAN_POINT ( 'NONE',  ( -6.123233995736772199E-17, 3.000000000000000444, 0.000000000000000000 ) ) ;
#90 = PRESENTATION_STYLE_ASSIGNMENT (( #134 ) ) ;
#91 = DIRECTION ( 'NONE',  ( -1.000000000000000000, 0.000000000000000000, 0.000000000000000000 ) ) ;
#92 = EDGE_CURVE ( 'NONE', #173, #106, #240, .T. ) ;
#93 = DIMENSIONAL_EXPONENTS ( 1.000000000000000000, 0.000000000000000000, 0.000000000000000000, 0.000000000000000000, 0.000000000000000000, 0.000000000000000000, 0.000000000000000000 ) ;
#94 = DIRECTION ( 'NONE',  ( 0.000000000000000000, 0.7071067811865462405, 0.7071067811865486830 ) ) ;
#95 = CIRCLE ( 'NONE', #244, 0.2500000000000000555 ) ;
#96 = SURFACE_STYLE_FILL_AREA ( #146 ) ;
#97 = CARTESIAN_POINT ( 'NONE',  ( 0.000000000000000000, 0.2499999999999991118, 0.2499999999999999722 ) ) ;
#98 = EDGE_LOOP ( 'NONE', ( #117, #66, #81, #8 ) ) ;
#99 = APPLICATION_PROTOCOL_DEFINITION ( 'draft international standard', 'automotive_design', 1998, #70 ) ;
#100 = EDGE_CURVE ( 'NONE', #192, #210, #221, .T. ) ;
#101 = DIRECTION ( 'NONE',  ( 0.000000000000000000, 0.000000000000000000, -1.000000000000000000 ) ) ;
#102 = CONICAL_SURFACE ( 'NONE', #204, 39.37007874015762354, 0.7853981633974500554 ) ;
#103 = FACE_OUTER_BOUND ( 'NONE', #30, .T. ) ;
#104 = FILL_AREA_STYLE ('',( #236 ) ) ;
#105 = SURFACE_STYLE_FILL_AREA ( #127 ) ;
#106 = VERTEX_POINT ( 'NONE', #163 ) ;
#107 =( LENGTH_UNIT ( ) NAMED_UNIT ( * ) SI_UNIT ( $, .METRE. ) );
#108 = CIRCLE ( 'NONE', #218, 0.2499999999999999722 ) ;
#109 = DIRECTION ( 'NONE',  ( -1.216062324813796344E-16, 1.000000000000000000, -0.000000000000000000 ) ) ;
#110 = EDGE_CURVE ( 'NONE', #77, #210, #147, .T. ) ;
#111 = FACE_OUTER_BOUND ( 'NONE', #246, .T. ) ;
#112 = DIMENSIONAL_EXPONENTS ( 1.000000000000000000, 0.000000000000000000, 0.000000000000000000, 0.000000000000000000, 0.000000000000000000, 0.000000000000000000, 0.000000000000000000 ) ;
#113 = FILL_AREA_STYLE_COLOUR ( '', #159 ) ;
#114 = SURFACE_STYLE_FILL_AREA ( #165 ) ;
#115 = EDGE_CURVE ( 'NONE', #50, #148, #95, .T. ) ;
#116 = UNCERTAINTY_MEASURE_WITH_UNIT (LENGTH_MEASURE( 1.000000000000000082E-05 ), #175, 'distance_accuracy_value', 'NONE');
#117 = ORIENTED_EDGE ( 'NONE', *, *, #11, .F. ) ;
#118 =( GEOMETRIC_REPRESENTATION_CONTEXT ( 3 ) GLOBAL_UNCERTAINTY_ASSIGNED_CONTEXT ( ( #231 ) ) GLOBAL_UNIT_ASSIGNED_CONTEXT ( ( #260, #215, #52 ) ) REPRESENTATION_CONTEXT ( 'NONE', 'WORKASPACE' ) );
#119 =( GEOMETRIC_REPRESENTATION_CONTEXT ( 3 ) GLOBAL_UNCERTAINTY_ASSIGNED_CONTEXT ( ( #116 ) ) GLOBAL_UNIT_ASSIGNED_CONTEXT ( ( #175, #247, #45 ) ) REPRESENTATION_CONTEXT ( 'NONE', 'WORKASPACE' ) );
#120 = PRODUCT_DEFINITION_SHAPE ( 'NONE', 'NONE',  #187 ) ;
#121 = FILL_AREA_STYLE_COLOUR ( '', #184 ) ;
#122 = DIRECTION ( 'NONE',  ( 0.000000000000000000, 1.000000000000000000, 0.000000000000000000 ) ) ;
#123 = SURFACE_SIDE_STYLE ('',( #96 ) ) ;
#124 = LENGTH_MEASURE_WITH_UNIT ( LENGTH_MEASURE( 0.02539999999999999897 ), #211 );
#125 = AXIS2_PLACEMENT_3D ( 'NONE', #20, #24, #154 ) ;
#126 = CARTESIAN_POINT ( 'NONE',  ( 0.000000000000000000, 0.2499999999999991118, 0.000000000000000000 ) ) ;
#127 = FILL_AREA_STYLE ('',( #238 ) ) ;
#128 = AXIS2_PLACEMENT_3D ( 'NONE', #9, #253, #67 ) ;
#129 = EDGE_CURVE ( 'NONE', #148, #50, #249, .T. ) ;
#130 = PRODUCT_RELATED_PRODUCT_CATEGORY ( 'part', '', ( #207 ) ) ;
#131 = PRESENTATION_STYLE_ASSIGNMENT (( #254 ) ) ;
#132 =( NAMED_UNIT ( * ) SI_UNIT ( $, .STERADIAN. ) SOLID_ANGLE_UNIT ( ) );
#133 = CARTESIAN_POINT ( 'NONE',  ( 0.2499999999999998057, 3.000000000000000444, 3.061616997868381785E-17 ) ) ;
#134 = SURFACE_STYLE_USAGE ( .BOTH. , #32 ) ;
#135 = MANIFOLD_SOLID_BREP ( 'Revolve - Cutting Edge', #36 ) ;
#136 = ORIENTED_EDGE ( 'NONE', *, *, #158, .T. ) ;
#137 = PRODUCT_DEFINITION_CONTEXT ( 'detailed design', #257, 'design' ) ;
#138 = AXIS2_PLACEMENT_3D ( 'NONE', #35, #144, #91 ) ;
#139 = PRESENTATION_STYLE_ASSIGNMENT (( #241 ) ) ;
#140 = DIRECTION ( 'NONE',  ( -1.216062324813796344E-16, 1.000000000000000000, -0.000000000000000000 ) ) ;
#141 = MANIFOLD_SOLID_BREP ( 'Revolve - Tool Body (Pointed)', #228 ) ;
#142 = VECTOR ( 'NONE', #31, 39.37007874015748143 ) ;
#143 = CARTESIAN_POINT ( 'NONE',  ( 0.000000000000000000, 0.2499999999999991118, 0.000000000000000000 ) ) ;
#144 = DIRECTION ( 'NONE',  ( -1.216062324813796344E-16, 1.000000000000000000, -0.000000000000000000 ) ) ;
#145 = ORIENTED_EDGE ( 'NONE', *, *, #129, .T. ) ;
#146 = FILL_AREA_STYLE ('',( #121 ) ) ;
#147 = CIRCLE ( 'NONE', #26, 0.2499999999999999722 ) ;
#148 = VERTEX_POINT ( 'NONE', #242 ) ;
#149 = LENGTH_MEASURE_WITH_UNIT ( LENGTH_MEASURE( 0.02539999999999999897 ), #1 );
#150 =( NAMED_UNIT ( * ) SI_UNIT ( $, .STERADIAN. ) SOLID_ANGLE_UNIT ( ) );
#151 = AXIS2_PLACEMENT_3D ( 'NONE', #89, #251, #86 ) ;
#152 = MECHANICAL_DESIGN_GEOMETRIC_PRESENTATION_REPRESENTATION (  '', ( #23 ), #119 ) ;
#153 = DIRECTION ( 'NONE',  ( 0.000000000000000000, -0.000000000000000000, 1.000000000000000000 ) ) ;
#154 = DIRECTION ( 'NONE',  ( 1.000000000000000000, 0.000000000000000000, 0.000000000000000000 ) ) ;
#155 = DIRECTION ( 'NONE',  ( -1.216062324813796344E-16, 1.000000000000000000, -0.000000000000000000 ) ) ;
#156 = CARTESIAN_POINT ( 'NONE',  ( -6.123233995736772199E-17, 3.000000000000000444, 0.000000000000000000 ) ) ;
#157 = EDGE_CURVE ( 'NONE', #106, #173, #78, .T. ) ;
#158 = EDGE_CURVE ( 'NONE', #192, #77, #182, .T. ) ;
#159 = COLOUR_RGB ( '',0.7921568627450980005, 0.8196078431372548767, 0.9333333333333333481 ) ;
#160 = LENGTH_MEASURE_WITH_UNIT ( LENGTH_MEASURE( 0.02539999999999999897 ), #196 );
#161 = FACE_OUTER_BOUND ( 'NONE', #98, .T. ) ;
#162 = ADVANCED_FACE ( 'NONE', ( #161 ), #255, .T. ) ;
#163 = CARTESIAN_POINT ( 'NONE',  ( -0.2499999999999994171, 0.2499999999999992228, 0.000000000000000000 ) ) ;
#164 = ADVANCED_FACE ( 'NONE', ( #28 ), #195, .F. ) ;
#165 = FILL_AREA_STYLE ('',( #113 ) ) ;
#166 = SURFACE_STYLE_FILL_AREA ( #169 ) ;
#167 = VECTOR ( 'NONE', #12, 39.37007874015748854 ) ;
#168 = DIRECTION ( 'NONE',  ( -1.000000000000000000, 0.000000000000000000, 0.000000000000000000 ) ) ;
#169 = FILL_AREA_STYLE ('',( #243 ) ) ;
#170 = ORIENTED_EDGE ( 'NONE', *, *, #100, .T. ) ;
#171 =( NAMED_UNIT ( * ) PLANE_ANGLE_UNIT ( ) SI_UNIT ( $, .RADIAN. ) );
#172 = ADVANCED_FACE ( 'NONE', ( #39 ), #245, .T. ) ;
#173 = VERTEX_POINT ( 'NONE', #227 ) ;
#174 = PRESENTATION_LAYER_ASSIGNMENT (  '', '', ( #82 ) ) ;
#175 =( CONVERSION_BASED_UNIT ( 'INCH', #124 ) LENGTH_UNIT ( ) NAMED_UNIT ( #112 ) );
#176 = FACE_OUTER_BOUND ( 'NONE', #216, .T. ) ;
#177 = DIRECTION ( 'NONE',  ( -1.000000000000000000, -1.365923996832133335E-16, 0.000000000000000000 ) ) ;
#178 = ORIENTED_EDGE ( 'NONE', *, *, #158, .F. ) ;
#179 = DIRECTION ( 'NONE',  ( 1.000000000000000000, 1.216062324813796344E-16, 0.000000000000000000 ) ) ;
#180 = FACE_OUTER_BOUND ( 'NONE', #19, .T. ) ;
#181 =( NAMED_UNIT ( * ) PLANE_ANGLE_UNIT ( ) SI_UNIT ( $, .RADIAN. ) );
#182 = LINE ( 'NONE', #252, #167 ) ;
#183 = CARTESIAN_POINT ( 'NONE',  ( 0.000000000000000000, 0.2499999999999991118, 0.000000000000000000 ) ) ;
#184 = COLOUR_RGB ( '',1.000000000000000000, 0.000000000000000000, 0.000000000000000000 ) ;
#185 = UNCERTAINTY_MEASURE_WITH_UNIT (LENGTH_MEASURE( 1.000000000000000082E-05 ), #49, 'distance_accuracy_value', 'NONE');
#186 = LENGTH_MEASURE_WITH_UNIT ( LENGTH_MEASURE( 0.02539999999999999897 ), #220 );
#187 = PRODUCT_DEFINITION ( 'UNKNOWN', '', #87, #137 ) ;
#188 = DIMENSIONAL_EXPONENTS ( 1.000000000000000000, 0.000000000000000000, 0.000000000000000000, 0.000000000000000000, 0.000000000000000000, 0.000000000000000000, 0.000000000000000000 ) ;
#189 = CARTESIAN_POINT ( 'NONE',  ( 0.000000000000000000, 39.37007874015748143, 0.000000000000000000 ) ) ;
#190 = EDGE_LOOP ( 'NONE', ( #48, #136, #208 ) ) ;
#191 = MECHANICAL_DESIGN_GEOMETRIC_PRESENTATION_REPRESENTATION (  '', ( #82 ), #203 ) ;
#192 = VERTEX_POINT ( 'NONE', #38 ) ;
#193 =( GEOMETRIC_REPRESENTATION_CONTEXT ( 3 ) GLOBAL_UNCERTAINTY_ASSIGNED_CONTEXT ( ( #223 ) ) GLOBAL_UNIT_ASSIGNED_CONTEXT ( ( #5, #62, #150 ) ) REPRESENTATION_CONTEXT ( 'NONE', 'WORKASPACE' ) );
#194 = PLANE ( 'NONE',  #128 ) ;
#195 = PLANE ( 'NONE',  #53 ) ;
#196 =( LENGTH_UNIT ( ) NAMED_UNIT ( * ) SI_UNIT ( $, .METRE. ) );
#197 = CYLINDRICAL_SURFACE ( 'NONE', #151, 0.2499999999999998612 ) ;
#198 = CARTESIAN_POINT ( 'NONE',  ( 2.731847993664263711E-16, 0.2499999999999992506, 0.000000000000000000 ) ) ;
#199 =( GEOMETRIC_REPRESENTATION_CONTEXT ( 3 ) GLOBAL_UNCERTAINTY_ASSIGNED_CONTEXT ( ( #59 ) ) GLOBAL_UNIT_ASSIGNED_CONTEXT ( ( #201, #46, #237 ) ) REPRESENTATION_CONTEXT ( 'NONE', 'WORKASPACE' ) );
#200 = PRESENTATION_LAYER_ASSIGNMENT (  '', '', ( #23 ) ) ;
#201 =( CONVERSION_BASED_UNIT ( 'INCH', #160 ) LENGTH_UNIT ( ) NAMED_UNIT ( #34 ) );
#202 = DIRECTION ( 'NONE',  ( -0.000000000000000000, -1.000000000000000000, -0.000000000000000000 ) ) ;
#203 =( GEOMETRIC_REPRESENTATION_CONTEXT ( 3 ) GLOBAL_UNCERTAINTY_ASSIGNED_CONTEXT ( ( #185 ) ) GLOBAL_UNIT_ASSIGNED_CONTEXT ( ( #49, #181, #132 ) ) REPRESENTATION_CONTEXT ( 'NONE', 'WORKASPACE' ) );
#204 = AXIS2_PLACEMENT_3D ( 'NONE', #262, #122, #4 ) ;
#205 = ADVANCED_FACE ( 'NONE', ( #111 ), #102, .T. ) ;
#206 = MECHANICAL_DESIGN_GEOMETRIC_PRESENTATION_REPRESENTATION (  '', ( #256 ), #193 ) ;
#207 = PRODUCT ( '06075', '06075', '', ( #209 ) ) ;
#208 = ORIENTED_EDGE ( 'NONE', *, *, #110, .T. ) ;
#209 = PRODUCT_CONTEXT ( 'NONE', #70, 'mechanical' ) ;
#210 = VERTEX_POINT ( 'NONE', #97 ) ;
#211 =( LENGTH_UNIT ( ) NAMED_UNIT ( * ) SI_UNIT ( $, .METRE. ) );
#212 = LINE ( 'NONE', #29, #142 ) ;
#213 =( CONVERSION_BASED_UNIT ( 'INCH', #149 ) LENGTH_UNIT ( ) NAMED_UNIT ( #57 ) );
#214 = ORIENTED_EDGE ( 'NONE', *, *, #92, .F. ) ;
#215 =( NAMED_UNIT ( * ) PLANE_ANGLE_UNIT ( ) SI_UNIT ( $, .RADIAN. ) );
#216 = EDGE_LOOP ( 'NONE', ( #225, #41, #21, #229 ) ) ;
#217 = SURFACE_SIDE_STYLE ('',( #232 ) ) ;
#218 = AXIS2_PLACEMENT_3D ( 'NONE', #126, #27, #101 ) ;
#219 = PRESENTATION_STYLE_ASSIGNMENT (( #68 ) ) ;
#220 =( LENGTH_UNIT ( ) NAMED_UNIT ( * ) SI_UNIT ( $, .METRE. ) );
#221 = LINE ( 'NONE', #54, #7 ) ;
#222 = AXIS2_PLACEMENT_3D ( 'NONE', #71, #140, #261 ) ;
#223 = UNCERTAINTY_MEASURE_WITH_UNIT (LENGTH_MEASURE( 1.000000000000000082E-05 ), #5, 'distance_accuracy_value', 'NONE');
#224 = MECHANICAL_DESIGN_GEOMETRIC_PRESENTATION_REPRESENTATION (  '', ( #22 ), #118 ) ;
#225 = ORIENTED_EDGE ( 'NONE', *, *, #157, .T. ) ;
#226 = APPLICATION_PROTOCOL_DEFINITION ( 'draft international standard', 'automotive_design', 1998, #257 ) ;
#227 = CARTESIAN_POINT ( 'NONE',  ( 0.2499999999999999722, 0.2499999999999992784, 3.061616997868383018E-17 ) ) ;
#228 = CLOSED_SHELL ( 'NONE', ( #15, #74, #162, #164 ) ) ;
#229 = ORIENTED_EDGE ( 'NONE', *, *, #40, .F. ) ;
#230 =( NAMED_UNIT ( * ) SI_UNIT ( $, .STERADIAN. ) SOLID_ANGLE_UNIT ( ) );
#231 = UNCERTAINTY_MEASURE_WITH_UNIT (LENGTH_MEASURE( 1.000000000000000082E-05 ), #260, 'distance_accuracy_value', 'NONE');
#232 = SURFACE_STYLE_FILL_AREA ( #104 ) ;
#233 = CARTESIAN_POINT ( 'NONE',  ( 3.061616997868383018E-17, 0.2499999999999991118, -0.2499999999999999722 ) ) ;
#234 = UNCERTAINTY_MEASURE_WITH_UNIT (LENGTH_MEASURE( 1.000000000000000082E-05 ), #213, 'distance_accuracy_value', 'NONE');
#235 =( GEOMETRIC_REPRESENTATION_CONTEXT ( 3 ) GLOBAL_UNCERTAINTY_ASSIGNED_CONTEXT ( ( #234 ) ) GLOBAL_UNIT_ASSIGNED_CONTEXT ( ( #213, #171, #230 ) ) REPRESENTATION_CONTEXT ( 'NONE', 'WORKASPACE' ) );
#236 = FILL_AREA_STYLE_COLOUR ( '', #37 ) ;
#237 =( NAMED_UNIT ( * ) SI_UNIT ( $, .STERADIAN. ) SOLID_ANGLE_UNIT ( ) );
#238 = FILL_AREA_STYLE_COLOUR ( '', #17 ) ;
#239 = ADVANCED_BREP_SHAPE_REPRESENTATION ( '06075', ( #135, #141, #125 ), #235 ) ;
#240 = CIRCLE ( 'NONE', #222, 0.2499999999999996947 ) ;
#241 = SURFACE_STYLE_USAGE ( .BOTH. , #75 ) ;
#242 = CARTESIAN_POINT ( 'NONE',  ( -0.2500000000000001110, 3.000000000000000444, 0.000000000000000000 ) ) ;
#243 = FILL_AREA_STYLE_COLOUR ( '', #79 ) ;
#244 = AXIS2_PLACEMENT_3D ( 'NONE', #258, #56, #168 ) ;
#245 = CONICAL_SURFACE ( 'NONE', #264, 39.37007874015762354, 0.7853981633974500554 ) ;
#246 = EDGE_LOOP ( 'NONE', ( #178, #170, #84 ) ) ;
#247 =( NAMED_UNIT ( * ) PLANE_ANGLE_UNIT ( ) SI_UNIT ( $, .RADIAN. ) );
#248 = ORIENTED_EDGE ( 'NONE', *, *, #60, .F. ) ;
#249 = CIRCLE ( 'NONE', #138, 0.2500000000000000555 ) ;
#250 = SHAPE_DEFINITION_REPRESENTATION ( #120, #239 ) ;
#251 = DIRECTION ( 'NONE',  ( -1.216062324813796344E-16, 1.000000000000000000, -0.000000000000000000 ) ) ;
#252 = CARTESIAN_POINT ( 'NONE',  ( 0.000000000000000000, 0.000000000000000000, 0.000000000000000000 ) ) ;
#253 = DIRECTION ( 'NONE',  ( -1.216062324813796344E-16, 1.000000000000000000, 0.000000000000000000 ) ) ;
#254 = SURFACE_STYLE_USAGE ( .BOTH. , #217 ) ;
#255 = CYLINDRICAL_SURFACE ( 'NONE', #259, 0.2499999999999998612 ) ;
#256 = STYLED_ITEM ( 'NONE', ( #2 ), #172 ) ;
#257 = APPLICATION_CONTEXT ( 'automotive_design' ) ;
#258 = CARTESIAN_POINT ( 'NONE',  ( -6.123233995736772199E-17, 3.000000000000000444, 0.000000000000000000 ) ) ;
#259 = AXIS2_PLACEMENT_3D ( 'NONE', #156, #109, #47 ) ;
#260 =( CONVERSION_BASED_UNIT ( 'INCH', #186 ) LENGTH_UNIT ( ) NAMED_UNIT ( #93 ) );
#261 = DIRECTION ( 'NONE',  ( -1.000000000000000000, -1.365923996832133335E-16, 0.000000000000000000 ) ) ;
#262 = CARTESIAN_POINT ( 'NONE',  ( 0.000000000000000000, 39.37007874015748143, 0.000000000000000000 ) ) ;
#263 = DIMENSIONAL_EXPONENTS ( 1.000000000000000000, 0.000000000000000000, 0.000000000000000000, 0.000000000000000000, 0.000000000000000000, 0.000000000000000000, 0.000000000000000000 ) ;
#264 = AXIS2_PLACEMENT_3D ( 'NONE', #189, #61, #42 ) ;
#265 = SURFACE_STYLE_USAGE ( .BOTH. , #123 ) ;
ENDSEC;
END-ISO-10303-21;
