ISO-10303-21;
HEADER;
FILE_DESCRIPTION (( 'STEP AP214' ),
    '1' );
FILE_NAME ('06270.STEP',
    '2023-07-05T16:01:28',
    ( '' ),
    ( '' ),
    'SwSTEP 2.0',
    'SolidWorks 2023',
    '' );
FILE_SCHEMA (( 'AUTOMOTIVE_DESIGN' ));
ENDSEC;

DATA;
#1 = ORIENTED_EDGE ( 'NONE', *, *, #24, .T. ) ;
#2 = ADVANCED_BREP_SHAPE_REPRESENTATION ( '06270', ( #137, #54, #30 ), #261 ) ;
#3 = LENGTH_MEASURE_WITH_UNIT ( LENGTH_MEASURE( 0.02539999999999999897 ), #60 );
#4 = EDGE_LOOP ( 'NONE', ( #139, #248 ) ) ;
#5 = FILL_AREA_STYLE_COLOUR ( '', #171 ) ;
#6 = PRODUCT_DEFINITION_FORMATION_WITH_SPECIFIED_SOURCE ( 'ANY', '', #114, .NOT_KNOWN. ) ;
#7 = DIRECTION ( 'NONE',  ( -1.000000000000000000, 0.000000000000000000, 0.000000000000000000 ) ) ;
#8 = FILL_AREA_STYLE_COLOUR ( '', #161 ) ;
#9 = MECHANICAL_DESIGN_GEOMETRIC_PRESENTATION_REPRESENTATION (  '', ( #246 ), #76 ) ;
#10 = STYLED_ITEM ( 'NONE', ( #99 ), #152 ) ;
#11 =( CONVERSION_BASED_UNIT ( 'INCH', #233 ) LENGTH_UNIT ( ) NAMED_UNIT ( #16 ) );
#12 = FILL_AREA_STYLE_COLOUR ( '', #35 ) ;
#13 = ADVANCED_FACE ( 'NONE', ( #64 ), #124, .T. ) ;
#14 = AXIS2_PLACEMENT_3D ( 'NONE', #133, #72, #112 ) ;
#15 = PRODUCT_DEFINITION_CONTEXT ( 'detailed design', #207, 'design' ) ;
#16 = DIMENSIONAL_EXPONENTS ( 1.000000000000000000, 0.000000000000000000, 0.000000000000000000, 0.000000000000000000, 0.000000000000000000, 0.000000000000000000, 0.000000000000000000 ) ;
#17 = PRESENTATION_LAYER_ASSIGNMENT (  '', '', ( #255 ) ) ;
#18 = AXIS2_PLACEMENT_3D ( 'NONE', #204, #78, #116 ) ;
#19 = APPLICATION_PROTOCOL_DEFINITION ( 'draft international standard', 'automotive_design', 1998, #207 ) ;
#20 = VERTEX_POINT ( 'NONE', #107 ) ;
#21 = DIMENSIONAL_EXPONENTS ( 1.000000000000000000, 0.000000000000000000, 0.000000000000000000, 0.000000000000000000, 0.000000000000000000, 0.000000000000000000, 0.000000000000000000 ) ;
#22 =( LENGTH_UNIT ( ) NAMED_UNIT ( * ) SI_UNIT ( $, .METRE. ) );
#23 = SURFACE_STYLE_USAGE ( .BOTH. , #141 ) ;
#24 = EDGE_CURVE ( 'NONE', #42, #117, #98, .T. ) ;
#25 = CARTESIAN_POINT ( 'NONE',  ( 0.000000000000000000, 0.3247595264191635578, 0.000000000000000000 ) ) ;
#26 = VECTOR ( 'NONE', #56, 39.37007874015748143 ) ;
#27 = ORIENTED_EDGE ( 'NONE', *, *, #174, .T. ) ;
#28 = DIRECTION ( 'NONE',  ( -1.000000000000000000, 0.000000000000000000, 0.000000000000000000 ) ) ;
#29 = DIRECTION ( 'NONE',  ( -1.000000000000000000, -1.478510563588688038E-16, 0.000000000000000000 ) ) ;
#30 = AXIS2_PLACEMENT_3D ( 'NONE', #59, #216, #220 ) ;
#31 = SURFACE_STYLE_USAGE ( .BOTH. , #94 ) ;
#32 =( LENGTH_UNIT ( ) NAMED_UNIT ( * ) SI_UNIT ( $, .METRE. ) );
#33 = DIRECTION ( 'NONE',  ( 0.000000000000000000, 1.000000000000000000, 0.000000000000000000 ) ) ;
#34 = AXIS2_PLACEMENT_3D ( 'NONE', #90, #251, #145 ) ;
#35 = COLOUR_RGB ( '',1.000000000000000000, 0.000000000000000000, 0.000000000000000000 ) ;
#36 = CARTESIAN_POINT ( 'NONE',  ( 2.296212748401286801E-17, 0.3247595264191635578, -0.1874999999999999722 ) ) ;
#37 = VERTEX_POINT ( 'NONE', #45 ) ;
#38 =( GEOMETRIC_REPRESENTATION_CONTEXT ( 3 ) GLOBAL_UNCERTAINTY_ASSIGNED_CONTEXT ( ( #156 ) ) GLOBAL_UNIT_ASSIGNED_CONTEXT ( ( #175, #239, #151 ) ) REPRESENTATION_CONTEXT ( 'NONE', 'WORKASPACE' ) );
#39 = ORIENTED_EDGE ( 'NONE', *, *, #123, .T. ) ;
#40 = SHAPE_DEFINITION_REPRESENTATION ( #197, #2 ) ;
#41 =( CONVERSION_BASED_UNIT ( 'INCH', #221 ) LENGTH_UNIT ( ) NAMED_UNIT ( #21 ) );
#42 = VERTEX_POINT ( 'NONE', #87 ) ;
#43 = PRESENTATION_STYLE_ASSIGNMENT (( #23 ) ) ;
#44 = ADVANCED_FACE ( 'NONE', ( #230 ), #206, .T. ) ;
#45 = CARTESIAN_POINT ( 'NONE',  ( -0.1875000000000001110, 2.500000000000000000, 0.000000000000000000 ) ) ;
#46 = DIRECTION ( 'NONE',  ( -1.000000000000000000, 0.000000000000000000, 0.000000000000000000 ) ) ;
#47 = CARTESIAN_POINT ( 'NONE',  ( 0.000000000000000000, 39.37007874015748143, 0.000000000000000000 ) ) ;
#48 = CIRCLE ( 'NONE', #168, 0.1875000000000000555 ) ;
#49 =( NAMED_UNIT ( * ) SI_UNIT ( $, .STERADIAN. ) SOLID_ANGLE_UNIT ( ) );
#50 = CYLINDRICAL_SURFACE ( 'NONE', #185, 0.1874999999999998890 ) ;
#51 =( NAMED_UNIT ( * ) PLANE_ANGLE_UNIT ( ) SI_UNIT ( $, .RADIAN. ) );
#52 = AXIS2_PLACEMENT_3D ( 'NONE', #129, #104, #28 ) ;
#53 = AXIS2_PLACEMENT_3D ( 'NONE', #75, #136, #97 ) ;
#54 = MANIFOLD_SOLID_BREP ( 'Revolve - Tool Body (Pointed)', #211 ) ;
#55 = FACE_OUTER_BOUND ( 'NONE', #199, .T. ) ;
#56 = DIRECTION ( 'NONE',  ( -1.478510563588688038E-16, 1.000000000000000000, -0.000000000000000000 ) ) ;
#57 = CIRCLE ( 'NONE', #73, 0.1874999999999999722 ) ;
#58 = UNCERTAINTY_MEASURE_WITH_UNIT (LENGTH_MEASURE( 1.000000000000000082E-05 ), #113, 'distance_accuracy_value', 'NONE');
#59 = CARTESIAN_POINT ( 'NONE',  ( 0.000000000000000000, 0.000000000000000000, 0.000000000000000000 ) ) ;
#60 =( LENGTH_UNIT ( ) NAMED_UNIT ( * ) SI_UNIT ( $, .METRE. ) );
#61 = VECTOR ( 'NONE', #120, 39.37007874015748143 ) ;
#62 = VERTEX_POINT ( 'NONE', #189 ) ;
#63 = ORIENTED_EDGE ( 'NONE', *, *, #126, .F. ) ;
#64 = FACE_OUTER_BOUND ( 'NONE', #79, .T. ) ;
#65 = CARTESIAN_POINT ( 'NONE',  ( -6.123233995736766036E-17, 2.500000000000000000, 0.000000000000000000 ) ) ;
#66 = ADVANCED_FACE ( 'NONE', ( #150 ), #127, .F. ) ;
#67 = FACE_OUTER_BOUND ( 'NONE', #143, .T. ) ;
#68 =( NAMED_UNIT ( * ) PLANE_ANGLE_UNIT ( ) SI_UNIT ( $, .RADIAN. ) );
#69 = ADVANCED_FACE ( 'NONE', ( #67 ), #50, .T. ) ;
#70 = MECHANICAL_DESIGN_GEOMETRIC_PRESENTATION_REPRESENTATION (  '', ( #192 ), #162 ) ;
#71 = FILL_AREA_STYLE ('',( #8 ) ) ;
#72 = DIRECTION ( 'NONE',  ( -1.478510563588688038E-16, 1.000000000000000000, -0.000000000000000000 ) ) ;
#73 = AXIS2_PLACEMENT_3D ( 'NONE', #25, #157, #181 ) ;
#74 = SURFACE_STYLE_FILL_AREA ( #257 ) ;
#75 = CARTESIAN_POINT ( 'NONE',  ( -6.123233995736764803E-17, 2.500000000000000000, 0.000000000000000000 ) ) ;
#76 =( GEOMETRIC_REPRESENTATION_CONTEXT ( 3 ) GLOBAL_UNCERTAINTY_ASSIGNED_CONTEXT ( ( #178 ) ) GLOBAL_UNIT_ASSIGNED_CONTEXT ( ( #41, #108, #227 ) ) REPRESENTATION_CONTEXT ( 'NONE', 'WORKASPACE' ) );
#77 = MECHANICAL_DESIGN_GEOMETRIC_PRESENTATION_REPRESENTATION (  '', ( #10 ), #238 ) ;
#78 = DIRECTION ( 'NONE',  ( -0.000000000000000000, -1.000000000000000000, -0.000000000000000000 ) ) ;
#79 = EDGE_LOOP ( 'NONE', ( #63, #180, #217 ) ) ;
#80 = DIMENSIONAL_EXPONENTS ( 1.000000000000000000, 0.000000000000000000, 0.000000000000000000, 0.000000000000000000, 0.000000000000000000, 0.000000000000000000, 0.000000000000000000 ) ;
#81 = ADVANCED_FACE ( 'NONE', ( #187 ), #148, .T. ) ;
#82 = DIRECTION ( 'NONE',  ( -1.478510563588688038E-16, 1.000000000000000000, -0.000000000000000000 ) ) ;
#83 = VECTOR ( 'NONE', #155, 39.37007874015748143 ) ;
#84 = LINE ( 'NONE', #263, #61 ) ;
#85 =( NAMED_UNIT ( * ) PLANE_ANGLE_UNIT ( ) SI_UNIT ( $, .RADIAN. ) );
#86 = ORIENTED_EDGE ( 'NONE', *, *, #262, .F. ) ;
#87 = CARTESIAN_POINT ( 'NONE',  ( -0.1874999999999994726, 0.3247595264191634468, 0.000000000000000000 ) ) ;
#88 =( GEOMETRIC_REPRESENTATION_CONTEXT ( 3 ) GLOBAL_UNCERTAINTY_ASSIGNED_CONTEXT ( ( #260 ) ) GLOBAL_UNIT_ASSIGNED_CONTEXT ( ( #149, #68, #49 ) ) REPRESENTATION_CONTEXT ( 'NONE', 'WORKASPACE' ) );
#89 = SURFACE_STYLE_FILL_AREA ( #71 ) ;
#90 = CARTESIAN_POINT ( 'NONE',  ( 0.1874999999999999722, 2.500000000000000000, 0.000000000000000000 ) ) ;
#91 = ADVANCED_FACE ( 'NONE', ( #231 ), #132, .F. ) ;
#92 = CIRCLE ( 'NONE', #18, 0.1874999999999999722 ) ;
#93 =( NAMED_UNIT ( * ) SI_UNIT ( $, .STERADIAN. ) SOLID_ANGLE_UNIT ( ) );
#94 = SURFACE_SIDE_STYLE ('',( #235 ) ) ;
#95 = COLOUR_RGB ( '',1.000000000000000000, 0.000000000000000000, 0.000000000000000000 ) ;
#96 =( LENGTH_UNIT ( ) NAMED_UNIT ( * ) SI_UNIT ( $, .METRE. ) );
#97 = DIRECTION ( 'NONE',  ( -1.000000000000000000, 0.000000000000000000, 0.000000000000000000 ) ) ;
#98 = CIRCLE ( 'NONE', #52, 0.1874999999999997502 ) ;
#99 = PRESENTATION_STYLE_ASSIGNMENT (( #111 ) ) ;
#100 =( LENGTH_UNIT ( ) NAMED_UNIT ( * ) SI_UNIT ( $, .METRE. ) );
#101 =( NAMED_UNIT ( * ) SI_UNIT ( $, .STERADIAN. ) SOLID_ANGLE_UNIT ( ) );
#102 = ORIENTED_EDGE ( 'NONE', *, *, #252, .F. ) ;
#103 = DIRECTION ( 'NONE',  ( -1.000000000000000000, 0.000000000000000000, 0.000000000000000000 ) ) ;
#104 = DIRECTION ( 'NONE',  ( -1.478510563588688038E-16, 1.000000000000000000, -0.000000000000000000 ) ) ;
#105 = CIRCLE ( 'NONE', #53, 0.1875000000000000555 ) ;
#106 = EDGE_CURVE ( 'NONE', #117, #42, #118, .T. ) ;
#107 = CARTESIAN_POINT ( 'NONE',  ( 0.000000000000000000, 0.000000000000000000, 0.000000000000000000 ) ) ;
#108 =( NAMED_UNIT ( * ) PLANE_ANGLE_UNIT ( ) SI_UNIT ( $, .RADIAN. ) );
#109 = DIRECTION ( 'NONE',  ( -1.478510563588688038E-16, 1.000000000000000000, -0.000000000000000000 ) ) ;
#110 = LINE ( 'NONE', #214, #83 ) ;
#111 = SURFACE_STYLE_USAGE ( .BOTH. , #153 ) ;
#112 = DIRECTION ( 'NONE',  ( -1.000000000000000000, 0.000000000000000000, 0.000000000000000000 ) ) ;
#113 =( CONVERSION_BASED_UNIT ( 'INCH', #3 ) LENGTH_UNIT ( ) NAMED_UNIT ( #259 ) );
#114 = PRODUCT ( '06270', '06270', '', ( #160 ) ) ;
#115 = PRODUCT_RELATED_PRODUCT_CATEGORY ( 'part', '', ( #114 ) ) ;
#116 = DIRECTION ( 'NONE',  ( 0.000000000000000000, 0.000000000000000000, -1.000000000000000000 ) ) ;
#117 = VERTEX_POINT ( 'NONE', #173 ) ;
#118 = CIRCLE ( 'NONE', #14, 0.1874999999999997502 ) ;
#119 = ORIENTED_EDGE ( 'NONE', *, *, #24, .F. ) ;
#120 = DIRECTION ( 'NONE',  ( 0.000000000000000000, 0.8660254037844380415, 0.5000000000000009992 ) ) ;
#121 = ORIENTED_EDGE ( 'NONE', *, *, #249, .F. ) ;
#122 = ORIENTED_EDGE ( 'NONE', *, *, #134, .F. ) ;
#123 = EDGE_CURVE ( 'NONE', #117, #62, #195, .T. ) ;
#124 = CONICAL_SURFACE ( 'NONE', #224, 22.73032555864674364, 0.5235987755983000369 ) ;
#125 = MECHANICAL_DESIGN_GEOMETRIC_PRESENTATION_REPRESENTATION (  '', ( #225 ), #38 ) ;
#126 = EDGE_CURVE ( 'NONE', #20, #164, #110, .T. ) ;
#127 = PLANE ( 'NONE',  #34 ) ;
#128 = PRESENTATION_LAYER_ASSIGNMENT (  '', '', ( #246 ) ) ;
#129 = CARTESIAN_POINT ( 'NONE',  ( 2.603792618961250911E-16, 0.3247595264191634468, 0.000000000000000000 ) ) ;
#130 = DIRECTION ( 'NONE',  ( -1.478510563588688038E-16, 1.000000000000000000, -0.000000000000000000 ) ) ;
#131 = AXIS2_PLACEMENT_3D ( 'NONE', #65, #109, #46 ) ;
#132 = PLANE ( 'NONE',  #193 ) ;
#133 = CARTESIAN_POINT ( 'NONE',  ( 2.603792618961250911E-16, 0.3247595264191634468, 0.000000000000000000 ) ) ;
#134 = EDGE_CURVE ( 'NONE', #62, #37, #105, .T. ) ;
#135 = FILL_AREA_STYLE_COLOUR ( '', #176 ) ;
#136 = DIRECTION ( 'NONE',  ( -1.478510563588688038E-16, 1.000000000000000000, -0.000000000000000000 ) ) ;
#137 = MANIFOLD_SOLID_BREP ( 'Revolve - Cutting Edge', #190 ) ;
#138 =( NAMED_UNIT ( * ) PLANE_ANGLE_UNIT ( ) SI_UNIT ( $, .RADIAN. ) );
#139 = ORIENTED_EDGE ( 'NONE', *, *, #262, .T. ) ;
#140 = DIRECTION ( 'NONE',  ( 0.000000000000000000, 1.000000000000000000, 0.000000000000000000 ) ) ;
#141 = SURFACE_SIDE_STYLE ('',( #265 ) ) ;
#142 = CARTESIAN_POINT ( 'NONE',  ( 0.000000000000000000, 0.3247595264191635578, 0.1874999999999999722 ) ) ;
#143 = EDGE_LOOP ( 'NONE', ( #1, #39, #86, #242 ) ) ;
#144 = SURFACE_SIDE_STYLE ('',( #250 ) ) ;
#145 = DIRECTION ( 'NONE',  ( 1.000000000000000000, 1.478510563588688038E-16, 0.000000000000000000 ) ) ;
#146 = LENGTH_MEASURE_WITH_UNIT ( LENGTH_MEASURE( 0.02539999999999999897 ), #169 );
#147 = MECHANICAL_DESIGN_GEOMETRIC_PRESENTATION_REPRESENTATION (  '', ( #255 ), #88 ) ;
#148 = CONICAL_SURFACE ( 'NONE', #256, 22.73032555864674364, 0.5235987755983000369 ) ;
#149 =( CONVERSION_BASED_UNIT ( 'INCH', #146 ) LENGTH_UNIT ( ) NAMED_UNIT ( #80 ) );
#150 = FACE_OUTER_BOUND ( 'NONE', #4, .T. ) ;
#151 =( NAMED_UNIT ( * ) SI_UNIT ( $, .STERADIAN. ) SOLID_ANGLE_UNIT ( ) );
#152 = ADVANCED_FACE ( 'NONE', ( #55 ), #213, .T. ) ;
#153 = SURFACE_SIDE_STYLE ('',( #74 ) ) ;
#154 = PRESENTATION_STYLE_ASSIGNMENT (( #31 ) ) ;
#155 = DIRECTION ( 'NONE',  ( 6.123233995736778362E-17, 0.8660254037844380415, -0.5000000000000009992 ) ) ;
#156 = UNCERTAINTY_MEASURE_WITH_UNIT (LENGTH_MEASURE( 1.000000000000000082E-05 ), #175, 'distance_accuracy_value', 'NONE');
#157 = DIRECTION ( 'NONE',  ( -0.000000000000000000, -1.000000000000000000, -0.000000000000000000 ) ) ;
#158 =( CONVERSION_BASED_UNIT ( 'INCH', #244 ) LENGTH_UNIT ( ) NAMED_UNIT ( #240 ) );
#159 = ORIENTED_EDGE ( 'NONE', *, *, #166, .T. ) ;
#160 = PRODUCT_CONTEXT ( 'NONE', #163, 'mechanical' ) ;
#161 = COLOUR_RGB ( '',0.7921568627450980005, 0.8196078431372548767, 0.9333333333333333481 ) ;
#162 =( GEOMETRIC_REPRESENTATION_CONTEXT ( 3 ) GLOBAL_UNCERTAINTY_ASSIGNED_CONTEXT ( ( #236 ) ) GLOBAL_UNIT_ASSIGNED_CONTEXT ( ( #11, #51, #93 ) ) REPRESENTATION_CONTEXT ( 'NONE', 'WORKASPACE' ) );
#163 = APPLICATION_CONTEXT ( 'automotive_design' ) ;
#164 = VERTEX_POINT ( 'NONE', #36 ) ;
#165 = ORIENTED_EDGE ( 'NONE', *, *, #126, .T. ) ;
#166 = EDGE_CURVE ( 'NONE', #164, #203, #92, .T. ) ;
#167 = FILL_AREA_STYLE ('',( #5 ) ) ;
#168 = AXIS2_PLACEMENT_3D ( 'NONE', #264, #82, #103 ) ;
#169 =( LENGTH_UNIT ( ) NAMED_UNIT ( * ) SI_UNIT ( $, .METRE. ) );
#170 = DIRECTION ( 'NONE',  ( 0.000000000000000000, 0.000000000000000000, 1.000000000000000000 ) ) ;
#171 = COLOUR_RGB ( '',1.000000000000000000, 0.000000000000000000, 0.000000000000000000 ) ;
#172 = VECTOR ( 'NONE', #179, 39.37007874015748143 ) ;
#173 = CARTESIAN_POINT ( 'NONE',  ( 0.1874999999999999722, 0.3247595264191634468, 2.296212748401286801E-17 ) ) ;
#174 = EDGE_CURVE ( 'NONE', #42, #37, #241, .T. ) ;
#175 =( CONVERSION_BASED_UNIT ( 'INCH', #177 ) LENGTH_UNIT ( ) NAMED_UNIT ( #237 ) );
#176 = COLOUR_RGB ( '',0.7921568627450980005, 0.8196078431372548767, 0.9333333333333333481 ) ;
#177 = LENGTH_MEASURE_WITH_UNIT ( LENGTH_MEASURE( 0.02539999999999999897 ), #96 );
#178 = UNCERTAINTY_MEASURE_WITH_UNIT (LENGTH_MEASURE( 1.000000000000000082E-05 ), #41, 'distance_accuracy_value', 'NONE');
#179 = DIRECTION ( 'NONE',  ( -1.478510563588688038E-16, 1.000000000000000000, -0.000000000000000000 ) ) ;
#180 = ORIENTED_EDGE ( 'NONE', *, *, #249, .T. ) ;
#181 = DIRECTION ( 'NONE',  ( 0.000000000000000000, 0.000000000000000000, -1.000000000000000000 ) ) ;
#182 = ORIENTED_EDGE ( 'NONE', *, *, #123, .F. ) ;
#183 = DIRECTION ( 'NONE',  ( 0.000000000000000000, -0.000000000000000000, 1.000000000000000000 ) ) ;
#184 = EDGE_LOOP ( 'NONE', ( #121, #165, #159 ) ) ;
#185 = AXIS2_PLACEMENT_3D ( 'NONE', #228, #130, #7 ) ;
#186 = EDGE_LOOP ( 'NONE', ( #119, #219 ) ) ;
#187 = FACE_OUTER_BOUND ( 'NONE', #184, .T. ) ;
#188 = AXIS2_PLACEMENT_3D ( 'NONE', #218, #140, #183 ) ;
#189 = CARTESIAN_POINT ( 'NONE',  ( 0.1874999999999999722, 2.500000000000000000, 2.296212748401286801E-17 ) ) ;
#190 = CLOSED_SHELL ( 'NONE', ( #81, #152, #13 ) ) ;
#191 = PRESENTATION_LAYER_ASSIGNMENT (  '', '', ( #10 ) ) ;
#192 = STYLED_ITEM ( 'NONE', ( #209 ), #81 ) ;
#193 = AXIS2_PLACEMENT_3D ( 'NONE', #232, #258, #29 ) ;
#194 = FILL_AREA_STYLE ('',( #135 ) ) ;
#195 = LINE ( 'NONE', #212, #26 ) ;
#196 = UNCERTAINTY_MEASURE_WITH_UNIT (LENGTH_MEASURE( 1.000000000000000082E-05 ), #158, 'distance_accuracy_value', 'NONE');
#197 = PRODUCT_DEFINITION_SHAPE ( 'NONE', 'NONE',  #234 ) ;
#198 = APPLICATION_PROTOCOL_DEFINITION ( 'draft international standard', 'automotive_design', 1998, #163 ) ;
#199 = EDGE_LOOP ( 'NONE', ( #102, #243 ) ) ;
#200 = CARTESIAN_POINT ( 'NONE',  ( -0.1874999999999999445, 2.500000000000000000, 0.000000000000000000 ) ) ;
#201 = FILL_AREA_STYLE ('',( #223 ) ) ;
#202 =( NAMED_UNIT ( * ) SI_UNIT ( $, .STERADIAN. ) SOLID_ANGLE_UNIT ( ) );
#203 = VERTEX_POINT ( 'NONE', #142 ) ;
#204 = CARTESIAN_POINT ( 'NONE',  ( 0.000000000000000000, 0.3247595264191635578, 0.000000000000000000 ) ) ;
#205 = EDGE_LOOP ( 'NONE', ( #182, #247, #27, #122 ) ) ;
#206 = CYLINDRICAL_SURFACE ( 'NONE', #131, 0.1874999999999998890 ) ;
#207 = APPLICATION_CONTEXT ( 'automotive_design' ) ;
#208 = PRESENTATION_LAYER_ASSIGNMENT (  '', '', ( #225 ) ) ;
#209 = PRESENTATION_STYLE_ASSIGNMENT (( #226 ) ) ;
#210 = SURFACE_SIDE_STYLE ('',( #89 ) ) ;
#211 = CLOSED_SHELL ( 'NONE', ( #69, #91, #44, #66 ) ) ;
#212 = CARTESIAN_POINT ( 'NONE',  ( 0.1874999999999998057, 2.500000000000000000, 2.296212748401285877E-17 ) ) ;
#213 = PLANE ( 'NONE',  #188 ) ;
#214 = CARTESIAN_POINT ( 'NONE',  ( 0.000000000000000000, 0.000000000000000000, 0.000000000000000000 ) ) ;
#215 = DIRECTION ( 'NONE',  ( 0.000000000000000000, 0.000000000000000000, 1.000000000000000000 ) ) ;
#216 = DIRECTION ( 'NONE',  ( 0.000000000000000000, 0.000000000000000000, 1.000000000000000000 ) ) ;
#217 = ORIENTED_EDGE ( 'NONE', *, *, #252, .T. ) ;
#218 = CARTESIAN_POINT ( 'NONE',  ( 0.000000000000000000, 0.3247595264191635578, 0.000000000000000000 ) ) ;
#219 = ORIENTED_EDGE ( 'NONE', *, *, #106, .F. ) ;
#220 = DIRECTION ( 'NONE',  ( 1.000000000000000000, 0.000000000000000000, 0.000000000000000000 ) ) ;
#221 = LENGTH_MEASURE_WITH_UNIT ( LENGTH_MEASURE( 0.02539999999999999897 ), #100 );
#222 = CARTESIAN_POINT ( 'NONE',  ( 0.000000000000000000, 39.37007874015748143, 0.000000000000000000 ) ) ;
#223 = FILL_AREA_STYLE_COLOUR ( '', #95 ) ;
#224 = AXIS2_PLACEMENT_3D ( 'NONE', #222, #253, #170 ) ;
#225 = STYLED_ITEM ( 'NONE', ( #154 ), #137 ) ;
#226 = SURFACE_STYLE_USAGE ( .BOTH. , #144 ) ;
#227 =( NAMED_UNIT ( * ) SI_UNIT ( $, .STERADIAN. ) SOLID_ANGLE_UNIT ( ) );
#228 = CARTESIAN_POINT ( 'NONE',  ( -6.123233995736766036E-17, 2.500000000000000000, 0.000000000000000000 ) ) ;
#229 = SURFACE_STYLE_USAGE ( .BOTH. , #210 ) ;
#230 = FACE_OUTER_BOUND ( 'NONE', #205, .T. ) ;
#231 = FACE_OUTER_BOUND ( 'NONE', #186, .T. ) ;
#232 = CARTESIAN_POINT ( 'NONE',  ( 2.603792618961250911E-16, 0.3247595264191635578, 0.000000000000000000 ) ) ;
#233 = LENGTH_MEASURE_WITH_UNIT ( LENGTH_MEASURE( 0.02539999999999999897 ), #32 );
#234 = PRODUCT_DEFINITION ( 'UNKNOWN', '', #6, #15 ) ;
#235 = SURFACE_STYLE_FILL_AREA ( #194 ) ;
#236 = UNCERTAINTY_MEASURE_WITH_UNIT (LENGTH_MEASURE( 1.000000000000000082E-05 ), #11, 'distance_accuracy_value', 'NONE');
#237 = DIMENSIONAL_EXPONENTS ( 1.000000000000000000, 0.000000000000000000, 0.000000000000000000, 0.000000000000000000, 0.000000000000000000, 0.000000000000000000, 0.000000000000000000 ) ;
#238 =( GEOMETRIC_REPRESENTATION_CONTEXT ( 3 ) GLOBAL_UNCERTAINTY_ASSIGNED_CONTEXT ( ( #196 ) ) GLOBAL_UNIT_ASSIGNED_CONTEXT ( ( #158, #138, #101 ) ) REPRESENTATION_CONTEXT ( 'NONE', 'WORKASPACE' ) );
#239 =( NAMED_UNIT ( * ) PLANE_ANGLE_UNIT ( ) SI_UNIT ( $, .RADIAN. ) );
#240 = DIMENSIONAL_EXPONENTS ( 1.000000000000000000, 0.000000000000000000, 0.000000000000000000, 0.000000000000000000, 0.000000000000000000, 0.000000000000000000, 0.000000000000000000 ) ;
#241 = LINE ( 'NONE', #200, #172 ) ;
#242 = ORIENTED_EDGE ( 'NONE', *, *, #174, .F. ) ;
#243 = ORIENTED_EDGE ( 'NONE', *, *, #166, .F. ) ;
#244 = LENGTH_MEASURE_WITH_UNIT ( LENGTH_MEASURE( 0.02539999999999999897 ), #22 );
#245 = PRESENTATION_LAYER_ASSIGNMENT (  '', '', ( #192 ) ) ;
#246 = STYLED_ITEM ( 'NONE', ( #43 ), #13 ) ;
#247 = ORIENTED_EDGE ( 'NONE', *, *, #106, .T. ) ;
#248 = ORIENTED_EDGE ( 'NONE', *, *, #134, .T. ) ;
#249 = EDGE_CURVE ( 'NONE', #20, #203, #84, .T. ) ;
#250 = SURFACE_STYLE_FILL_AREA ( #167 ) ;
#251 = DIRECTION ( 'NONE',  ( 1.478510563588688038E-16, -1.000000000000000000, 0.000000000000000000 ) ) ;
#252 = EDGE_CURVE ( 'NONE', #203, #164, #57, .T. ) ;
#253 = DIRECTION ( 'NONE',  ( 0.000000000000000000, 1.000000000000000000, 0.000000000000000000 ) ) ;
#254 = PRESENTATION_STYLE_ASSIGNMENT (( #229 ) ) ;
#255 = STYLED_ITEM ( 'NONE', ( #254 ), #54 ) ;
#256 = AXIS2_PLACEMENT_3D ( 'NONE', #47, #33, #215 ) ;
#257 = FILL_AREA_STYLE ('',( #12 ) ) ;
#258 = DIRECTION ( 'NONE',  ( -1.478510563588688038E-16, 1.000000000000000000, 0.000000000000000000 ) ) ;
#259 = DIMENSIONAL_EXPONENTS ( 1.000000000000000000, 0.000000000000000000, 0.000000000000000000, 0.000000000000000000, 0.000000000000000000, 0.000000000000000000, 0.000000000000000000 ) ;
#260 = UNCERTAINTY_MEASURE_WITH_UNIT (LENGTH_MEASURE( 1.000000000000000082E-05 ), #149, 'distance_accuracy_value', 'NONE');
#261 =( GEOMETRIC_REPRESENTATION_CONTEXT ( 3 ) GLOBAL_UNCERTAINTY_ASSIGNED_CONTEXT ( ( #58 ) ) GLOBAL_UNIT_ASSIGNED_CONTEXT ( ( #113, #85, #202 ) ) REPRESENTATION_CONTEXT ( 'NONE', 'WORKASPACE' ) );
#262 = EDGE_CURVE ( 'NONE', #37, #62, #48, .T. ) ;
#263 = CARTESIAN_POINT ( 'NONE',  ( 0.000000000000000000, 0.000000000000000000, 0.000000000000000000 ) ) ;
#264 = CARTESIAN_POINT ( 'NONE',  ( -6.123233995736764803E-17, 2.500000000000000000, 0.000000000000000000 ) ) ;
#265 = SURFACE_STYLE_FILL_AREA ( #201 ) ;
ENDSEC;
END-ISO-10303-21;
