ISO-10303-21;
HEADER;
FILE_DESCRIPTION (( 'STEP AP214' ),
    '1' );
FILE_NAME ('01032.STEP',
    '2023-06-22T14:18:18',
    ( '' ),
    ( '' ),
    'SwSTEP 2.0',
    'SolidWorks 2023',
    '' );
FILE_SCHEMA (( 'AUTOMOTIVE_DESIGN' ));
ENDSEC;

DATA;
#1 = FACE_OUTER_BOUND ( 'NONE', #247, .T. ) ;
#2 = DIRECTION ( 'NONE',  ( -1.000000000000000000, 0.000000000000000000, 0.000000000000000000 ) ) ;
#3 = DIRECTION ( 'NONE',  ( 0.000000000000000000, 0.000000000000000000, -1.000000000000000000 ) ) ;
#4 = ADVANCED_FACE ( 'NONE', ( #232 ), #45, .F. ) ;
#5 = DIRECTION ( 'NONE',  ( -3.768143997376475057E-17, 1.000000000000000000, -0.000000000000000000 ) ) ;
#6 = ORIENTED_EDGE ( 'NONE', *, *, #267, .T. ) ;
#7 = SURFACE_STYLE_FILL_AREA ( #26 ) ;
#8 = ORIENTED_EDGE ( 'NONE', *, *, #213, .F. ) ;
#9 = PRESENTATION_LAYER_ASSIGNMENT (  '', '', ( #278 ) ) ;
#10 = CARTESIAN_POINT ( 'NONE',  ( 0.000000000000000000, 0.3749999999999999445, 0.000000000000000000 ) ) ;
#11 = CIRCLE ( 'NONE', #191, 0.06250000000000001388 ) ;
#12 = VERTEX_POINT ( 'NONE', #242 ) ;
#13 = DIMENSIONAL_EXPONENTS ( 1.000000000000000000, 0.000000000000000000, 0.000000000000000000, 0.000000000000000000, 0.000000000000000000, 0.000000000000000000, 0.000000000000000000 ) ;
#14 = CARTESIAN_POINT ( 'NONE',  ( 4.437159120301362840E-35, 0.3750000000000000555, 0.000000000000000000 ) ) ;
#15 = AXIS2_PLACEMENT_3D ( 'NONE', #246, #124, #3 ) ;
#16 =( LENGTH_UNIT ( ) NAMED_UNIT ( * ) SI_UNIT ( $, .METRE. ) );
#17 = DIRECTION ( 'NONE',  ( -1.000000000000000000, 0.000000000000000000, 0.000000000000000000 ) ) ;
#18 = ADVANCED_FACE ( 'NONE', ( #1 ), #197, .F. ) ;
#19 = FACE_OUTER_BOUND ( 'NONE', #292, .T. ) ;
#20 =( CONVERSION_BASED_UNIT ( 'INCH', #238 ) LENGTH_UNIT ( ) NAMED_UNIT ( #179 ) );
#21 = FACE_OUTER_BOUND ( 'NONE', #99, .T. ) ;
#22 = SURFACE_STYLE_USAGE ( .BOTH. , #239 ) ;
#23 = APPLICATION_PROTOCOL_DEFINITION ( 'draft international standard', 'automotive_design', 1998, #87 ) ;
#24 = UNCERTAINTY_MEASURE_WITH_UNIT (LENGTH_MEASURE( 1.000000000000000082E-05 ), #101, 'distance_accuracy_value', 'NONE');
#25 = EDGE_CURVE ( 'NONE', #31, #181, #121, .T. ) ;
#26 = FILL_AREA_STYLE ('',( #217 ) ) ;
#27 = CIRCLE ( 'NONE', #92, 0.06250000000000000000 ) ;
#28 = PRODUCT_DEFINITION_FORMATION_WITH_SPECIFIED_SOURCE ( 'ANY', '', #304, .NOT_KNOWN. ) ;
#29 = EDGE_LOOP ( 'NONE', ( #102, #127 ) ) ;
#30 = DIRECTION ( 'NONE',  ( -3.768143997376475057E-17, 1.000000000000000000, -0.000000000000000000 ) ) ;
#31 = VERTEX_POINT ( 'NONE', #148 ) ;
#32 = DIRECTION ( 'NONE',  ( 0.000000000000000000, 0.000000000000000000, -1.000000000000000000 ) ) ;
#33 = CARTESIAN_POINT ( 'NONE',  ( 0.000000000000000000, 0.3750000000000000555, -0.06250000000000000000 ) ) ;
#34 = EDGE_LOOP ( 'NONE', ( #37, #171, #54, #268 ) ) ;
#35 = APPLICATION_CONTEXT ( 'automotive_design' ) ;
#36 = VECTOR ( 'NONE', #309, 39.37007874015748143 ) ;
#37 = ORIENTED_EDGE ( 'NONE', *, *, #245, .F. ) ;
#38 = UNCERTAINTY_MEASURE_WITH_UNIT (LENGTH_MEASURE( 1.000000000000000082E-05 ), #160, 'distance_accuracy_value', 'NONE');
#39 = DIRECTION ( 'NONE',  ( -0.000000000000000000, -1.000000000000000000, -0.000000000000000000 ) ) ;
#40 = ADVANCED_FACE ( 'NONE', ( #21 ), #280, .T. ) ;
#41 = DIRECTION ( 'NONE',  ( 0.000000000000000000, 0.000000000000000000, -1.000000000000000000 ) ) ;
#42 = PRESENTATION_LAYER_ASSIGNMENT (  '', '', ( #196 ) ) ;
#43 = PRESENTATION_STYLE_ASSIGNMENT (( #143 ) ) ;
#44 = DIRECTION ( 'NONE',  ( -0.000000000000000000, -1.000000000000000000, -0.000000000000000000 ) ) ;
#45 = PLANE ( 'NONE',  #91 ) ;
#46 = SURFACE_STYLE_FILL_AREA ( #262 ) ;
#47 = COLOUR_RGB ( '',1.000000000000000000, 0.000000000000000000, 0.000000000000000000 ) ;
#48 = SHAPE_DEFINITION_REPRESENTATION ( #112, #276 ) ;
#49 = ADVANCED_FACE ( 'NONE', ( #169 ), #104, .T. ) ;
#50 = VECTOR ( 'NONE', #44, 39.37007874015748143 ) ;
#51 = CARTESIAN_POINT ( 'NONE',  ( -6.123233995736772199E-17, 2.000000000000000000, 0.000000000000000000 ) ) ;
#52 = SURFACE_SIDE_STYLE ('',( #202 ) ) ;
#53 = SURFACE_STYLE_USAGE ( .BOTH. , #173 ) ;
#54 = ORIENTED_EDGE ( 'NONE', *, *, #264, .T. ) ;
#55 = AXIS2_PLACEMENT_3D ( 'NONE', #156, #30, #269 ) ;
#56 =( NAMED_UNIT ( * ) PLANE_ANGLE_UNIT ( ) SI_UNIT ( $, .RADIAN. ) );
#57 = ORIENTED_EDGE ( 'NONE', *, *, #264, .F. ) ;
#58 = LINE ( 'NONE', #154, #159 ) ;
#59 = ORIENTED_EDGE ( 'NONE', *, *, #198, .T. ) ;
#60 = DIRECTION ( 'NONE',  ( -0.000000000000000000, -1.000000000000000000, -0.000000000000000000 ) ) ;
#61 = ORIENTED_EDGE ( 'NONE', *, *, #288, .T. ) ;
#62 =( GEOMETRIC_REPRESENTATION_CONTEXT ( 3 ) GLOBAL_UNCERTAINTY_ASSIGNED_CONTEXT ( ( #205 ) ) GLOBAL_UNIT_ASSIGNED_CONTEXT ( ( #20, #116, #305 ) ) REPRESENTATION_CONTEXT ( 'NONE', 'WORKASPACE' ) );
#63 = DIRECTION ( 'NONE',  ( -1.000000000000000000, 0.000000000000000000, 0.000000000000000000 ) ) ;
#64 = EDGE_CURVE ( 'NONE', #88, #85, #27, .T. ) ;
#65 = SURFACE_STYLE_FILL_AREA ( #298 ) ;
#66 = CYLINDRICAL_SURFACE ( 'NONE', #98, 0.06250000000000002776 ) ;
#67 = DIMENSIONAL_EXPONENTS ( 1.000000000000000000, 0.000000000000000000, 0.000000000000000000, 0.000000000000000000, 0.000000000000000000, 0.000000000000000000, 0.000000000000000000 ) ;
#68 = LINE ( 'NONE', #165, #231 ) ;
#69 =( NAMED_UNIT ( * ) SI_UNIT ( $, .STERADIAN. ) SOLID_ANGLE_UNIT ( ) );
#70 = DIRECTION ( 'NONE',  ( -0.000000000000000000, -1.000000000000000000, -0.000000000000000000 ) ) ;
#71 = CIRCLE ( 'NONE', #243, 0.06250000000000001388 ) ;
#72 =( LENGTH_UNIT ( ) NAMED_UNIT ( * ) SI_UNIT ( $, .METRE. ) );
#73 = FILL_AREA_STYLE_COLOUR ( '', #166 ) ;
#74 = UNCERTAINTY_MEASURE_WITH_UNIT (LENGTH_MEASURE( 1.000000000000000082E-05 ), #287, 'distance_accuracy_value', 'NONE');
#75 = CARTESIAN_POINT ( 'NONE',  ( 0.06250000000000000000, 2.000000000000000000, 0.000000000000000000 ) ) ;
#76 = AXIS2_PLACEMENT_3D ( 'NONE', #186, #149, #207 ) ;
#77 = EDGE_CURVE ( 'NONE', #106, #31, #58, .T. ) ;
#78 = AXIS2_PLACEMENT_3D ( 'NONE', #194, #188, #141 ) ;
#79 = ORIENTED_EDGE ( 'NONE', *, *, #25, .T. ) ;
#80 = ORIENTED_EDGE ( 'NONE', *, *, #245, .T. ) ;
#81 = UNCERTAINTY_MEASURE_WITH_UNIT (LENGTH_MEASURE( 1.000000000000000082E-05 ), #117, 'distance_accuracy_value', 'NONE');
#82 = MECHANICAL_DESIGN_GEOMETRIC_PRESENTATION_REPRESENTATION (  '', ( #256 ), #307 ) ;
#83 = PRESENTATION_STYLE_ASSIGNMENT (( #111 ) ) ;
#84 = DIRECTION ( 'NONE',  ( -0.000000000000000000, -1.000000000000000000, -0.000000000000000000 ) ) ;
#85 = VERTEX_POINT ( 'NONE', #33 ) ;
#86 = CARTESIAN_POINT ( 'NONE',  ( 0.000000000000000000, 0.3750000000000000555, 0.000000000000000000 ) ) ;
#87 = APPLICATION_CONTEXT ( 'automotive_design' ) ;
#88 = VERTEX_POINT ( 'NONE', #110 ) ;
#89 = DIMENSIONAL_EXPONENTS ( 1.000000000000000000, 0.000000000000000000, 0.000000000000000000, 0.000000000000000000, 0.000000000000000000, 0.000000000000000000, 0.000000000000000000 ) ;
#90 = DIRECTION ( 'NONE',  ( 0.000000000000000000, 1.000000000000000000, 0.000000000000000000 ) ) ;
#91 = AXIS2_PLACEMENT_3D ( 'NONE', #14, #192, #263 ) ;
#92 = AXIS2_PLACEMENT_3D ( 'NONE', #291, #84, #272 ) ;
#93 = CARTESIAN_POINT ( 'NONE',  ( 7.654042494670959086E-18, 0.000000000000000000, 0.06250000000000001388 ) ) ;
#94 = AXIS2_PLACEMENT_3D ( 'NONE', #308, #140, #306 ) ;
#95 = DIRECTION ( 'NONE',  ( 1.000000000000000000, 3.768143997376475057E-17, 0.000000000000000000 ) ) ;
#96 = ADVANCED_FACE ( 'NONE', ( #277 ), #66, .T. ) ;
#97 = APPLICATION_PROTOCOL_DEFINITION ( 'draft international standard', 'automotive_design', 1998, #35 ) ;
#98 = AXIS2_PLACEMENT_3D ( 'NONE', #236, #138, #17 ) ;
#99 = EDGE_LOOP ( 'NONE', ( #255, #80, #225, #57 ) ) ;
#100 =( NAMED_UNIT ( * ) PLANE_ANGLE_UNIT ( ) SI_UNIT ( $, .RADIAN. ) );
#101 =( CONVERSION_BASED_UNIT ( 'INCH', #285 ) LENGTH_UNIT ( ) NAMED_UNIT ( #257 ) );
#102 = ORIENTED_EDGE ( 'NONE', *, *, #288, .F. ) ;
#103 = LENGTH_MEASURE_WITH_UNIT ( LENGTH_MEASURE( 0.02539999999999999897 ), #286 );
#104 = CYLINDRICAL_SURFACE ( 'NONE', #76, 0.06250000000000001388 ) ;
#105 = EDGE_CURVE ( 'NONE', #85, #88, #151, .T. ) ;
#106 = VERTEX_POINT ( 'NONE', #248 ) ;
#107 = COLOUR_RGB ( '',1.000000000000000000, 0.000000000000000000, 0.000000000000000000 ) ;
#108 = AXIS2_PLACEMENT_3D ( 'NONE', #131, #5, #63 ) ;
#109 = CARTESIAN_POINT ( 'NONE',  ( 7.654042494670960626E-18, 0.000000000000000000, 0.06250000000000002776 ) ) ;
#110 = CARTESIAN_POINT ( 'NONE',  ( 7.654042494670959086E-18, 0.3750000000000000555, 0.06250000000000000000 ) ) ;
#111 = SURFACE_STYLE_USAGE ( .BOTH. , #254 ) ;
#112 = PRODUCT_DEFINITION_SHAPE ( 'NONE', 'NONE',  #302 ) ;
#113 = CLOSED_SHELL ( 'NONE', ( #96, #4, #152, #18 ) ) ;
#114 = PRESENTATION_LAYER_ASSIGNMENT (  '', '', ( #256 ) ) ;
#115 = AXIS2_PLACEMENT_3D ( 'NONE', #146, #167, #145 ) ;
#116 =( NAMED_UNIT ( * ) PLANE_ANGLE_UNIT ( ) SI_UNIT ( $, .RADIAN. ) );
#117 =( CONVERSION_BASED_UNIT ( 'INCH', #189 ) LENGTH_UNIT ( ) NAMED_UNIT ( #13 ) );
#118 = AXIS2_PLACEMENT_3D ( 'NONE', #75, #282, #95 ) ;
#119 = PRESENTATION_LAYER_ASSIGNMENT (  '', '', ( #144 ) ) ;
#120 = PRESENTATION_STYLE_ASSIGNMENT (( #22 ) ) ;
#121 = CIRCLE ( 'NONE', #158, 0.06250000000000005551 ) ;
#122 = SURFACE_STYLE_USAGE ( .BOTH. , #52 ) ;
#123 = MANIFOLD_SOLID_BREP ( 'Revolve - Cutting Edge', #281 ) ;
#124 = DIRECTION ( 'NONE',  ( -0.000000000000000000, -1.000000000000000000, -0.000000000000000000 ) ) ;
#125 = STYLED_ITEM ( 'NONE', ( #43 ), #129 ) ;
#126 =( NAMED_UNIT ( * ) SI_UNIT ( $, .STERADIAN. ) SOLID_ANGLE_UNIT ( ) );
#127 = ORIENTED_EDGE ( 'NONE', *, *, #218, .F. ) ;
#128 = FILL_AREA_STYLE_COLOUR ( '', #200 ) ;
#129 = ADVANCED_FACE ( 'NONE', ( #19 ), #222, .T. ) ;
#130 = EDGE_LOOP ( 'NONE', ( #61, #6, #209, #230 ) ) ;
#131 = CARTESIAN_POINT ( 'NONE',  ( -6.123233995736772199E-17, 2.000000000000000000, 0.000000000000000000 ) ) ;
#132 = ORIENTED_EDGE ( 'NONE', *, *, #241, .T. ) ;
#133 = MECHANICAL_DESIGN_GEOMETRIC_PRESENTATION_REPRESENTATION (  '', ( #125 ), #270 ) ;
#134 = ORIENTED_EDGE ( 'NONE', *, *, #213, .T. ) ;
#135 = MANIFOLD_SOLID_BREP ( 'Revolve - Tool Body (Straight Shanked)', #113 ) ;
#136 =( CONVERSION_BASED_UNIT ( 'INCH', #261 ) LENGTH_UNIT ( ) NAMED_UNIT ( #67 ) );
#137 = FILL_AREA_STYLE_COLOUR ( '', #47 ) ;
#138 = DIRECTION ( 'NONE',  ( -3.768143997376475057E-17, 1.000000000000000000, -0.000000000000000000 ) ) ;
#139 = AXIS2_PLACEMENT_3D ( 'NONE', #163, #260, #41 ) ;
#140 = DIRECTION ( 'NONE',  ( 0.000000000000000000, -1.000000000000000000, -0.000000000000000000 ) ) ;
#141 = DIRECTION ( 'NONE',  ( -1.000000000000000000, 0.000000000000000000, 0.000000000000000000 ) ) ;
#142 = PRODUCT_RELATED_PRODUCT_CATEGORY ( 'part', '', ( #304 ) ) ;
#143 = SURFACE_STYLE_USAGE ( .BOTH. , #303 ) ;
#144 = STYLED_ITEM ( 'NONE', ( #212 ), #123 ) ;
#145 = DIRECTION ( 'NONE',  ( 1.000000000000000000, 0.000000000000000000, 0.000000000000000000 ) ) ;
#146 = CARTESIAN_POINT ( 'NONE',  ( 0.000000000000000000, 0.000000000000000000, 0.000000000000000000 ) ) ;
#147 = AXIS2_PLACEMENT_3D ( 'NONE', #10, #211, #185 ) ;
#148 = CARTESIAN_POINT ( 'NONE',  ( -0.06250000000000012490, 2.000000000000000000, 0.000000000000000000 ) ) ;
#149 = DIRECTION ( 'NONE',  ( -0.000000000000000000, -1.000000000000000000, -0.000000000000000000 ) ) ;
#150 =( GEOMETRIC_REPRESENTATION_CONTEXT ( 3 ) GLOBAL_UNCERTAINTY_ASSIGNED_CONTEXT ( ( #74 ) ) GLOBAL_UNIT_ASSIGNED_CONTEXT ( ( #287, #220, #126 ) ) REPRESENTATION_CONTEXT ( 'NONE', 'WORKASPACE' ) );
#151 = CIRCLE ( 'NONE', #139, 0.06250000000000000000 ) ;
#152 = ADVANCED_FACE ( 'NONE', ( #206 ), #183, .T. ) ;
#153 = FILL_AREA_STYLE ('',( #180 ) ) ;
#154 = CARTESIAN_POINT ( 'NONE',  ( -0.06250000000000009714, 2.000000000000000000, 0.000000000000000000 ) ) ;
#155 = ORIENTED_EDGE ( 'NONE', *, *, #77, .T. ) ;
#156 = CARTESIAN_POINT ( 'NONE',  ( -6.123233995736772199E-17, 2.000000000000000000, 0.000000000000000000 ) ) ;
#157 = VERTEX_POINT ( 'NONE', #296 ) ;
#158 = AXIS2_PLACEMENT_3D ( 'NONE', #51, #195, #2 ) ;
#159 = VECTOR ( 'NONE', #252, 39.37007874015748143 ) ;
#160 =( CONVERSION_BASED_UNIT ( 'INCH', #103 ) LENGTH_UNIT ( ) NAMED_UNIT ( #89 ) );
#161 = FACE_OUTER_BOUND ( 'NONE', #275, .T. ) ;
#162 =( LENGTH_UNIT ( ) NAMED_UNIT ( * ) SI_UNIT ( $, .METRE. ) );
#163 = CARTESIAN_POINT ( 'NONE',  ( 0.000000000000000000, 0.3750000000000000555, 0.000000000000000000 ) ) ;
#164 = AXIS2_PLACEMENT_3D ( 'NONE', #86, #90, #210 ) ;
#165 = CARTESIAN_POINT ( 'NONE',  ( 0.000000000000000000, 0.000000000000000000, -0.06250000000000001388 ) ) ;
#166 = COLOUR_RGB ( '',0.7921568627450980005, 0.8196078431372548767, 0.9333333333333333481 ) ;
#167 = DIRECTION ( 'NONE',  ( 0.000000000000000000, 0.000000000000000000, 1.000000000000000000 ) ) ;
#168 = CIRCLE ( 'NONE', #108, 0.06250000000000005551 ) ;
#169 = FACE_OUTER_BOUND ( 'NONE', #34, .T. ) ;
#170 = EDGE_LOOP ( 'NONE', ( #174, #250, #155, #8 ) ) ;
#171 = ORIENTED_EDGE ( 'NONE', *, *, #64, .T. ) ;
#172 = LENGTH_MEASURE_WITH_UNIT ( LENGTH_MEASURE( 0.02539999999999999897 ), #193 );
#173 = SURFACE_SIDE_STYLE ('',( #7 ) ) ;
#174 = ORIENTED_EDGE ( 'NONE', *, *, #267, .F. ) ;
#175 = COLOUR_RGB ( '',1.000000000000000000, 0.000000000000000000, 0.000000000000000000 ) ;
#176 =( NAMED_UNIT ( * ) PLANE_ANGLE_UNIT ( ) SI_UNIT ( $, .RADIAN. ) );
#177 = ORIENTED_EDGE ( 'NONE', *, *, #105, .F. ) ;
#178 = SURFACE_STYLE_FILL_AREA ( #226 ) ;
#179 = DIMENSIONAL_EXPONENTS ( 1.000000000000000000, 0.000000000000000000, 0.000000000000000000, 0.000000000000000000, 0.000000000000000000, 0.000000000000000000, 0.000000000000000000 ) ;
#180 = FILL_AREA_STYLE_COLOUR ( '', #175 ) ;
#181 = VERTEX_POINT ( 'NONE', #249 ) ;
#182 = DIMENSIONAL_EXPONENTS ( 1.000000000000000000, 0.000000000000000000, 0.000000000000000000, 0.000000000000000000, 0.000000000000000000, 0.000000000000000000, 0.000000000000000000 ) ;
#183 = CYLINDRICAL_SURFACE ( 'NONE', #55, 0.06250000000000002776 ) ;
#184 = MECHANICAL_DESIGN_GEOMETRIC_PRESENTATION_REPRESENTATION (  '', ( #144 ), #265 ) ;
#185 = DIRECTION ( 'NONE',  ( -1.000000000000000000, 0.000000000000000000, 0.000000000000000000 ) ) ;
#186 = CARTESIAN_POINT ( 'NONE',  ( 0.000000000000000000, 0.000000000000000000, 0.000000000000000000 ) ) ;
#187 = ADVANCED_FACE ( 'NONE', ( #161 ), #228, .T. ) ;
#188 = DIRECTION ( 'NONE',  ( -3.768143997376475057E-17, 1.000000000000000000, -0.000000000000000000 ) ) ;
#189 = LENGTH_MEASURE_WITH_UNIT ( LENGTH_MEASURE( 0.02539999999999999897 ), #162 );
#190 = MECHANICAL_DESIGN_GEOMETRIC_PRESENTATION_REPRESENTATION (  '', ( #278 ), #221 ) ;
#191 = AXIS2_PLACEMENT_3D ( 'NONE', #274, #60, #214 ) ;
#192 = DIRECTION ( 'NONE',  ( -3.768143997376475057E-17, 1.000000000000000000, 0.000000000000000000 ) ) ;
#193 =( LENGTH_UNIT ( ) NAMED_UNIT ( * ) SI_UNIT ( $, .METRE. ) );
#194 = CARTESIAN_POINT ( 'NONE',  ( 0.000000000000000000, 0.3749999999999999445, 0.000000000000000000 ) ) ;
#195 = DIRECTION ( 'NONE',  ( -3.768143997376475057E-17, 1.000000000000000000, -0.000000000000000000 ) ) ;
#196 = STYLED_ITEM ( 'NONE', ( #83 ), #187 ) ;
#197 = PLANE ( 'NONE',  #118 ) ;
#198 = EDGE_CURVE ( 'NONE', #227, #157, #71, .T. ) ;
#199 = LENGTH_MEASURE_WITH_UNIT ( LENGTH_MEASURE( 0.02539999999999999897 ), #266 );
#200 = COLOUR_RGB ( '',0.7921568627450980005, 0.8196078431372548767, 0.9333333333333333481 ) ;
#201 = PRODUCT_CONTEXT ( 'NONE', #87, 'mechanical' ) ;
#202 = SURFACE_STYLE_FILL_AREA ( #244 ) ;
#203 = PRESENTATION_STYLE_ASSIGNMENT (( #53 ) ) ;
#204 = SURFACE_SIDE_STYLE ('',( #178 ) ) ;
#205 = UNCERTAINTY_MEASURE_WITH_UNIT (LENGTH_MEASURE( 1.000000000000000082E-05 ), #20, 'distance_accuracy_value', 'NONE');
#206 = FACE_OUTER_BOUND ( 'NONE', #170, .T. ) ;
#207 = DIRECTION ( 'NONE',  ( 0.000000000000000000, 0.000000000000000000, -1.000000000000000000 ) ) ;
#208 = STYLED_ITEM ( 'NONE', ( #203 ), #40 ) ;
#209 = ORIENTED_EDGE ( 'NONE', *, *, #25, .F. ) ;
#210 = DIRECTION ( 'NONE',  ( 0.000000000000000000, -0.000000000000000000, 1.000000000000000000 ) ) ;
#211 = DIRECTION ( 'NONE',  ( -3.768143997376475057E-17, 1.000000000000000000, -0.000000000000000000 ) ) ;
#212 = PRESENTATION_STYLE_ASSIGNMENT (( #273 ) ) ;
#213 = EDGE_CURVE ( 'NONE', #181, #31, #168, .T. ) ;
#214 = DIRECTION ( 'NONE',  ( 0.000000000000000000, 0.000000000000000000, -1.000000000000000000 ) ) ;
#215 = CIRCLE ( 'NONE', #78, 0.06250000000000000000 ) ;
#216 = UNCERTAINTY_MEASURE_WITH_UNIT (LENGTH_MEASURE( 1.000000000000000082E-05 ), #136, 'distance_accuracy_value', 'NONE');
#217 = FILL_AREA_STYLE_COLOUR ( '', #289 ) ;
#218 = EDGE_CURVE ( 'NONE', #12, #106, #279, .T. ) ;
#219 = UNCERTAINTY_MEASURE_WITH_UNIT (LENGTH_MEASURE( 1.000000000000000082E-05 ), #295, 'distance_accuracy_value', 'NONE');
#220 =( NAMED_UNIT ( * ) PLANE_ANGLE_UNIT ( ) SI_UNIT ( $, .RADIAN. ) );
#221 =( GEOMETRIC_REPRESENTATION_CONTEXT ( 3 ) GLOBAL_UNCERTAINTY_ASSIGNED_CONTEXT ( ( #24 ) ) GLOBAL_UNIT_ASSIGNED_CONTEXT ( ( #101, #56, #284 ) ) REPRESENTATION_CONTEXT ( 'NONE', 'WORKASPACE' ) );
#222 = PLANE ( 'NONE',  #94 ) ;
#223 =( NAMED_UNIT ( * ) SI_UNIT ( $, .STERADIAN. ) SOLID_ANGLE_UNIT ( ) );
#224 = FILL_AREA_STYLE_COLOUR ( '', #107 ) ;
#225 = ORIENTED_EDGE ( 'NONE', *, *, #241, .F. ) ;
#226 = FILL_AREA_STYLE ('',( #128 ) ) ;
#227 = VERTEX_POINT ( 'NONE', #109 ) ;
#228 = PLANE ( 'NONE',  #164 ) ;
#229 =( LENGTH_UNIT ( ) NAMED_UNIT ( * ) SI_UNIT ( $, .METRE. ) );
#230 = ORIENTED_EDGE ( 'NONE', *, *, #77, .F. ) ;
#231 = VECTOR ( 'NONE', #70, 39.37007874015748143 ) ;
#232 = FACE_OUTER_BOUND ( 'NONE', #29, .T. ) ;
#233 = PRODUCT_DEFINITION_CONTEXT ( 'detailed design', #35, 'design' ) ;
#234 =( NAMED_UNIT ( * ) SI_UNIT ( $, .STERADIAN. ) SOLID_ANGLE_UNIT ( ) );
#235 = MECHANICAL_DESIGN_GEOMETRIC_PRESENTATION_REPRESENTATION (  '', ( #196 ), #290 ) ;
#236 = CARTESIAN_POINT ( 'NONE',  ( -6.123233995736772199E-17, 2.000000000000000000, 0.000000000000000000 ) ) ;
#237 = CARTESIAN_POINT ( 'NONE',  ( 0.06249999999999997224, 2.000000000000000000, 7.654042494670960626E-18 ) ) ;
#238 = LENGTH_MEASURE_WITH_UNIT ( LENGTH_MEASURE( 0.02539999999999999897 ), #72 );
#239 = SURFACE_SIDE_STYLE ('',( #46 ) ) ;
#240 = MECHANICAL_DESIGN_GEOMETRIC_PRESENTATION_REPRESENTATION (  '', ( #208 ), #150 ) ;
#241 = EDGE_CURVE ( 'NONE', #157, #227, #11, .T. ) ;
#242 = CARTESIAN_POINT ( 'NONE',  ( 0.06250000000000000000, 0.3749999999999999445, 7.654042494670963708E-18 ) ) ;
#243 = AXIS2_PLACEMENT_3D ( 'NONE', #251, #39, #32 ) ;
#244 = FILL_AREA_STYLE ('',( #224 ) ) ;
#245 = EDGE_CURVE ( 'NONE', #88, #227, #300, .T. ) ;
#246 = CARTESIAN_POINT ( 'NONE',  ( 0.000000000000000000, 0.000000000000000000, 0.000000000000000000 ) ) ;
#247 = EDGE_LOOP ( 'NONE', ( #79, #134 ) ) ;
#248 = CARTESIAN_POINT ( 'NONE',  ( -0.06250000000000000000, 0.3749999999999999445, 0.000000000000000000 ) ) ;
#249 = CARTESIAN_POINT ( 'NONE',  ( 0.06250000000000000000, 2.000000000000000000, 7.654042494670963708E-18 ) ) ;
#250 = ORIENTED_EDGE ( 'NONE', *, *, #218, .T. ) ;
#251 = CARTESIAN_POINT ( 'NONE',  ( 0.000000000000000000, 0.000000000000000000, 0.000000000000000000 ) ) ;
#252 = DIRECTION ( 'NONE',  ( -3.768143997376475057E-17, 1.000000000000000000, -0.000000000000000000 ) ) ;
#253 = ORIENTED_EDGE ( 'NONE', *, *, #64, .F. ) ;
#254 = SURFACE_SIDE_STYLE ('',( #293 ) ) ;
#255 = ORIENTED_EDGE ( 'NONE', *, *, #105, .T. ) ;
#256 = STYLED_ITEM ( 'NONE', ( #120 ), #135 ) ;
#257 = DIMENSIONAL_EXPONENTS ( 1.000000000000000000, 0.000000000000000000, 0.000000000000000000, 0.000000000000000000, 0.000000000000000000, 0.000000000000000000, 0.000000000000000000 ) ;
#258 =( NAMED_UNIT ( * ) PLANE_ANGLE_UNIT ( ) SI_UNIT ( $, .RADIAN. ) );
#259 =( NAMED_UNIT ( * ) PLANE_ANGLE_UNIT ( ) SI_UNIT ( $, .RADIAN. ) );
#260 = DIRECTION ( 'NONE',  ( -0.000000000000000000, -1.000000000000000000, -0.000000000000000000 ) ) ;
#261 = LENGTH_MEASURE_WITH_UNIT ( LENGTH_MEASURE( 0.02539999999999999897 ), #16 );
#262 = FILL_AREA_STYLE ('',( #73 ) ) ;
#263 = DIRECTION ( 'NONE',  ( -1.000000000000000000, -3.768143997376475057E-17, 0.000000000000000000 ) ) ;
#264 = EDGE_CURVE ( 'NONE', #85, #157, #68, .T. ) ;
#265 =( GEOMETRIC_REPRESENTATION_CONTEXT ( 3 ) GLOBAL_UNCERTAINTY_ASSIGNED_CONTEXT ( ( #216 ) ) GLOBAL_UNIT_ASSIGNED_CONTEXT ( ( #136, #258, #234 ) ) REPRESENTATION_CONTEXT ( 'NONE', 'WORKASPACE' ) );
#266 =( LENGTH_UNIT ( ) NAMED_UNIT ( * ) SI_UNIT ( $, .METRE. ) );
#267 = EDGE_CURVE ( 'NONE', #12, #181, #301, .T. ) ;
#268 = ORIENTED_EDGE ( 'NONE', *, *, #198, .F. ) ;
#269 = DIRECTION ( 'NONE',  ( -1.000000000000000000, 0.000000000000000000, 0.000000000000000000 ) ) ;
#270 =( GEOMETRIC_REPRESENTATION_CONTEXT ( 3 ) GLOBAL_UNCERTAINTY_ASSIGNED_CONTEXT ( ( #81 ) ) GLOBAL_UNIT_ASSIGNED_CONTEXT ( ( #117, #259, #69 ) ) REPRESENTATION_CONTEXT ( 'NONE', 'WORKASPACE' ) );
#271 =( NAMED_UNIT ( * ) SI_UNIT ( $, .STERADIAN. ) SOLID_ANGLE_UNIT ( ) );
#272 = DIRECTION ( 'NONE',  ( 0.000000000000000000, 0.000000000000000000, -1.000000000000000000 ) ) ;
#273 = SURFACE_STYLE_USAGE ( .BOTH. , #204 ) ;
#274 = CARTESIAN_POINT ( 'NONE',  ( 0.000000000000000000, 0.000000000000000000, 0.000000000000000000 ) ) ;
#275 = EDGE_LOOP ( 'NONE', ( #177, #253 ) ) ;
#276 = ADVANCED_BREP_SHAPE_REPRESENTATION ( '01032', ( #123, #135, #115 ), #62 ) ;
#277 = FACE_OUTER_BOUND ( 'NONE', #130, .T. ) ;
#278 = STYLED_ITEM ( 'NONE', ( #299 ), #49 ) ;
#279 = CIRCLE ( 'NONE', #147, 0.06250000000000000000 ) ;
#280 = CYLINDRICAL_SURFACE ( 'NONE', #15, 0.06250000000000001388 ) ;
#281 = CLOSED_SHELL ( 'NONE', ( #40, #187, #49, #129 ) ) ;
#282 = DIRECTION ( 'NONE',  ( 3.768143997376475057E-17, -1.000000000000000000, 0.000000000000000000 ) ) ;
#283 = PRESENTATION_LAYER_ASSIGNMENT (  '', '', ( #208 ) ) ;
#284 =( NAMED_UNIT ( * ) SI_UNIT ( $, .STERADIAN. ) SOLID_ANGLE_UNIT ( ) );
#285 = LENGTH_MEASURE_WITH_UNIT ( LENGTH_MEASURE( 0.02539999999999999897 ), #229 );
#286 =( LENGTH_UNIT ( ) NAMED_UNIT ( * ) SI_UNIT ( $, .METRE. ) );
#287 =( CONVERSION_BASED_UNIT ( 'INCH', #199 ) LENGTH_UNIT ( ) NAMED_UNIT ( #294 ) );
#288 = EDGE_CURVE ( 'NONE', #106, #12, #215, .T. ) ;
#289 = COLOUR_RGB ( '',1.000000000000000000, 0.000000000000000000, 0.000000000000000000 ) ;
#290 =( GEOMETRIC_REPRESENTATION_CONTEXT ( 3 ) GLOBAL_UNCERTAINTY_ASSIGNED_CONTEXT ( ( #38 ) ) GLOBAL_UNIT_ASSIGNED_CONTEXT ( ( #160, #100, #271 ) ) REPRESENTATION_CONTEXT ( 'NONE', 'WORKASPACE' ) );
#291 = CARTESIAN_POINT ( 'NONE',  ( 0.000000000000000000, 0.3750000000000000555, 0.000000000000000000 ) ) ;
#292 = EDGE_LOOP ( 'NONE', ( #132, #59 ) ) ;
#293 = SURFACE_STYLE_FILL_AREA ( #153 ) ;
#294 = DIMENSIONAL_EXPONENTS ( 1.000000000000000000, 0.000000000000000000, 0.000000000000000000, 0.000000000000000000, 0.000000000000000000, 0.000000000000000000, 0.000000000000000000 ) ;
#295 =( CONVERSION_BASED_UNIT ( 'INCH', #172 ) LENGTH_UNIT ( ) NAMED_UNIT ( #182 ) );
#296 = CARTESIAN_POINT ( 'NONE',  ( 0.000000000000000000, 0.000000000000000000, -0.06250000000000001388 ) ) ;
#297 = PRESENTATION_LAYER_ASSIGNMENT (  '', '', ( #125 ) ) ;
#298 = FILL_AREA_STYLE ('',( #137 ) ) ;
#299 = PRESENTATION_STYLE_ASSIGNMENT (( #122 ) ) ;
#300 = LINE ( 'NONE', #93, #50 ) ;
#301 = LINE ( 'NONE', #237, #36 ) ;
#302 = PRODUCT_DEFINITION ( 'UNKNOWN', '', #28, #233 ) ;
#303 = SURFACE_SIDE_STYLE ('',( #65 ) ) ;
#304 = PRODUCT ( '01032', '01032', '', ( #201 ) ) ;
#305 =( NAMED_UNIT ( * ) SI_UNIT ( $, .STERADIAN. ) SOLID_ANGLE_UNIT ( ) );
#306 = DIRECTION ( 'NONE',  ( 0.000000000000000000, 0.000000000000000000, -1.000000000000000000 ) ) ;
#307 =( GEOMETRIC_REPRESENTATION_CONTEXT ( 3 ) GLOBAL_UNCERTAINTY_ASSIGNED_CONTEXT ( ( #219 ) ) GLOBAL_UNIT_ASSIGNED_CONTEXT ( ( #295, #176, #223 ) ) REPRESENTATION_CONTEXT ( 'NONE', 'WORKASPACE' ) );
#308 = CARTESIAN_POINT ( 'NONE',  ( 0.000000000000000000, 0.000000000000000000, 0.000000000000000000 ) ) ;
#309 = DIRECTION ( 'NONE',  ( -3.768143997376475057E-17, 1.000000000000000000, -0.000000000000000000 ) ) ;
ENDSEC;
END-ISO-10303-21;
