ISO-10303-21;
HEADER;
FILE_DESCRIPTION (( 'STEP AP214' ),
    '1' );
FILE_NAME ('Micro_MMBM-008-5.STEP',
    '2021-09-03T16:24:43',
    ( '' ),
    ( '' ),
    'SwSTEP 2.0',
    'SolidWorks 2020',
    '' );
FILE_SCHEMA (( 'AUTOMOTIVE_DESIGN' ));
ENDSEC;

DATA;
#1 = COLOUR_RGB ( '',0.7921568627450980005, 0.8196078431372548767, 0.9333333333333333481 ) ;
#2 = AXIS2_PLACEMENT_3D ( 'NONE', #115, #324, #15 ) ;
#3 = EDGE_LOOP ( 'NONE', ( #348, #53, #101, #227 ) ) ;
#4 = ADVANCED_FACE ( 'NONE', ( #211 ), #22, .T. ) ;
#5 = CARTESIAN_POINT ( 'NONE',  ( -0.06374000000000018540, 0.0000000000000000000, 1.968503999999999809 ) ) ;
#6 = PRODUCT_RELATED_PRODUCT_CATEGORY ( 'part', '', ( #326 ) ) ;
#7 = CARTESIAN_POINT ( 'NONE',  ( 0.0000000000000000000, 0.0000000000000000000, 1.968503999999999809 ) ) ;
#8 = PLANE ( 'NONE',  #88 ) ;
#9 = AXIS2_PLACEMENT_3D ( 'NONE', #242, #66, #149 ) ;
#10 = DIRECTION ( 'NONE',  ( -0.0000000000000000000, -0.0000000000000000000, -1.000000000000000000 ) ) ;
#11 = CARTESIAN_POINT ( 'NONE',  ( 0.0000000000000000000, 0.0000000000000000000, 0.0000000000000000000 ) ) ;
#12 = CARTESIAN_POINT ( 'NONE',  ( 0.0000000000000000000, 0.0000000000000000000, 0.1968500000000001082 ) ) ;
#13 = CARTESIAN_POINT ( 'NONE',  ( 0.07874000000000001831, 9.642868896486260050E-18, 1.953504000000000129 ) ) ;
#14 = SURFACE_STYLE_USAGE ( .BOTH. , #38 ) ;
#15 = DIRECTION ( 'NONE',  ( 1.000000000000000000, 0.0000000000000000000, 0.0000000000000000000 ) ) ;
#16 = AXIS2_PLACEMENT_3D ( 'NONE', #207, #245, #306 ) ;
#17 = CARTESIAN_POINT ( 'NONE',  ( -0.07874000000000001831, 0.0000000000000000000, 1.968503999999999809 ) ) ;
#18 = EDGE_CURVE ( 'NONE', #346, #28, #56, .T. ) ;
#19 = DIRECTION ( 'NONE',  ( -0.0000000000000000000, -0.0000000000000000000, -1.000000000000000000 ) ) ;
#20 = CARTESIAN_POINT ( 'NONE',  ( -0.01574642520000000753, 0.0000000000000000000, 0.03149600000000000316 ) ) ;
#21 = CARTESIAN_POINT ( 'NONE',  ( -0.01535450000000001224, 0.0000000000000000000, 0.0000000000000000000 ) ) ;
#22 = CONICAL_SURFACE ( 'NONE', #232, 0.01574642520000000753, 0.1745329251994333919 ) ;
#23 = APPLICATION_PROTOCOL_DEFINITION ( 'draft international standard', 'automotive_design', 1998, #275 ) ;
#24 = EDGE_LOOP ( 'NONE', ( #191, #378, #374, #317 ) ) ;
#25 = CIRCLE ( 'NONE', #50, 0.01535450000000000530 ) ;
#26 = ORIENTED_EDGE ( 'NONE', *, *, #230, .F. ) ;
#27 = ORIENTED_EDGE ( 'NONE', *, *, #295, .T. ) ;
#28 = VERTEX_POINT ( 'NONE', #92 ) ;
#29 = CIRCLE ( 'NONE', #337, 0.06374000000000018540 ) ;
#30 = EDGE_LOOP ( 'NONE', ( #313, #27 ) ) ;
#31 = FACE_OUTER_BOUND ( 'NONE', #30, .T. ) ;
#32 = DIRECTION ( 'NONE',  ( 1.000000000000000000, 0.0000000000000000000, -0.0000000000000000000 ) ) ;
#33 = CARTESIAN_POINT ( 'NONE',  ( 0.01574642520000000753, 1.928380921919323089E-18, 0.03149600000000000316 ) ) ;
#34 = CARTESIAN_POINT ( 'NONE',  ( 0.0000000000000000000, 0.0000000000000000000, 0.1968500000000001082 ) ) ;
#35 = VECTOR ( 'NONE', #40, 39.37007874015748143 ) ;
#36 = SURFACE_STYLE_FILL_AREA ( #299 ) ;
#37 = DIRECTION ( 'NONE',  ( -0.0000000000000000000, -0.0000000000000000000, -1.000000000000000000 ) ) ;
#38 = SURFACE_SIDE_STYLE ('',( #36 ) ) ;
#39 = CARTESIAN_POINT ( 'NONE',  ( 0.0000000000000000000, 0.0000000000000000000, 0.1968500000000000250 ) ) ;
#40 = DIRECTION ( 'NONE',  ( 0.7071067811865507924, 8.659560562354973534E-17, -0.7071067811865443531 ) ) ;
#41 = AXIS2_PLACEMENT_3D ( 'NONE', #34, #60, #146 ) ;
#42 = DIRECTION ( 'NONE',  ( -0.0000000000000000000, -0.0000000000000000000, -1.000000000000000000 ) ) ;
#43 = DIRECTION ( 'NONE',  ( -0.0000000000000000000, -0.0000000000000000000, -1.000000000000000000 ) ) ;
#44 = LINE ( 'NONE', #70, #274 ) ;
#45 = CIRCLE ( 'NONE', #41, 0.07874000000000001831 ) ;
#46 =( NAMED_UNIT ( * ) PLANE_ANGLE_UNIT ( ) SI_UNIT ( $, .RADIAN. ) );
#47 = EDGE_CURVE ( 'NONE', #350, #136, #59, .T. ) ;
#48 = ORIENTED_EDGE ( 'NONE', *, *, #162, .F. ) ;
#49 = VERTEX_POINT ( 'NONE', #204 ) ;
#50 = AXIS2_PLACEMENT_3D ( 'NONE', #206, #359, #294 ) ;
#51 = COLOUR_RGB ( '',0.7921568627450980005, 0.8196078431372548767, 0.9333333333333333481 ) ;
#52 = ORIENTED_EDGE ( 'NONE', *, *, #127, .T. ) ;
#53 = ORIENTED_EDGE ( 'NONE', *, *, #235, .T. ) ;
#54 = ORIENTED_EDGE ( 'NONE', *, *, #345, .T. ) ;
#55 = STYLED_ITEM ( 'NONE', ( #122 ), #158 ) ;
#56 = LINE ( 'NONE', #5, #219 ) ;
#57 = ADVANCED_FACE ( 'NONE', ( #31 ), #116, .T. ) ;
#58 =( NAMED_UNIT ( * ) PLANE_ANGLE_UNIT ( ) SI_UNIT ( $, .RADIAN. ) );
#59 = LINE ( 'NONE', #148, #308 ) ;
#60 = DIRECTION ( 'NONE',  ( -0.0000000000000000000, -0.0000000000000000000, -1.000000000000000000 ) ) ;
#61 = FILL_AREA_STYLE_COLOUR ( '', #1 ) ;
#62 = CONICAL_SURFACE ( 'NONE', #102, 0.06374000000000018540, 0.7853981633974528309 ) ;
#63 = FACE_OUTER_BOUND ( 'NONE', #24, .T. ) ;
#64 = AXIS2_PLACEMENT_3D ( 'NONE', #216, #152, #336 ) ;
#65 = DIRECTION ( 'NONE',  ( -1.000000000000000000, 0.0000000000000000000, 0.0000000000000000000 ) ) ;
#66 = DIRECTION ( 'NONE',  ( -0.0000000000000000000, -0.0000000000000000000, -1.000000000000000000 ) ) ;
#67 = ADVANCED_FACE ( 'NONE', ( #260 ), #142, .T. ) ;
#68 = CARTESIAN_POINT ( 'NONE',  ( 0.0000000000000000000, 0.0000000000000000000, 0.0000000000000000000 ) ) ;
#69 = PLANE ( 'NONE',  #225 ) ;
#70 = CARTESIAN_POINT ( 'NONE',  ( 0.07874000000000001831, 9.642868896486260050E-18, 1.968503999999999809 ) ) ;
#71 = EDGE_CURVE ( 'NONE', #168, #104, #25, .T. ) ;
#72 = APPLICATION_PROTOCOL_DEFINITION ( 'draft international standard', 'automotive_design', 1998, #249 ) ;
#73 = AXIS2_PLACEMENT_3D ( 'NONE', #12, #174, #94 ) ;
#74 = CARTESIAN_POINT ( 'NONE',  ( 0.0000000000000000000, 0.0000000000000000000, 0.0000000000000000000 ) ) ;
#75 = DIRECTION ( 'NONE',  ( -0.1736481776669307475, 0.0000000000000000000, -0.9848077530122077983 ) ) ;
#76 = DIRECTION ( 'NONE',  ( -1.000000000000000000, 0.0000000000000000000, 0.0000000000000000000 ) ) ;
#77 = ORIENTED_EDGE ( 'NONE', *, *, #18, .F. ) ;
#78 = SURFACE_SIDE_STYLE ('',( #252 ) ) ;
#79 = ADVANCED_FACE ( 'NONE', ( #356 ), #369, .T. ) ;
#80 = ORIENTED_EDGE ( 'NONE', *, *, #254, .T. ) ;
#81 = ORIENTED_EDGE ( 'NONE', *, *, #147, .F. ) ;
#82 = ADVANCED_FACE ( 'NONE', ( #208 ), #62, .T. ) ;
#83 = ORIENTED_EDGE ( 'NONE', *, *, #113, .T. ) ;
#84 = CIRCLE ( 'NONE', #2, 0.06374000000000018540 ) ;
#85 = EDGE_LOOP ( 'NONE', ( #83, #309 ) ) ;
#86 = EDGE_LOOP ( 'NONE', ( #110, #215, #98, #112 ) ) ;
#87 = CARTESIAN_POINT ( 'NONE',  ( 0.01574642520000000753, 1.928380921919323089E-18, 0.0000000000000000000 ) ) ;
#88 = AXIS2_PLACEMENT_3D ( 'NONE', #181, #89, #269 ) ;
#89 = DIRECTION ( 'NONE',  ( -0.0000000000000000000, 0.0000000000000000000, -1.000000000000000000 ) ) ;
#90 = DIRECTION ( 'NONE',  ( -1.000000000000000000, 0.0000000000000000000, 0.0000000000000000000 ) ) ;
#91 = CARTESIAN_POINT ( 'NONE',  ( 0.0000000000000000000, 0.0000000000000000000, 0.03371871826141004808 ) ) ;
#92 = CARTESIAN_POINT ( 'NONE',  ( -0.07874000000000001831, 0.0000000000000000000, 1.953504000000000129 ) ) ;
#93 = DIRECTION ( 'NONE',  ( 0.0000000000000000000, 0.0000000000000000000, 1.000000000000000000 ) ) ;
#94 = DIRECTION ( 'NONE',  ( -1.000000000000000000, 0.0000000000000000000, 0.0000000000000000000 ) ) ;
#95 = DIRECTION ( 'NONE',  ( 0.0000000000000000000, 0.0000000000000000000, -1.000000000000000000 ) ) ;
#96 =( LENGTH_UNIT ( ) NAMED_UNIT ( * ) SI_UNIT ( $, .METRE. ) );
#97 = LENGTH_MEASURE_WITH_UNIT ( LENGTH_MEASURE( 0.02539999999999999897 ), #304 );
#98 = ORIENTED_EDGE ( 'NONE', *, *, #71, .F. ) ;
#99 = DIRECTION ( 'NONE',  ( 0.0000000000000000000, 0.0000000000000000000, 1.000000000000000000 ) ) ;
#100 = CYLINDRICAL_SURFACE ( 'NONE', #64, 0.07874000000000001831 ) ;
#101 = ORIENTED_EDGE ( 'NONE', *, *, #162, .T. ) ;
#102 = AXIS2_PLACEMENT_3D ( 'NONE', #7, #263, #237 ) ;
#103 = LINE ( 'NONE', #17, #375 ) ;
#104 = VERTEX_POINT ( 'NONE', #172 ) ;
#105 = VECTOR ( 'NONE', #19, 39.37007874015748143 ) ;
#106 = ORIENTED_EDGE ( 'NONE', *, *, #295, .F. ) ;
#107 = UNCERTAINTY_MEASURE_WITH_UNIT (LENGTH_MEASURE( 1.000000000000000082E-05 ), #341, 'distance_accuracy_value', 'NONE');
#108 = ORIENTED_EDGE ( 'NONE', *, *, #302, .F. ) ;
#109 = CLOSED_SHELL ( 'NONE', ( #226, #189, #4, #82, #217, #372, #57, #133, #376, #79, #67, #141, #322 ) ) ;
#110 = ORIENTED_EDGE ( 'NONE', *, *, #261, .T. ) ;
#111 = CIRCLE ( 'NONE', #233, 0.01574642520000000753 ) ;
#112 = ORIENTED_EDGE ( 'NONE', *, *, #203, .F. ) ;
#113 = EDGE_CURVE ( 'NONE', #315, #318, #258, .T. ) ;
#114 = DIRECTION ( 'NONE',  ( -0.0000000000000000000, -0.0000000000000000000, -1.000000000000000000 ) ) ;
#115 = CARTESIAN_POINT ( 'NONE',  ( 0.0000000000000000000, 0.0000000000000000000, 1.968503999999999809 ) ) ;
#116 = PLANE ( 'NONE',  #134 ) ;
#117 = CIRCLE ( 'NONE', #161, 0.01535450000000000530 ) ;
#118 = DIRECTION ( 'NONE',  ( -0.0000000000000000000, -0.0000000000000000000, -1.000000000000000000 ) ) ;
#119 = DIRECTION ( 'NONE',  ( -0.0000000000000000000, -0.0000000000000000000, -1.000000000000000000 ) ) ;
#120 = CARTESIAN_POINT ( 'NONE',  ( 0.0000000000000000000, 0.0000000000000000000, 0.03149600000000000316 ) ) ;
#121 = CARTESIAN_POINT ( 'NONE',  ( 0.0000000000000000000, 0.0000000000000000000, 1.968503999999999809 ) ) ;
#122 = PRESENTATION_STYLE_ASSIGNMENT (( #14 ) ) ;
#123 = AXIS2_PLACEMENT_3D ( 'NONE', #163, #99, #130 ) ;
#124 = DIMENSIONAL_EXPONENTS ( 1.000000000000000000, 0.0000000000000000000, 0.0000000000000000000, 0.0000000000000000000, 0.0000000000000000000, 0.0000000000000000000, 0.0000000000000000000 ) ;
#125 = CARTESIAN_POINT ( 'NONE',  ( 0.0000000000000000000, 0.0000000000000000000, 0.03149600000000000316 ) ) ;
#126 =( LENGTH_UNIT ( ) NAMED_UNIT ( * ) SI_UNIT ( $, .METRE. ) );
#127 = EDGE_CURVE ( 'NONE', #104, #350, #297, .T. ) ;
#128 = PRODUCT_DEFINITION ( 'UNKNOWN', '', #186, #335 ) ;
#129 = CYLINDRICAL_SURFACE ( 'NONE', #314, 0.01574642520000000753 ) ;
#130 = DIRECTION ( 'NONE',  ( 1.000000000000000000, 0.0000000000000000000, 0.0000000000000000000 ) ) ;
#131 = CONICAL_SURFACE ( 'NONE', #177, 0.06374000000000018540, 0.7853981633974528309 ) ;
#132 = DIRECTION ( 'NONE',  ( -0.0000000000000000000, -0.0000000000000000000, -1.000000000000000000 ) ) ;
#133 = ADVANCED_FACE ( 'NONE', ( #144 ), #131, .T. ) ;
#134 = AXIS2_PLACEMENT_3D ( 'NONE', #268, #323, #332 ) ;
#135 = CIRCLE ( 'NONE', #9, 0.01574642520000000753 ) ;
#136 = VERTEX_POINT ( 'NONE', #87 ) ;
#137 = ORIENTED_EDGE ( 'NONE', *, *, #193, .F. ) ;
#138 = ORIENTED_EDGE ( 'NONE', *, *, #147, .T. ) ;
#139 = ORIENTED_EDGE ( 'NONE', *, *, #127, .F. ) ;
#140 = ORIENTED_EDGE ( 'NONE', *, *, #334, .F. ) ;
#141 = ADVANCED_FACE ( 'NONE', ( #180 ), #303, .T. ) ;
#142 = CYLINDRICAL_SURFACE ( 'NONE', #185, 0.01535450000000001224 ) ;
#143 = CARTESIAN_POINT ( 'NONE',  ( 0.0000000000000000000, 0.0000000000000000000, 0.0000000000000000000 ) ) ;
#144 = FACE_OUTER_BOUND ( 'NONE', #338, .T. ) ;
#145 = CIRCLE ( 'NONE', #153, 0.01535450000000002438 ) ;
#146 = DIRECTION ( 'NONE',  ( -1.000000000000000000, 0.0000000000000000000, 0.0000000000000000000 ) ) ;
#147 = EDGE_CURVE ( 'NONE', #169, #49, #281, .T. ) ;
#148 = CARTESIAN_POINT ( 'NONE',  ( 0.01574642520000000753, 1.928380921919323089E-18, 0.0000000000000000000 ) ) ;
#149 = DIRECTION ( 'NONE',  ( -1.000000000000000000, 0.0000000000000000000, 0.0000000000000000000 ) ) ;
#150 = CARTESIAN_POINT ( 'NONE',  ( 0.0000000000000000000, 0.0000000000000000000, 0.03149600000000000316 ) ) ;
#151 = DIRECTION ( 'NONE',  ( 0.0000000000000000000, 0.0000000000000000000, -1.000000000000000000 ) ) ;
#152 = DIRECTION ( 'NONE',  ( -0.0000000000000000000, -0.0000000000000000000, -1.000000000000000000 ) ) ;
#153 = AXIS2_PLACEMENT_3D ( 'NONE', #175, #272, #240 ) ;
#154 = CARTESIAN_POINT ( 'NONE',  ( -0.07874000000000001831, 0.0000000000000000000, 0.1968500000000001082 ) ) ;
#155 = CYLINDRICAL_SURFACE ( 'NONE', #343, 0.01535450000000001224 ) ;
#156 = FACE_OUTER_BOUND ( 'NONE', #200, .T. ) ;
#157 = ORIENTED_EDGE ( 'NONE', *, *, #213, .T. ) ;
#158 = MANIFOLD_SOLID_BREP ( 'Cut-Revolve1', #109 ) ;
#159 = LINE ( 'NONE', #311, #209 ) ;
#160 = AXIS2_PLACEMENT_3D ( 'NONE', #39, #321, #241 ) ;
#161 = AXIS2_PLACEMENT_3D ( 'NONE', #91, #358, #364 ) ;
#162 = EDGE_CURVE ( 'NONE', #251, #255, #159, .T. ) ;
#163 = CARTESIAN_POINT ( 'NONE',  ( 0.0000000000000000000, 0.0000000000000000000, 0.0000000000000000000 ) ) ;
#164 = VERTEX_POINT ( 'NONE', #325 ) ;
#165 = EDGE_CURVE ( 'NONE', #379, #318, #44, .T. ) ;
#166 = AXIS2_PLACEMENT_3D ( 'NONE', #361, #95, #244 ) ;
#167 = ORIENTED_EDGE ( 'NONE', *, *, #277, .F. ) ;
#168 = VERTEX_POINT ( 'NONE', #248 ) ;
#169 = VERTEX_POINT ( 'NONE', #367 ) ;
#170 = EDGE_LOOP ( 'NONE', ( #229, #54 ) ) ;
#171 =( GEOMETRIC_REPRESENTATION_CONTEXT ( 3 ) GLOBAL_UNCERTAINTY_ASSIGNED_CONTEXT ( ( #344 ) ) GLOBAL_UNIT_ASSIGNED_CONTEXT ( ( #212, #58, #339 ) ) REPRESENTATION_CONTEXT ( 'NONE', 'WORKASPACE' ) );
#172 = CARTESIAN_POINT ( 'NONE',  ( 0.01535450000000000530, 1.904382424835063555E-18, 0.03371871826141004808 ) ) ;
#173 = FACE_BOUND ( 'NONE', #316, .T. ) ;
#174 = DIRECTION ( 'NONE',  ( -0.0000000000000000000, -0.0000000000000000000, -1.000000000000000000 ) ) ;
#175 = CARTESIAN_POINT ( 'NONE',  ( 0.0000000000000000000, 0.0000000000000000000, 0.1968500000000000250 ) ) ;
#176 = DIRECTION ( 'NONE',  ( -1.000000000000000000, 0.0000000000000000000, 0.0000000000000000000 ) ) ;
#177 = AXIS2_PLACEMENT_3D ( 'NONE', #201, #270, #65 ) ;
#178 = AXIS2_PLACEMENT_3D ( 'NONE', #143, #119, #205 ) ;
#179 = CARTESIAN_POINT ( 'NONE',  ( -0.01574642520000000753, 0.0000000000000000000, 0.0000000000000000000 ) ) ;
#180 = FACE_OUTER_BOUND ( 'NONE', #3, .T. ) ;
#181 = CARTESIAN_POINT ( 'NONE',  ( 0.01535450000000002438, 0.0000000000000000000, 0.1968500000000000250 ) ) ;
#182 = DIRECTION ( 'NONE',  ( -0.0000000000000000000, -0.0000000000000000000, -1.000000000000000000 ) ) ;
#183 = CARTESIAN_POINT ( 'NONE',  ( 0.0000000000000000000, 0.0000000000000000000, 1.953504000000000129 ) ) ;
#184 = ORIENTED_EDGE ( 'NONE', *, *, #18, .T. ) ;
#185 = AXIS2_PLACEMENT_3D ( 'NONE', #68, #305, #352 ) ;
#186 = PRODUCT_DEFINITION_FORMATION_WITH_SPECIFIED_SOURCE ( 'ANY', '', #326, .NOT_KNOWN. ) ;
#187 = LINE ( 'NONE', #368, #370 ) ;
#188 = CARTESIAN_POINT ( 'NONE',  ( 0.0000000000000000000, 0.0000000000000000000, 0.0000000000000000000 ) ) ;
#189 = ADVANCED_FACE ( 'NONE', ( #307 ), #155, .T. ) ;
#190 = LINE ( 'NONE', #246, #35 ) ;
#191 = ORIENTED_EDGE ( 'NONE', *, *, #165, .F. ) ;
#192 = PRESENTATION_LAYER_ASSIGNMENT (  '', '', ( #363 ) ) ;
#193 = EDGE_CURVE ( 'NONE', #169, #104, #187, .T. ) ;
#194 = ORIENTED_EDGE ( 'NONE', *, *, #289, .T. ) ;
#195 = ORIENTED_EDGE ( 'NONE', *, *, #71, .T. ) ;
#196 = VECTOR ( 'NONE', #329, 39.37007874015748854 ) ;
#197 = DIMENSIONAL_EXPONENTS ( 1.000000000000000000, 0.0000000000000000000, 0.0000000000000000000, 0.0000000000000000000, 0.0000000000000000000, 0.0000000000000000000, 0.0000000000000000000 ) ;
#198 = ORIENTED_EDGE ( 'NONE', *, *, #357, .F. ) ;
#199 = ORIENTED_EDGE ( 'NONE', *, *, #254, .F. ) ;
#200 = EDGE_LOOP ( 'NONE', ( #194, #347, #288, #26 ) ) ;
#201 = CARTESIAN_POINT ( 'NONE',  ( 0.0000000000000000000, 0.0000000000000000000, 1.968503999999999809 ) ) ;
#202 = AXIS2_PLACEMENT_3D ( 'NONE', #183, #151, #276 ) ;
#203 = EDGE_CURVE ( 'NONE', #49, #168, #223, .T. ) ;
#204 = CARTESIAN_POINT ( 'NONE',  ( -0.01535450000000002438, 0.0000000000000000000, 0.1968500000000000250 ) ) ;
#205 = DIRECTION ( 'NONE',  ( -1.000000000000000000, 0.0000000000000000000, 0.0000000000000000000 ) ) ;
#206 = CARTESIAN_POINT ( 'NONE',  ( 0.0000000000000000000, 0.0000000000000000000, 0.03371871826141004808 ) ) ;
#207 = CARTESIAN_POINT ( 'NONE',  ( 0.0000000000000000000, 0.0000000000000000000, 0.03149600000000000316 ) ) ;
#208 = FACE_OUTER_BOUND ( 'NONE', #293, .T. ) ;
#209 = VECTOR ( 'NONE', #42, 39.37007874015748143 ) ;
#210 = DIRECTION ( 'NONE',  ( 1.000000000000000000, 0.0000000000000000000, 0.0000000000000000000 ) ) ;
#211 = FACE_OUTER_BOUND ( 'NONE', #285, .T. ) ;
#212 =( CONVERSION_BASED_UNIT ( 'INCH', #97 ) LENGTH_UNIT ( ) NAMED_UNIT ( #264 ) );
#213 = EDGE_CURVE ( 'NONE', #168, #251, #214, .T. ) ;
#214 = LINE ( 'NONE', #20, #287 ) ;
#215 = ORIENTED_EDGE ( 'NONE', *, *, #193, .T. ) ;
#216 = CARTESIAN_POINT ( 'NONE',  ( 0.0000000000000000000, 0.0000000000000000000, 1.968503999999999809 ) ) ;
#217 = ADVANCED_FACE ( 'NONE', ( #156 ), #100, .T. ) ;
#218 =( NAMED_UNIT ( * ) SI_UNIT ( $, .STERADIAN. ) SOLID_ANGLE_UNIT ( ) );
#219 = VECTOR ( 'NONE', #243, 39.37007874015748143 ) ;
#220 = DIRECTION ( 'NONE',  ( -0.0000000000000000000, -0.0000000000000000000, -1.000000000000000000 ) ) ;
#221 = ORIENTED_EDGE ( 'NONE', *, *, #235, .F. ) ;
#222 = FILL_AREA_STYLE ('',( #284 ) ) ;
#223 = LINE ( 'NONE', #21, #105 ) ;
#224 = LENGTH_MEASURE_WITH_UNIT ( LENGTH_MEASURE( 0.02539999999999999897 ), #126 );
#225 = AXIS2_PLACEMENT_3D ( 'NONE', #11, #93, #32 ) ;
#226 = ADVANCED_FACE ( 'NONE', ( #279 ), #129, .T. ) ;
#227 = ORIENTED_EDGE ( 'NONE', *, *, #345, .F. ) ;
#228 = ORIENTED_EDGE ( 'NONE', *, *, #213, .F. ) ;
#229 = ORIENTED_EDGE ( 'NONE', *, *, #357, .T. ) ;
#230 = EDGE_CURVE ( 'NONE', #28, #315, #103, .T. ) ;
#231 = UNCERTAINTY_MEASURE_WITH_UNIT (LENGTH_MEASURE( 1.000000000000000082E-05 ), #278, 'distance_accuracy_value', 'NONE');
#232 = AXIS2_PLACEMENT_3D ( 'NONE', #120, #182, #90 ) ;
#233 = AXIS2_PLACEMENT_3D ( 'NONE', #125, #220, #76 ) ;
#234 = ORIENTED_EDGE ( 'NONE', *, *, #47, .T. ) ;
#235 = EDGE_CURVE ( 'NONE', #350, #251, #111, .T. ) ;
#236 = EDGE_LOOP ( 'NONE', ( #259, #234, #198, #48 ) ) ;
#237 = DIRECTION ( 'NONE',  ( -1.000000000000000000, 0.0000000000000000000, 0.0000000000000000000 ) ) ;
#238 = CARTESIAN_POINT ( 'NONE',  ( 0.0000000000000000000, 0.0000000000000000000, 1.968503999999999809 ) ) ;
#239 = DIRECTION ( 'NONE',  ( -1.000000000000000000, 0.0000000000000000000, 0.0000000000000000000 ) ) ;
#240 = DIRECTION ( 'NONE',  ( -1.000000000000000000, 0.0000000000000000000, 0.0000000000000000000 ) ) ;
#241 = DIRECTION ( 'NONE',  ( -1.000000000000000000, 0.0000000000000000000, 0.0000000000000000000 ) ) ;
#242 = CARTESIAN_POINT ( 'NONE',  ( 0.0000000000000000000, 0.0000000000000000000, 0.0000000000000000000 ) ) ;
#243 = DIRECTION ( 'NONE',  ( -0.7071067811865507924, 0.0000000000000000000, -0.7071067811865443531 ) ) ;
#244 = DIRECTION ( 'NONE',  ( 1.000000000000000000, 0.0000000000000000000, 0.0000000000000000000 ) ) ;
#245 = DIRECTION ( 'NONE',  ( -0.0000000000000000000, -0.0000000000000000000, -1.000000000000000000 ) ) ;
#246 = CARTESIAN_POINT ( 'NONE',  ( 0.06374000000000018540, 7.805898697765251255E-18, 1.968503999999999809 ) ) ;
#247 =( NAMED_UNIT ( * ) PLANE_ANGLE_UNIT ( ) SI_UNIT ( $, .RADIAN. ) );
#248 = CARTESIAN_POINT ( 'NONE',  ( -0.01535450000000000530, 0.0000000000000000000, 0.03371871826141004808 ) ) ;
#249 = APPLICATION_CONTEXT ( 'automotive_design' ) ;
#250 = CIRCLE ( 'NONE', #16, 0.01574642520000000753 ) ;
#251 = VERTEX_POINT ( 'NONE', #340 ) ;
#252 = SURFACE_STYLE_FILL_AREA ( #222 ) ;
#253 = CIRCLE ( 'NONE', #202, 0.07874000000000001831 ) ;
#254 = EDGE_CURVE ( 'NONE', #164, #379, #190, .T. ) ;
#255 = VERTEX_POINT ( 'NONE', #179 ) ;
#256 = ORIENTED_EDGE ( 'NONE', *, *, #203, .T. ) ;
#257 = ORIENTED_EDGE ( 'NONE', *, *, #302, .T. ) ;
#258 = CIRCLE ( 'NONE', #73, 0.07874000000000001831 ) ;
#259 = ORIENTED_EDGE ( 'NONE', *, *, #277, .T. ) ;
#260 = FACE_OUTER_BOUND ( 'NONE', #290, .T. ) ;
#261 = EDGE_CURVE ( 'NONE', #49, #169, #145, .T. ) ;
#262 = ADVANCED_BREP_SHAPE_REPRESENTATION ( 'Micro_MMBM-008-5', ( #158, #123 ), #171 ) ;
#263 = DIRECTION ( 'NONE',  ( 0.0000000000000000000, 0.0000000000000000000, -1.000000000000000000 ) ) ;
#264 = DIMENSIONAL_EXPONENTS ( 1.000000000000000000, 0.0000000000000000000, 0.0000000000000000000, 0.0000000000000000000, 0.0000000000000000000, 0.0000000000000000000, 0.0000000000000000000 ) ;
#265 = DIRECTION ( 'NONE',  ( 0.0000000000000000000, 0.0000000000000000000, 1.000000000000000000 ) ) ;
#266 = CARTESIAN_POINT ( 'NONE',  ( 0.0000000000000000000, 0.0000000000000000000, 0.0000000000000000000 ) ) ;
#267 =( GEOMETRIC_REPRESENTATION_CONTEXT ( 3 ) GLOBAL_UNCERTAINTY_ASSIGNED_CONTEXT ( ( #231 ) ) GLOBAL_UNIT_ASSIGNED_CONTEXT ( ( #278, #247, #333 ) ) REPRESENTATION_CONTEXT ( 'NONE', 'WORKASPACE' ) );
#268 = CARTESIAN_POINT ( 'NONE',  ( 0.0000000000000000000, 0.0000000000000000000, 1.968503999999999809 ) ) ;
#269 = DIRECTION ( 'NONE',  ( -1.000000000000000000, 0.0000000000000000000, 0.0000000000000000000 ) ) ;
#270 = DIRECTION ( 'NONE',  ( 0.0000000000000000000, 0.0000000000000000000, -1.000000000000000000 ) ) ;
#271 = EDGE_CURVE ( 'NONE', #379, #28, #330, .T. ) ;
#272 = DIRECTION ( 'NONE',  ( -0.0000000000000000000, -0.0000000000000000000, -1.000000000000000000 ) ) ;
#273 = DIRECTION ( 'NONE',  ( -1.000000000000000000, 0.0000000000000000000, 0.0000000000000000000 ) ) ;
#274 = VECTOR ( 'NONE', #280, 39.37007874015748143 ) ;
#275 = APPLICATION_CONTEXT ( 'automotive_design' ) ;
#276 = DIRECTION ( 'NONE',  ( 1.000000000000000000, 0.0000000000000000000, 0.0000000000000000000 ) ) ;
#277 = EDGE_CURVE ( 'NONE', #251, #350, #250, .T. ) ;
#278 =( CONVERSION_BASED_UNIT ( 'INCH', #283 ) LENGTH_UNIT ( ) NAMED_UNIT ( #124 ) );
#279 = FACE_OUTER_BOUND ( 'NONE', #236, .T. ) ;
#280 = DIRECTION ( 'NONE',  ( -0.0000000000000000000, -0.0000000000000000000, -1.000000000000000000 ) ) ;
#281 = CIRCLE ( 'NONE', #160, 0.01535450000000002438 ) ;
#282 = PRESENTATION_STYLE_ASSIGNMENT (( #373 ) ) ;
#283 = LENGTH_MEASURE_WITH_UNIT ( LENGTH_MEASURE( 0.02539999999999999897 ), #96 );
#284 = FILL_AREA_STYLE_COLOUR ( '', #51 ) ;
#285 = EDGE_LOOP ( 'NONE', ( #195, #52, #167, #228 ) ) ;
#286 = AXIS2_PLACEMENT_3D ( 'NONE', #150, #118, #239 ) ;
#287 = VECTOR ( 'NONE', #75, 39.37007874015748854 ) ;
#288 = ORIENTED_EDGE ( 'NONE', *, *, #113, .F. ) ;
#289 = EDGE_CURVE ( 'NONE', #28, #379, #253, .T. ) ;
#290 = EDGE_LOOP ( 'NONE', ( #137, #138, #256, #108 ) ) ;
#291 = ORIENTED_EDGE ( 'NONE', *, *, #261, .F. ) ;
#292 =( GEOMETRIC_REPRESENTATION_CONTEXT ( 3 ) GLOBAL_UNCERTAINTY_ASSIGNED_CONTEXT ( ( #107 ) ) GLOBAL_UNIT_ASSIGNED_CONTEXT ( ( #341, #46, #218 ) ) REPRESENTATION_CONTEXT ( 'NONE', 'WORKASPACE' ) );
#293 = EDGE_LOOP ( 'NONE', ( #106, #80, #351, #77 ) ) ;
#294 = DIRECTION ( 'NONE',  ( -1.000000000000000000, 0.0000000000000000000, 0.0000000000000000000 ) ) ;
#295 = EDGE_CURVE ( 'NONE', #164, #346, #29, .T. ) ;
#296 = FACE_OUTER_BOUND ( 'NONE', #85, .T. ) ;
#297 = LINE ( 'NONE', #33, #196 ) ;
#298 = CARTESIAN_POINT ( 'NONE',  ( -0.06374000000000018540, 0.0000000000000000000, 1.968503999999999809 ) ) ;
#299 = FILL_AREA_STYLE ('',( #61 ) ) ;
#300 = MECHANICAL_DESIGN_GEOMETRIC_PRESENTATION_REPRESENTATION (  '', ( #55 ), #267 ) ;
#301 = CYLINDRICAL_SURFACE ( 'NONE', #354, 0.07874000000000001831 ) ;
#302 = EDGE_CURVE ( 'NONE', #104, #168, #117, .T. ) ;
#303 = CYLINDRICAL_SURFACE ( 'NONE', #328, 0.01574642520000000753 ) ;
#304 =( LENGTH_UNIT ( ) NAMED_UNIT ( * ) SI_UNIT ( $, .METRE. ) );
#305 = DIRECTION ( 'NONE',  ( -0.0000000000000000000, -0.0000000000000000000, -1.000000000000000000 ) ) ;
#306 = DIRECTION ( 'NONE',  ( -1.000000000000000000, 0.0000000000000000000, 0.0000000000000000000 ) ) ;
#307 = FACE_OUTER_BOUND ( 'NONE', #86, .T. ) ;
#308 = VECTOR ( 'NONE', #114, 39.37007874015748143 ) ;
#309 = ORIENTED_EDGE ( 'NONE', *, *, #366, .T. ) ;
#310 = PRODUCT_CONTEXT ( 'NONE', #249, 'mechanical' ) ;
#311 = CARTESIAN_POINT ( 'NONE',  ( -0.01574642520000000753, 0.0000000000000000000, 0.0000000000000000000 ) ) ;
#312 = SHAPE_DEFINITION_REPRESENTATION ( #360, #262 ) ;
#313 = ORIENTED_EDGE ( 'NONE', *, *, #334, .T. ) ;
#314 = AXIS2_PLACEMENT_3D ( 'NONE', #74, #132, #273 ) ;
#315 = VERTEX_POINT ( 'NONE', #154 ) ;
#316 = EDGE_LOOP ( 'NONE', ( #291, #81 ) ) ;
#317 = ORIENTED_EDGE ( 'NONE', *, *, #366, .F. ) ;
#318 = VERTEX_POINT ( 'NONE', #331 ) ;
#319 = ORIENTED_EDGE ( 'NONE', *, *, #271, .F. ) ;
#320 = PRESENTATION_LAYER_ASSIGNMENT (  '', '', ( #55 ) ) ;
#321 = DIRECTION ( 'NONE',  ( -0.0000000000000000000, -0.0000000000000000000, -1.000000000000000000 ) ) ;
#322 = ADVANCED_FACE ( 'NONE', ( #327 ), #69, .F. ) ;
#323 = DIRECTION ( 'NONE',  ( 0.0000000000000000000, 0.0000000000000000000, 1.000000000000000000 ) ) ;
#324 = DIRECTION ( 'NONE',  ( 0.0000000000000000000, 0.0000000000000000000, 1.000000000000000000 ) ) ;
#325 = CARTESIAN_POINT ( 'NONE',  ( 0.06374000000000018540, 8.724383797125754882E-18, 1.968503999999999809 ) ) ;
#326 = PRODUCT ( 'Micro_MMBM-008-5', 'Micro_MMBM-008-5', '', ( #310 ) ) ;
#327 = FACE_OUTER_BOUND ( 'NONE', #170, .T. ) ;
#328 = AXIS2_PLACEMENT_3D ( 'NONE', #266, #10, #176 ) ;
#329 = DIRECTION ( 'NONE',  ( 0.1736481776669307475, 2.126576849575776537E-17, -0.9848077530122077983 ) ) ;
#330 = CIRCLE ( 'NONE', #166, 0.07874000000000001831 ) ;
#331 = CARTESIAN_POINT ( 'NONE',  ( 0.07874000000000001831, 9.642868896486260050E-18, 0.1968500000000001082 ) ) ;
#332 = DIRECTION ( 'NONE',  ( 1.000000000000000000, 0.0000000000000000000, -0.0000000000000000000 ) ) ;
#333 =( NAMED_UNIT ( * ) SI_UNIT ( $, .STERADIAN. ) SOLID_ANGLE_UNIT ( ) );
#334 = EDGE_CURVE ( 'NONE', #346, #164, #84, .T. ) ;
#335 = PRODUCT_DEFINITION_CONTEXT ( 'detailed design', #275, 'design' ) ;
#336 = DIRECTION ( 'NONE',  ( -1.000000000000000000, 0.0000000000000000000, 0.0000000000000000000 ) ) ;
#337 = AXIS2_PLACEMENT_3D ( 'NONE', #238, #265, #210 ) ;
#338 = EDGE_LOOP ( 'NONE', ( #199, #140, #184, #319 ) ) ;
#339 =( NAMED_UNIT ( * ) SI_UNIT ( $, .STERADIAN. ) SOLID_ANGLE_UNIT ( ) );
#340 = CARTESIAN_POINT ( 'NONE',  ( -0.01574642520000000753, 0.0000000000000000000, 0.03149600000000000316 ) ) ;
#341 =( CONVERSION_BASED_UNIT ( 'INCH', #224 ) LENGTH_UNIT ( ) NAMED_UNIT ( #197 ) );
#342 = DIRECTION ( 'NONE',  ( -0.0000000000000000000, -0.0000000000000000000, -1.000000000000000000 ) ) ;
#343 = AXIS2_PLACEMENT_3D ( 'NONE', #188, #365, #371 ) ;
#344 = UNCERTAINTY_MEASURE_WITH_UNIT (LENGTH_MEASURE( 1.000000000000000082E-05 ), #212, 'distance_accuracy_value', 'NONE');
#345 = EDGE_CURVE ( 'NONE', #136, #255, #135, .T. ) ;
#346 = VERTEX_POINT ( 'NONE', #298 ) ;
#347 = ORIENTED_EDGE ( 'NONE', *, *, #165, .T. ) ;
#348 = ORIENTED_EDGE ( 'NONE', *, *, #47, .F. ) ;
#349 = CIRCLE ( 'NONE', #178, 0.01574642520000000753 ) ;
#350 = VERTEX_POINT ( 'NONE', #355 ) ;
#351 = ORIENTED_EDGE ( 'NONE', *, *, #289, .F. ) ;
#352 = DIRECTION ( 'NONE',  ( -1.000000000000000000, 0.0000000000000000000, 0.0000000000000000000 ) ) ;
#353 = DIRECTION ( 'NONE',  ( -1.000000000000000000, 0.0000000000000000000, 0.0000000000000000000 ) ) ;
#354 = AXIS2_PLACEMENT_3D ( 'NONE', #121, #37, #353 ) ;
#355 = CARTESIAN_POINT ( 'NONE',  ( 0.01574642520000000753, 1.928380921919323089E-18, 0.03149600000000000316 ) ) ;
#356 = FACE_OUTER_BOUND ( 'NONE', #377, .T. ) ;
#357 = EDGE_CURVE ( 'NONE', #255, #136, #349, .T. ) ;
#358 = DIRECTION ( 'NONE',  ( -0.0000000000000000000, -0.0000000000000000000, -1.000000000000000000 ) ) ;
#359 = DIRECTION ( 'NONE',  ( -0.0000000000000000000, -0.0000000000000000000, -1.000000000000000000 ) ) ;
#360 = PRODUCT_DEFINITION_SHAPE ( 'NONE', 'NONE',  #128 ) ;
#361 = CARTESIAN_POINT ( 'NONE',  ( 0.0000000000000000000, 0.0000000000000000000, 1.953504000000000129 ) ) ;
#362 = MECHANICAL_DESIGN_GEOMETRIC_PRESENTATION_REPRESENTATION (  '', ( #363 ), #292 ) ;
#363 = STYLED_ITEM ( 'NONE', ( #282 ), #262 ) ;
#364 = DIRECTION ( 'NONE',  ( -1.000000000000000000, 0.0000000000000000000, 0.0000000000000000000 ) ) ;
#365 = DIRECTION ( 'NONE',  ( -0.0000000000000000000, -0.0000000000000000000, -1.000000000000000000 ) ) ;
#366 = EDGE_CURVE ( 'NONE', #318, #315, #45, .T. ) ;
#367 = CARTESIAN_POINT ( 'NONE',  ( 0.01535450000000002438, 1.880383927750806332E-18, 0.1968500000000000250 ) ) ;
#368 = CARTESIAN_POINT ( 'NONE',  ( 0.01535450000000001224, 1.880383927750805176E-18, 0.0000000000000000000 ) ) ;
#369 = CONICAL_SURFACE ( 'NONE', #286, 0.01574642520000000753, 0.1745329251994333919 ) ;
#370 = VECTOR ( 'NONE', #43, 39.37007874015748143 ) ;
#371 = DIRECTION ( 'NONE',  ( -1.000000000000000000, 0.0000000000000000000, 0.0000000000000000000 ) ) ;
#372 = ADVANCED_FACE ( 'NONE', ( #63 ), #301, .T. ) ;
#373 = SURFACE_STYLE_USAGE ( .BOTH. , #78 ) ;
#374 = ORIENTED_EDGE ( 'NONE', *, *, #230, .T. ) ;
#375 = VECTOR ( 'NONE', #342, 39.37007874015748143 ) ;
#376 = ADVANCED_FACE ( 'NONE', ( #173, #296 ), #8, .T. ) ;
#377 = EDGE_LOOP ( 'NONE', ( #139, #257, #157, #221 ) ) ;
#378 = ORIENTED_EDGE ( 'NONE', *, *, #271, .T. ) ;
#379 = VERTEX_POINT ( 'NONE', #13 ) ;
ENDSEC;
END-ISO-10303-21;
