ISO-10303-21;
HEADER;
FILE_DESCRIPTION (( 'STEP AP214' ),
    '1' );
FILE_NAME ('83426.STEP',
    '2023-06-30T23:18:59',
    ( '' ),
    ( '' ),
    'SwSTEP 2.0',
    'SolidWorks 2023',
    '' );
FILE_SCHEMA (( 'AUTOMOTIVE_DESIGN' ));
ENDSEC;

DATA;
#1 = ADVANCED_FACE ( 'NONE', ( #361 ), #241, .T. ) ;
#2 = AXIS2_PLACEMENT_3D ( 'NONE', #22, #81, #311 ) ;
#3 = CIRCLE ( 'NONE', #359, 0.2499999999999998890 ) ;
#4 = CARTESIAN_POINT ( 'NONE',  ( 0.000000000000000000, 0.000000000000000000, 0.000000000000000000 ) ) ;
#5 = CARTESIAN_POINT ( 'NONE',  ( 0.2499999999999996669, 4.000000000000000000, 3.061616997868379320E-17 ) ) ;
#6 = ORIENTED_EDGE ( 'NONE', *, *, #156, .T. ) ;
#7 = ORIENTED_EDGE ( 'NONE', *, *, #222, .T. ) ;
#8 = VERTEX_POINT ( 'NONE', #353 ) ;
#9 = DIRECTION ( 'NONE',  ( 0.000000000000000000, 0.000000000000000000, -1.000000000000000000 ) ) ;
#10 = CLOSED_SHELL ( 'NONE', ( #312, #129, #68, #296 ) ) ;
#11 = MECHANICAL_DESIGN_GEOMETRIC_PRESENTATION_REPRESENTATION (  '', ( #349 ), #98 ) ;
#12 = ORIENTED_EDGE ( 'NONE', *, *, #222, .F. ) ;
#13 = DIRECTION ( 'NONE',  ( 0.000000000000000000, 0.000000000000000000, -1.000000000000000000 ) ) ;
#14 = ORIENTED_EDGE ( 'NONE', *, *, #156, .F. ) ;
#15 = SURFACE_STYLE_FILL_AREA ( #329 ) ;
#16 = AXIS2_PLACEMENT_3D ( 'NONE', #146, #91, #182 ) ;
#17 = CIRCLE ( 'NONE', #225, 0.2499999999999999722 ) ;
#18 = ORIENTED_EDGE ( 'NONE', *, *, #21, .F. ) ;
#19 = UNCERTAINTY_MEASURE_WITH_UNIT (LENGTH_MEASURE( 1.000000000000000082E-05 ), #94, 'distance_accuracy_value', 'NONE');
#20 = DIRECTION ( 'NONE',  ( 0.000000000000000000, 0.000000000000000000, 1.000000000000000000 ) ) ;
#21 = EDGE_CURVE ( 'NONE', #8, #59, #360, .T. ) ;
#22 = CARTESIAN_POINT ( 'NONE',  ( 0.000000000000000000, 2.000000000000000000, 0.000000000000000000 ) ) ;
#23 = CARTESIAN_POINT ( 'NONE',  ( 0.000000000000000000, 0.2500000000000000555, 0.000000000000000000 ) ) ;
#24 = DIRECTION ( 'NONE',  ( 0.000000000000000000, 0.000000000000000000, 1.000000000000000000 ) ) ;
#25 = AXIS2_PLACEMENT_3D ( 'NONE', #185, #310, #190 ) ;
#26 = DIRECTION ( 'NONE',  ( 1.224646799147353207E-16, -0.000000000000000000, 1.000000000000000000 ) ) ;
#27 =( GEOMETRIC_REPRESENTATION_CONTEXT ( 3 ) GLOBAL_UNCERTAINTY_ASSIGNED_CONTEXT ( ( #365 ) ) GLOBAL_UNIT_ASSIGNED_CONTEXT ( ( #140, #87, #295 ) ) REPRESENTATION_CONTEXT ( 'NONE', 'WORKASPACE' ) );
#28 = CIRCLE ( 'NONE', #116, 0.2500000000000000000 ) ;
#29 = PLANE ( 'NONE',  #80 ) ;
#30 = VECTOR ( 'NONE', #299, 39.37007874015748143 ) ;
#31 = AXIS2_PLACEMENT_3D ( 'NONE', #277, #75, #278 ) ;
#32 = AXIS2_PLACEMENT_3D ( 'NONE', #176, #213, #136 ) ;
#33 = DIRECTION ( 'NONE',  ( 0.000000000000000000, -0.000000000000000000, 1.000000000000000000 ) ) ;
#34 = MECHANICAL_DESIGN_GEOMETRIC_PRESENTATION_REPRESENTATION (  '', ( #221 ), #27 ) ;
#35 = ORIENTED_EDGE ( 'NONE', *, *, #341, .T. ) ;
#36 =( LENGTH_UNIT ( ) NAMED_UNIT ( * ) SI_UNIT ( $, .METRE. ) );
#37 = ORIENTED_EDGE ( 'NONE', *, *, #268, .F. ) ;
#38 = DIRECTION ( 'NONE',  ( 0.000000000000000000, 0.000000000000000000, 1.000000000000000000 ) ) ;
#39 = ORIENTED_EDGE ( 'NONE', *, *, #268, .T. ) ;
#40 = SURFACE_SIDE_STYLE ('',( #113 ) ) ;
#41 = ORIENTED_EDGE ( 'NONE', *, *, #83, .T. ) ;
#42 = PRODUCT_DEFINITION ( 'UNKNOWN', '', #224, #332 ) ;
#43 = LENGTH_MEASURE_WITH_UNIT ( LENGTH_MEASURE( 0.02539999999999999897 ), #293 );
#44 =( LENGTH_UNIT ( ) NAMED_UNIT ( * ) SI_UNIT ( $, .METRE. ) );
#45 =( LENGTH_UNIT ( ) NAMED_UNIT ( * ) SI_UNIT ( $, .METRE. ) );
#46 = CARTESIAN_POINT ( 'NONE',  ( 0.000000000000000000, 0.2500000000000000555, 0.000000000000000000 ) ) ;
#47 =( GEOMETRIC_REPRESENTATION_CONTEXT ( 3 ) GLOBAL_UNCERTAINTY_ASSIGNED_CONTEXT ( ( #373 ) ) GLOBAL_UNIT_ASSIGNED_CONTEXT ( ( #118, #206, #64 ) ) REPRESENTATION_CONTEXT ( 'NONE', 'WORKASPACE' ) );
#48 = COLOUR_RGB ( '',1.000000000000000000, 0.000000000000000000, 0.000000000000000000 ) ;
#49 = VECTOR ( 'NONE', #246, 39.37007874015748143 ) ;
#50 = FILL_AREA_STYLE ('',( #306 ) ) ;
#51 = DIRECTION ( 'NONE',  ( -1.000000000000000000, 0.000000000000000000, 0.000000000000000000 ) ) ;
#52 = LENGTH_MEASURE_WITH_UNIT ( LENGTH_MEASURE( 0.02539999999999999897 ), #340 );
#53 =( NAMED_UNIT ( * ) SI_UNIT ( $, .STERADIAN. ) SOLID_ANGLE_UNIT ( ) );
#54 = STYLED_ITEM ( 'NONE', ( #318 ), #280 ) ;
#55 = FILL_AREA_STYLE ('',( #226 ) ) ;
#56 = SURFACE_STYLE_USAGE ( .BOTH. , #229 ) ;
#57 = ORIENTED_EDGE ( 'NONE', *, *, #334, .T. ) ;
#58 = CARTESIAN_POINT ( 'NONE',  ( -3.061616997868383018E-17, 0.2500000000000000000, 0.000000000000000000 ) ) ;
#59 = VERTEX_POINT ( 'NONE', #67 ) ;
#60 = APPLICATION_CONTEXT ( 'automotive_design' ) ;
#61 = CLOSED_SHELL ( 'NONE', ( #217, #1, #243, #207, #170 ) ) ;
#62 =( GEOMETRIC_REPRESENTATION_CONTEXT ( 3 ) GLOBAL_UNCERTAINTY_ASSIGNED_CONTEXT ( ( #269 ) ) GLOBAL_UNIT_ASSIGNED_CONTEXT ( ( #110, #108, #53 ) ) REPRESENTATION_CONTEXT ( 'NONE', 'WORKASPACE' ) );
#63 = CIRCLE ( 'NONE', #275, 0.2499999999999999722 ) ;
#64 =( NAMED_UNIT ( * ) SI_UNIT ( $, .STERADIAN. ) SOLID_ANGLE_UNIT ( ) );
#65 = ORIENTED_EDGE ( 'NONE', *, *, #147, .T. ) ;
#66 = SURFACE_STYLE_USAGE ( .BOTH. , #291 ) ;
#67 = CARTESIAN_POINT ( 'NONE',  ( -0.2499999999999992784, 2.000000000000000000, 0.000000000000000000 ) ) ;
#68 = ADVANCED_FACE ( 'NONE', ( #117 ), #180, .T. ) ;
#69 = CARTESIAN_POINT ( 'NONE',  ( -3.061616997868383018E-17, 0.2500000000000000000, 0.000000000000000000 ) ) ;
#70 = APPLICATION_PROTOCOL_DEFINITION ( 'draft international standard', 'automotive_design', 1998, #189 ) ;
#71 = PRESENTATION_LAYER_ASSIGNMENT (  '', '', ( #205 ) ) ;
#72 = FILL_AREA_STYLE ('',( #302 ) ) ;
#73 = SHAPE_DEFINITION_REPRESENTATION ( #264, #255 ) ;
#74 = CYLINDRICAL_SURFACE ( 'NONE', #25, 0.2499999999999997224 ) ;
#75 = DIRECTION ( 'NONE',  ( -1.530808498934191571E-16, 1.000000000000000000, 0.000000000000000000 ) ) ;
#76 = CARTESIAN_POINT ( 'NONE',  ( 0.000000000000000000, 2.000000000000000000, -0.2499999999999997502 ) ) ;
#77 = FACE_OUTER_BOUND ( 'NONE', #327, .T. ) ;
#78 = CIRCLE ( 'NONE', #16, 0.2499999999999997502 ) ;
#79 = CARTESIAN_POINT ( 'NONE',  ( -0.2499999999999998057, 4.000000000000000000, 0.000000000000000000 ) ) ;
#80 = AXIS2_PLACEMENT_3D ( 'NONE', #82, #198, #33 ) ;
#81 = DIRECTION ( 'NONE',  ( -0.000000000000000000, -1.000000000000000000, -0.000000000000000000 ) ) ;
#82 = CARTESIAN_POINT ( 'NONE',  ( 0.000000000000000000, 2.000000000000000000, 0.000000000000000000 ) ) ;
#83 = EDGE_CURVE ( 'NONE', #362, #356, #78, .T. ) ;
#84 = FILL_AREA_STYLE ('',( #132 ) ) ;
#85 = EDGE_CURVE ( 'NONE', #59, #8, #105, .T. ) ;
#86 = SURFACE_SIDE_STYLE ('',( #92 ) ) ;
#87 =( NAMED_UNIT ( * ) PLANE_ANGLE_UNIT ( ) SI_UNIT ( $, .RADIAN. ) );
#88 = UNCERTAINTY_MEASURE_WITH_UNIT (LENGTH_MEASURE( 1.000000000000000082E-05 ), #155, 'distance_accuracy_value', 'NONE');
#89 = ORIENTED_EDGE ( 'NONE', *, *, #133, .F. ) ;
#90 = PRESENTATION_LAYER_ASSIGNMENT (  '', '', ( #221 ) ) ;
#91 = DIRECTION ( 'NONE',  ( -0.000000000000000000, -1.000000000000000000, -0.000000000000000000 ) ) ;
#92 = SURFACE_STYLE_FILL_AREA ( #72 ) ;
#93 = VERTEX_POINT ( 'NONE', #292 ) ;
#94 =( CONVERSION_BASED_UNIT ( 'INCH', #186 ) LENGTH_UNIT ( ) NAMED_UNIT ( #348 ) );
#95 = UNCERTAINTY_MEASURE_WITH_UNIT (LENGTH_MEASURE( 1.000000000000000082E-05 ), #215, 'distance_accuracy_value', 'NONE');
#96 = MECHANICAL_DESIGN_GEOMETRIC_PRESENTATION_REPRESENTATION (  '', ( #260 ), #47 ) ;
#97 = PRESENTATION_LAYER_ASSIGNMENT (  '', '', ( #349 ) ) ;
#98 =( GEOMETRIC_REPRESENTATION_CONTEXT ( 3 ) GLOBAL_UNCERTAINTY_ASSIGNED_CONTEXT ( ( #88 ) ) GLOBAL_UNIT_ASSIGNED_CONTEXT ( ( #155, #338, #122 ) ) REPRESENTATION_CONTEXT ( 'NONE', 'WORKASPACE' ) );
#99 = DIRECTION ( 'NONE',  ( 1.530808498934191571E-16, -1.000000000000000000, 0.000000000000000000 ) ) ;
#100 = FACE_OUTER_BOUND ( 'NONE', #323, .T. ) ;
#101 = CARTESIAN_POINT ( 'NONE',  ( 0.000000000000000000, 0.2500000000000000555, 0.000000000000000000 ) ) ;
#102 = SURFACE_STYLE_FILL_AREA ( #370 ) ;
#103 = DIRECTION ( 'NONE',  ( 0.000000000000000000, 0.000000000000000000, -1.000000000000000000 ) ) ;
#104 = CARTESIAN_POINT ( 'NONE',  ( -6.123233995736764803E-17, 4.000000000000000000, 0.000000000000000000 ) ) ;
#105 = CIRCLE ( 'NONE', #253, 0.2499999999999995282 ) ;
#106 = PRESENTATION_LAYER_ASSIGNMENT (  '', '', ( #270 ) ) ;
#107 =( NAMED_UNIT ( * ) PLANE_ANGLE_UNIT ( ) SI_UNIT ( $, .RADIAN. ) );
#108 =( NAMED_UNIT ( * ) PLANE_ANGLE_UNIT ( ) SI_UNIT ( $, .RADIAN. ) );
#109 = FACE_OUTER_BOUND ( 'NONE', #228, .T. ) ;
#110 =( CONVERSION_BASED_UNIT ( 'INCH', #167 ) LENGTH_UNIT ( ) NAMED_UNIT ( #115 ) );
#111 = CARTESIAN_POINT ( 'NONE',  ( 0.000000000000000000, 0.2500000000000000555, 0.000000000000000000 ) ) ;
#112 = ORIENTED_EDGE ( 'NONE', *, *, #284, .T. ) ;
#113 = SURFACE_STYLE_FILL_AREA ( #139 ) ;
#114 = AXIS2_PLACEMENT_3D ( 'NONE', #123, #24, #191 ) ;
#115 = DIMENSIONAL_EXPONENTS ( 1.000000000000000000, 0.000000000000000000, 0.000000000000000000, 0.000000000000000000, 0.000000000000000000, 0.000000000000000000, 0.000000000000000000 ) ;
#116 = AXIS2_PLACEMENT_3D ( 'NONE', #69, #26, #127 ) ;
#117 = FACE_OUTER_BOUND ( 'NONE', #258, .T. ) ;
#118 =( CONVERSION_BASED_UNIT ( 'INCH', #43 ) LENGTH_UNIT ( ) NAMED_UNIT ( #372 ) );
#119 = ORIENTED_EDGE ( 'NONE', *, *, #133, .T. ) ;
#120 = LENGTH_MEASURE_WITH_UNIT ( LENGTH_MEASURE( 0.02539999999999999897 ), #44 );
#121 = COLOUR_RGB ( '',0.7921568627450980005, 0.8196078431372548767, 0.9333333333333333481 ) ;
#122 =( NAMED_UNIT ( * ) SI_UNIT ( $, .STERADIAN. ) SOLID_ANGLE_UNIT ( ) );
#123 = CARTESIAN_POINT ( 'NONE',  ( -3.061616997868383018E-17, 0.2500000000000000000, 0.000000000000000000 ) ) ;
#124 = DIRECTION ( 'NONE',  ( -1.530808498934191571E-16, 1.000000000000000000, -0.000000000000000000 ) ) ;
#125 = EDGE_CURVE ( 'NONE', #169, #174, #17, .T. ) ;
#126 = VECTOR ( 'NONE', #368, 39.37007874015748143 ) ;
#127 = DIRECTION ( 'NONE',  ( 1.000000000000000000, 0.000000000000000000, -1.224646799147353207E-16 ) ) ;
#128 = ORIENTED_EDGE ( 'NONE', *, *, #263, .F. ) ;
#129 = ADVANCED_FACE ( 'NONE', ( #77 ), #307, .F. ) ;
#130 = CIRCLE ( 'NONE', #319, 0.2499999999999998890 ) ;
#131 =( NAMED_UNIT ( * ) PLANE_ANGLE_UNIT ( ) SI_UNIT ( $, .RADIAN. ) );
#132 = FILL_AREA_STYLE_COLOUR ( '', #121 ) ;
#133 = EDGE_CURVE ( 'NONE', #354, #344, #130, .T. ) ;
#134 = AXIS2_PLACEMENT_3D ( 'NONE', #151, #301, #13 ) ;
#135 = COLOUR_RGB ( '',1.000000000000000000, 0.000000000000000000, 0.000000000000000000 ) ;
#136 = DIRECTION ( 'NONE',  ( -1.000000000000000000, 0.000000000000000000, 0.000000000000000000 ) ) ;
#137 = EDGE_LOOP ( 'NONE', ( #57, #119 ) ) ;
#138 =( CONVERSION_BASED_UNIT ( 'INCH', #289 ) LENGTH_UNIT ( ) NAMED_UNIT ( #175 ) );
#139 = FILL_AREA_STYLE ('',( #181 ) ) ;
#140 =( CONVERSION_BASED_UNIT ( 'INCH', #267 ) LENGTH_UNIT ( ) NAMED_UNIT ( #286 ) );
#141 = PRESENTATION_LAYER_ASSIGNMENT (  '', '', ( #260 ) ) ;
#142 = AXIS2_PLACEMENT_3D ( 'NONE', #23, #157, #274 ) ;
#143 = ORIENTED_EDGE ( 'NONE', *, *, #322, .T. ) ;
#144 = CARTESIAN_POINT ( 'NONE',  ( 0.000000000000000000, 0.2500000000000000555, -0.2499999999999999722 ) ) ;
#145 =( NAMED_UNIT ( * ) SI_UNIT ( $, .STERADIAN. ) SOLID_ANGLE_UNIT ( ) );
#146 = CARTESIAN_POINT ( 'NONE',  ( 0.000000000000000000, 2.000000000000000000, 0.000000000000000000 ) ) ;
#147 = EDGE_CURVE ( 'NONE', #174, #209, #346, .T. ) ;
#148 = FACE_OUTER_BOUND ( 'NONE', #137, .T. ) ;
#149 = UNCERTAINTY_MEASURE_WITH_UNIT (LENGTH_MEASURE( 1.000000000000000082E-05 ), #138, 'distance_accuracy_value', 'NONE');
#150 = PRESENTATION_LAYER_ASSIGNMENT (  '', '', ( #54 ) ) ;
#151 = CARTESIAN_POINT ( 'NONE',  ( 0.000000000000000000, 0.000000000000000000, 0.000000000000000000 ) ) ;
#152 =( LENGTH_UNIT ( ) NAMED_UNIT ( * ) SI_UNIT ( $, .METRE. ) );
#153 = PRESENTATION_STYLE_ASSIGNMENT (( #220 ) ) ;
#154 = DIRECTION ( 'NONE',  ( 0.000000000000000000, 0.000000000000000000, -1.000000000000000000 ) ) ;
#155 =( CONVERSION_BASED_UNIT ( 'INCH', #242 ) LENGTH_UNIT ( ) NAMED_UNIT ( #199 ) );
#156 = EDGE_CURVE ( 'NONE', #362, #174, #249, .T. ) ;
#157 = DIRECTION ( 'NONE',  ( -0.000000000000000000, -1.000000000000000000, -0.000000000000000000 ) ) ;
#158 = FILL_AREA_STYLE_COLOUR ( '', #188 ) ;
#159 = CARTESIAN_POINT ( 'NONE',  ( -0.2499999999999999722, 4.000000000000000000, 0.000000000000000000 ) ) ;
#160 = SURFACE_STYLE_FILL_AREA ( #50 ) ;
#161 = FACE_OUTER_BOUND ( 'NONE', #196, .T. ) ;
#162 = DIRECTION ( 'NONE',  ( -1.530808498934191571E-16, 1.000000000000000000, -0.000000000000000000 ) ) ;
#163 = CIRCLE ( 'NONE', #2, 0.2499999999999997502 ) ;
#164 =( NAMED_UNIT ( * ) SI_UNIT ( $, .STERADIAN. ) SOLID_ANGLE_UNIT ( ) );
#165 = SURFACE_STYLE_FILL_AREA ( #84 ) ;
#166 = SURFACE_STYLE_FILL_AREA ( #55 ) ;
#167 = LENGTH_MEASURE_WITH_UNIT ( LENGTH_MEASURE( 0.02539999999999999897 ), #36 );
#168 = DIMENSIONAL_EXPONENTS ( 1.000000000000000000, 0.000000000000000000, 0.000000000000000000, 0.000000000000000000, 0.000000000000000000, 0.000000000000000000, 0.000000000000000000 ) ;
#169 = VERTEX_POINT ( 'NONE', #251 ) ;
#170 = ADVANCED_FACE ( 'NONE', ( #100 ), #201, .T. ) ;
#171 = ORIENTED_EDGE ( 'NONE', *, *, #83, .F. ) ;
#172 = CARTESIAN_POINT ( 'NONE',  ( -3.061616997868383018E-17, 0.2500000000000000000, 0.000000000000000000 ) ) ;
#173 = DIRECTION ( 'NONE',  ( -1.000000000000000000, 0.000000000000000000, 0.000000000000000000 ) ) ;
#174 = VERTEX_POINT ( 'NONE', #355 ) ;
#175 = DIMENSIONAL_EXPONENTS ( 1.000000000000000000, 0.000000000000000000, 0.000000000000000000, 0.000000000000000000, 0.000000000000000000, 0.000000000000000000, 0.000000000000000000 ) ;
#176 = CARTESIAN_POINT ( 'NONE',  ( 2.449293598294706414E-16, 2.000000000000000000, 0.000000000000000000 ) ) ;
#177 = ORIENTED_EDGE ( 'NONE', *, *, #194, .F. ) ;
#178 = DIRECTION ( 'NONE',  ( -1.000000000000000000, 0.000000000000000000, 0.000000000000000000 ) ) ;
#179 = EDGE_CURVE ( 'NONE', #169, #93, #328, .T. ) ;
#180 = CYLINDRICAL_SURFACE ( 'NONE', #285, 0.2499999999999997224 ) ;
#181 = FILL_AREA_STYLE_COLOUR ( '', #254 ) ;
#182 = DIRECTION ( 'NONE',  ( 0.000000000000000000, 0.000000000000000000, -1.000000000000000000 ) ) ;
#183 = CARTESIAN_POINT ( 'NONE',  ( 0.2499999999999998335, 4.000000000000000000, 3.061616997868381169E-17 ) ) ;
#184 = AXIS2_PLACEMENT_3D ( 'NONE', #111, #347, #279 ) ;
#185 = CARTESIAN_POINT ( 'NONE',  ( -6.123233995736766036E-17, 4.000000000000000000, 0.000000000000000000 ) ) ;
#186 = LENGTH_MEASURE_WITH_UNIT ( LENGTH_MEASURE( 0.02539999999999999897 ), #152 );
#187 = PRESENTATION_STYLE_ASSIGNMENT (( #337 ) ) ;
#188 = COLOUR_RGB ( '',1.000000000000000000, 0.000000000000000000, 0.000000000000000000 ) ;
#189 = APPLICATION_CONTEXT ( 'automotive_design' ) ;
#190 = DIRECTION ( 'NONE',  ( -1.000000000000000000, 0.000000000000000000, 0.000000000000000000 ) ) ;
#191 = DIRECTION ( 'NONE',  ( 1.000000000000000000, 0.000000000000000000, 0.000000000000000000 ) ) ;
#192 = APPLICATION_PROTOCOL_DEFINITION ( 'draft international standard', 'automotive_design', 1998, #60 ) ;
#193 = MECHANICAL_DESIGN_GEOMETRIC_PRESENTATION_REPRESENTATION (  '', ( #205 ), #339 ) ;
#194 = EDGE_CURVE ( 'NONE', #356, #200, #231, .T. ) ;
#195 = SURFACE_SIDE_STYLE ('',( #165 ) ) ;
#196 = EDGE_LOOP ( 'NONE', ( #12, #171 ) ) ;
#197 =( GEOMETRIC_REPRESENTATION_CONTEXT ( 3 ) GLOBAL_UNCERTAINTY_ASSIGNED_CONTEXT ( ( #149 ) ) GLOBAL_UNIT_ASSIGNED_CONTEXT ( ( #138, #131, #145 ) ) REPRESENTATION_CONTEXT ( 'NONE', 'WORKASPACE' ) );
#198 = DIRECTION ( 'NONE',  ( 0.000000000000000000, 1.000000000000000000, 0.000000000000000000 ) ) ;
#199 = DIMENSIONAL_EXPONENTS ( 1.000000000000000000, 0.000000000000000000, 0.000000000000000000, 0.000000000000000000, 0.000000000000000000, 0.000000000000000000, 0.000000000000000000 ) ;
#200 = VERTEX_POINT ( 'NONE', #144 ) ;
#201 = SPHERICAL_SURFACE ( 'NONE', #366, 0.2500000000000000000 ) ;
#202 = DIRECTION ( 'NONE',  ( -1.530808498934191571E-16, 1.000000000000000000, -0.000000000000000000 ) ) ;
#203 = ORIENTED_EDGE ( 'NONE', *, *, #85, .T. ) ;
#204 = CYLINDRICAL_SURFACE ( 'NONE', #309, 0.2499999999999998612 ) ;
#205 = STYLED_ITEM ( 'NONE', ( #351 ), #207 ) ;
#206 =( NAMED_UNIT ( * ) PLANE_ANGLE_UNIT ( ) SI_UNIT ( $, .RADIAN. ) );
#207 = ADVANCED_FACE ( 'NONE', ( #266 ), #204, .T. ) ;
#208 = SURFACE_STYLE_USAGE ( .BOTH. , #86 ) ;
#209 = VERTEX_POINT ( 'NONE', #315 ) ;
#210 = COLOUR_RGB ( '',1.000000000000000000, 0.000000000000000000, 0.000000000000000000 ) ;
#211 = COLOUR_RGB ( '',1.000000000000000000, 0.000000000000000000, 0.000000000000000000 ) ;
#212 = DIRECTION ( 'NONE',  ( -0.000000000000000000, -1.000000000000000000, -0.000000000000000000 ) ) ;
#213 = DIRECTION ( 'NONE',  ( -1.530808498934191571E-16, 1.000000000000000000, -0.000000000000000000 ) ) ;
#214 = DIRECTION ( 'NONE',  ( 1.000000000000000000, 1.530808498934191571E-16, 0.000000000000000000 ) ) ;
#215 =( CONVERSION_BASED_UNIT ( 'INCH', #52 ) LENGTH_UNIT ( ) NAMED_UNIT ( #316 ) );
#216 = DIRECTION ( 'NONE',  ( -0.000000000000000000, -1.000000000000000000, -0.000000000000000000 ) ) ;
#217 = ADVANCED_FACE ( 'NONE', ( #109 ), #345, .T. ) ;
#218 = PRODUCT_CONTEXT ( 'NONE', #60, 'mechanical' ) ;
#219 = SURFACE_SIDE_STYLE ('',( #102 ) ) ;
#220 = SURFACE_STYLE_USAGE ( .BOTH. , #371 ) ;
#221 = STYLED_ITEM ( 'NONE', ( #187 ), #170 ) ;
#222 = EDGE_CURVE ( 'NONE', #356, #362, #163, .T. ) ;
#223 = SURFACE_STYLE_USAGE ( .BOTH. , #195 ) ;
#224 = PRODUCT_DEFINITION_FORMATION_WITH_SPECIFIED_SOURCE ( 'ANY', '', #324, .NOT_KNOWN. ) ;
#225 = AXIS2_PLACEMENT_3D ( 'NONE', #46, #212, #154 ) ;
#226 = FILL_AREA_STYLE_COLOUR ( '', #48 ) ;
#227 = DIRECTION ( 'NONE',  ( -0.000000000000000000, -1.000000000000000000, -0.000000000000000000 ) ) ;
#228 = EDGE_LOOP ( 'NONE', ( #65, #143, #288, #330 ) ) ;
#229 = SURFACE_SIDE_STYLE ('',( #166 ) ) ;
#230 = EDGE_LOOP ( 'NONE', ( #203, #325, #245, #290 ) ) ;
#231 = LINE ( 'NONE', #237, #30 ) ;
#232 = STYLED_ITEM ( 'NONE', ( #283 ), #243 ) ;
#233 = EDGE_LOOP ( 'NONE', ( #7, #6, #265, #37, #177 ) ) ;
#234 = ORIENTED_EDGE ( 'NONE', *, *, #147, .F. ) ;
#235 = CARTESIAN_POINT ( 'NONE',  ( -6.123233995736766036E-17, 4.000000000000000000, 0.000000000000000000 ) ) ;
#236 = PRESENTATION_STYLE_ASSIGNMENT (( #208 ) ) ;
#237 = CARTESIAN_POINT ( 'NONE',  ( 0.000000000000000000, 0.000000000000000000, -0.2499999999999998612 ) ) ;
#238 = ORIENTED_EDGE ( 'NONE', *, *, #322, .F. ) ;
#239 = ORIENTED_EDGE ( 'NONE', *, *, #179, .T. ) ;
#240 =( CONVERSION_BASED_UNIT ( 'INCH', #120 ) LENGTH_UNIT ( ) NAMED_UNIT ( #168 ) );
#241 = CYLINDRICAL_SURFACE ( 'NONE', #134, 0.2499999999999998612 ) ;
#242 = LENGTH_MEASURE_WITH_UNIT ( LENGTH_MEASURE( 0.02539999999999999897 ), #45 );
#243 = ADVANCED_FACE ( 'NONE', ( #161 ), #29, .T. ) ;
#244 = CARTESIAN_POINT ( 'NONE',  ( 3.061616997868381785E-17, 0.000000000000000000, 0.2499999999999998612 ) ) ;
#245 = ORIENTED_EDGE ( 'NONE', *, *, #334, .F. ) ;
#246 = DIRECTION ( 'NONE',  ( -1.530808498934191571E-16, 1.000000000000000000, -0.000000000000000000 ) ) ;
#247 =( GEOMETRIC_REPRESENTATION_CONTEXT ( 3 ) GLOBAL_UNCERTAINTY_ASSIGNED_CONTEXT ( ( #95 ) ) GLOBAL_UNIT_ASSIGNED_CONTEXT ( ( #215, #107, #273 ) ) REPRESENTATION_CONTEXT ( 'NONE', 'WORKASPACE' ) );
#248 = AXIS2_PLACEMENT_3D ( 'NONE', #367, #20, #331 ) ;
#249 = LINE ( 'NONE', #244, #126 ) ;
#250 = CARTESIAN_POINT ( 'NONE',  ( -6.123233995736764803E-17, 4.000000000000000000, 0.000000000000000000 ) ) ;
#251 = CARTESIAN_POINT ( 'NONE',  ( 0.2499999999999999722, 0.2500000000000000555, 0.000000000000000000 ) ) ;
#252 =( NAMED_UNIT ( * ) SI_UNIT ( $, .STERADIAN. ) SOLID_ANGLE_UNIT ( ) );
#253 = AXIS2_PLACEMENT_3D ( 'NONE', #303, #202, #272 ) ;
#254 = COLOUR_RGB ( '',0.7921568627450980005, 0.8196078431372548767, 0.9333333333333333481 ) ;
#255 = ADVANCED_BREP_SHAPE_REPRESENTATION ( '83426', ( #280, #282, #248 ), #342 ) ;
#256 =( LENGTH_UNIT ( ) NAMED_UNIT ( * ) SI_UNIT ( $, .METRE. ) );
#257 = LINE ( 'NONE', #5, #287 ) ;
#258 = EDGE_LOOP ( 'NONE', ( #128, #357, #112, #89 ) ) ;
#259 = LINE ( 'NONE', #79, #49 ) ;
#260 = STYLED_ITEM ( 'NONE', ( #236 ), #1 ) ;
#261 = MECHANICAL_DESIGN_GEOMETRIC_PRESENTATION_REPRESENTATION (  '', ( #270 ), #247 ) ;
#262 = PRESENTATION_STYLE_ASSIGNMENT (( #352 ) ) ;
#263 = EDGE_CURVE ( 'NONE', #8, #354, #257, .T. ) ;
#264 = PRODUCT_DEFINITION_SHAPE ( 'NONE', 'NONE',  #42 ) ;
#265 = ORIENTED_EDGE ( 'NONE', *, *, #125, .F. ) ;
#266 = FACE_OUTER_BOUND ( 'NONE', #320, .T. ) ;
#267 = LENGTH_MEASURE_WITH_UNIT ( LENGTH_MEASURE( 0.02539999999999999897 ), #271 );
#268 = EDGE_CURVE ( 'NONE', #200, #169, #314, .T. ) ;
#269 = UNCERTAINTY_MEASURE_WITH_UNIT (LENGTH_MEASURE( 1.000000000000000082E-05 ), #110, 'distance_accuracy_value', 'NONE');
#270 = STYLED_ITEM ( 'NONE', ( #153 ), #217 ) ;
#271 =( LENGTH_UNIT ( ) NAMED_UNIT ( * ) SI_UNIT ( $, .METRE. ) );
#272 = DIRECTION ( 'NONE',  ( -1.000000000000000000, 0.000000000000000000, 0.000000000000000000 ) ) ;
#273 =( NAMED_UNIT ( * ) SI_UNIT ( $, .STERADIAN. ) SOLID_ANGLE_UNIT ( ) );
#274 = DIRECTION ( 'NONE',  ( 0.000000000000000000, 0.000000000000000000, -1.000000000000000000 ) ) ;
#275 = AXIS2_PLACEMENT_3D ( 'NONE', #101, #216, #103 ) ;
#276 =( NAMED_UNIT ( * ) PLANE_ANGLE_UNIT ( ) SI_UNIT ( $, .RADIAN. ) );
#277 = CARTESIAN_POINT ( 'NONE',  ( 2.449293598294706414E-16, 2.000000000000000000, 0.000000000000000000 ) ) ;
#278 = DIRECTION ( 'NONE',  ( -1.000000000000000000, -1.530808498934191571E-16, 0.000000000000000000 ) ) ;
#279 = DIRECTION ( 'NONE',  ( 0.000000000000000000, 0.000000000000000000, -1.000000000000000000 ) ) ;
#280 = MANIFOLD_SOLID_BREP ( 'Revolve - Cutting Edge', #61 ) ;
#281 = MECHANICAL_DESIGN_GEOMETRIC_PRESENTATION_REPRESENTATION (  '', ( #54 ), #197 ) ;
#282 = MANIFOLD_SOLID_BREP ( 'Revolve - Tool Body (Straight Shanked)', #10 ) ;
#283 = PRESENTATION_STYLE_ASSIGNMENT (( #56 ) ) ;
#284 = EDGE_CURVE ( 'NONE', #59, #344, #259, .T. ) ;
#285 = AXIS2_PLACEMENT_3D ( 'NONE', #235, #358, #173 ) ;
#286 = DIMENSIONAL_EXPONENTS ( 1.000000000000000000, 0.000000000000000000, 0.000000000000000000, 0.000000000000000000, 0.000000000000000000, 0.000000000000000000, 0.000000000000000000 ) ;
#287 = VECTOR ( 'NONE', #162, 39.37007874015748143 ) ;
#288 = ORIENTED_EDGE ( 'NONE', *, *, #179, .F. ) ;
#289 = LENGTH_MEASURE_WITH_UNIT ( LENGTH_MEASURE( 0.02539999999999999897 ), #256 );
#290 = ORIENTED_EDGE ( 'NONE', *, *, #284, .F. ) ;
#291 = SURFACE_SIDE_STYLE ('',( #15 ) ) ;
#292 = CARTESIAN_POINT ( 'NONE',  ( -1.530808498934191509E-17, 0.000000000000000000, 0.000000000000000000 ) ) ;
#293 =( LENGTH_UNIT ( ) NAMED_UNIT ( * ) SI_UNIT ( $, .METRE. ) );
#294 = ORIENTED_EDGE ( 'NONE', *, *, #194, .T. ) ;
#295 =( NAMED_UNIT ( * ) SI_UNIT ( $, .STERADIAN. ) SOLID_ANGLE_UNIT ( ) );
#296 = ADVANCED_FACE ( 'NONE', ( #148 ), #364, .F. ) ;
#297 = ORIENTED_EDGE ( 'NONE', *, *, #341, .F. ) ;
#298 = PRESENTATION_LAYER_ASSIGNMENT (  '', '', ( #232 ) ) ;
#299 = DIRECTION ( 'NONE',  ( -0.000000000000000000, -1.000000000000000000, -0.000000000000000000 ) ) ;
#300 = AXIS2_PLACEMENT_3D ( 'NONE', #335, #99, #214 ) ;
#301 = DIRECTION ( 'NONE',  ( -0.000000000000000000, -1.000000000000000000, -0.000000000000000000 ) ) ;
#302 = FILL_AREA_STYLE_COLOUR ( '', #210 ) ;
#303 = CARTESIAN_POINT ( 'NONE',  ( 2.449293598294706414E-16, 2.000000000000000000, 0.000000000000000000 ) ) ;
#304 = UNCERTAINTY_MEASURE_WITH_UNIT (LENGTH_MEASURE( 1.000000000000000082E-05 ), #240, 'distance_accuracy_value', 'NONE');
#305 = MECHANICAL_DESIGN_GEOMETRIC_PRESENTATION_REPRESENTATION (  '', ( #232 ), #62 ) ;
#306 = FILL_AREA_STYLE_COLOUR ( '', #135 ) ;
#307 = PLANE ( 'NONE',  #31 ) ;
#308 = PRODUCT_RELATED_PRODUCT_CATEGORY ( 'part', '', ( #324 ) ) ;
#309 = AXIS2_PLACEMENT_3D ( 'NONE', #4, #227, #317 ) ;
#310 = DIRECTION ( 'NONE',  ( -1.530808498934191571E-16, 1.000000000000000000, -0.000000000000000000 ) ) ;
#311 = DIRECTION ( 'NONE',  ( 0.000000000000000000, 0.000000000000000000, -1.000000000000000000 ) ) ;
#312 = ADVANCED_FACE ( 'NONE', ( #363 ), #74, .T. ) ;
#313 =( NAMED_UNIT ( * ) PLANE_ANGLE_UNIT ( ) SI_UNIT ( $, .RADIAN. ) );
#314 = CIRCLE ( 'NONE', #184, 0.2499999999999999722 ) ;
#315 = CARTESIAN_POINT ( 'NONE',  ( -0.2500000000000000000, 0.2500000000000000555, 3.061616997868382402E-17 ) ) ;
#316 = DIMENSIONAL_EXPONENTS ( 1.000000000000000000, 0.000000000000000000, 0.000000000000000000, 0.000000000000000000, 0.000000000000000000, 0.000000000000000000, 0.000000000000000000 ) ;
#317 = DIRECTION ( 'NONE',  ( 0.000000000000000000, 0.000000000000000000, -1.000000000000000000 ) ) ;
#318 = PRESENTATION_STYLE_ASSIGNMENT (( #223 ) ) ;
#319 = AXIS2_PLACEMENT_3D ( 'NONE', #104, #124, #343 ) ;
#320 = EDGE_LOOP ( 'NONE', ( #14, #41, #294, #297, #234 ) ) ;
#321 = FILL_AREA_STYLE_COLOUR ( '', #211 ) ;
#322 = EDGE_CURVE ( 'NONE', #209, #93, #28, .T. ) ;
#323 = EDGE_LOOP ( 'NONE', ( #238, #35, #39, #239 ) ) ;
#324 = PRODUCT ( '83426', '83426', '', ( #218 ) ) ;
#325 = ORIENTED_EDGE ( 'NONE', *, *, #263, .T. ) ;
#326 = DIRECTION ( 'NONE',  ( 1.000000000000000000, 0.000000000000000000, 0.000000000000000000 ) ) ;
#327 = EDGE_LOOP ( 'NONE', ( #350, #18 ) ) ;
#328 = CIRCLE ( 'NONE', #333, 0.2500000000000000000 ) ;
#329 = FILL_AREA_STYLE ('',( #321 ) ) ;
#330 = ORIENTED_EDGE ( 'NONE', *, *, #125, .T. ) ;
#331 = DIRECTION ( 'NONE',  ( 1.000000000000000000, 0.000000000000000000, 0.000000000000000000 ) ) ;
#332 = PRODUCT_DEFINITION_CONTEXT ( 'detailed design', #189, 'design' ) ;
#333 = AXIS2_PLACEMENT_3D ( 'NONE', #58, #9, #178 ) ;
#334 = EDGE_CURVE ( 'NONE', #344, #354, #3, .T. ) ;
#335 = CARTESIAN_POINT ( 'NONE',  ( 0.2499999999999998335, 4.000000000000000000, 0.000000000000000000 ) ) ;
#336 = CARTESIAN_POINT ( 'NONE',  ( 3.061616997868381169E-17, 2.000000000000000000, 0.2499999999999997502 ) ) ;
#337 = SURFACE_STYLE_USAGE ( .BOTH. , #219 ) ;
#338 =( NAMED_UNIT ( * ) PLANE_ANGLE_UNIT ( ) SI_UNIT ( $, .RADIAN. ) );
#339 =( GEOMETRIC_REPRESENTATION_CONTEXT ( 3 ) GLOBAL_UNCERTAINTY_ASSIGNED_CONTEXT ( ( #304 ) ) GLOBAL_UNIT_ASSIGNED_CONTEXT ( ( #240, #313, #164 ) ) REPRESENTATION_CONTEXT ( 'NONE', 'WORKASPACE' ) );
#340 =( LENGTH_UNIT ( ) NAMED_UNIT ( * ) SI_UNIT ( $, .METRE. ) );
#341 = EDGE_CURVE ( 'NONE', #209, #200, #63, .T. ) ;
#342 =( GEOMETRIC_REPRESENTATION_CONTEXT ( 3 ) GLOBAL_UNCERTAINTY_ASSIGNED_CONTEXT ( ( #19 ) ) GLOBAL_UNIT_ASSIGNED_CONTEXT ( ( #94, #276, #252 ) ) REPRESENTATION_CONTEXT ( 'NONE', 'WORKASPACE' ) );
#343 = DIRECTION ( 'NONE',  ( -1.000000000000000000, 0.000000000000000000, 0.000000000000000000 ) ) ;
#344 = VERTEX_POINT ( 'NONE', #159 ) ;
#345 = SPHERICAL_SURFACE ( 'NONE', #114, 0.2500000000000000000 ) ;
#346 = CIRCLE ( 'NONE', #142, 0.2499999999999999722 ) ;
#347 = DIRECTION ( 'NONE',  ( -0.000000000000000000, -1.000000000000000000, -0.000000000000000000 ) ) ;
#348 = DIMENSIONAL_EXPONENTS ( 1.000000000000000000, 0.000000000000000000, 0.000000000000000000, 0.000000000000000000, 0.000000000000000000, 0.000000000000000000, 0.000000000000000000 ) ;
#349 = STYLED_ITEM ( 'NONE', ( #262 ), #282 ) ;
#350 = ORIENTED_EDGE ( 'NONE', *, *, #85, .F. ) ;
#351 = PRESENTATION_STYLE_ASSIGNMENT (( #66 ) ) ;
#352 = SURFACE_STYLE_USAGE ( .BOTH. , #40 ) ;
#353 = CARTESIAN_POINT ( 'NONE',  ( 0.2499999999999998057, 2.000000000000000000, 3.061616997868380553E-17 ) ) ;
#354 = VERTEX_POINT ( 'NONE', #183 ) ;
#355 = CARTESIAN_POINT ( 'NONE',  ( 3.061616997868383018E-17, 0.2500000000000000555, 0.2499999999999999722 ) ) ;
#356 = VERTEX_POINT ( 'NONE', #76 ) ;
#357 = ORIENTED_EDGE ( 'NONE', *, *, #21, .T. ) ;
#358 = DIRECTION ( 'NONE',  ( -1.530808498934191571E-16, 1.000000000000000000, -0.000000000000000000 ) ) ;
#359 = AXIS2_PLACEMENT_3D ( 'NONE', #250, #369, #51 ) ;
#360 = CIRCLE ( 'NONE', #32, 0.2499999999999995282 ) ;
#361 = FACE_OUTER_BOUND ( 'NONE', #233, .T. ) ;
#362 = VERTEX_POINT ( 'NONE', #336 ) ;
#363 = FACE_OUTER_BOUND ( 'NONE', #230, .T. ) ;
#364 = PLANE ( 'NONE',  #300 ) ;
#365 = UNCERTAINTY_MEASURE_WITH_UNIT (LENGTH_MEASURE( 1.000000000000000082E-05 ), #140, 'distance_accuracy_value', 'NONE');
#366 = AXIS2_PLACEMENT_3D ( 'NONE', #172, #38, #326 ) ;
#367 = CARTESIAN_POINT ( 'NONE',  ( 0.000000000000000000, 0.000000000000000000, 0.000000000000000000 ) ) ;
#368 = DIRECTION ( 'NONE',  ( -0.000000000000000000, -1.000000000000000000, -0.000000000000000000 ) ) ;
#369 = DIRECTION ( 'NONE',  ( -1.530808498934191571E-16, 1.000000000000000000, -0.000000000000000000 ) ) ;
#370 = FILL_AREA_STYLE ('',( #158 ) ) ;
#371 = SURFACE_SIDE_STYLE ('',( #160 ) ) ;
#372 = DIMENSIONAL_EXPONENTS ( 1.000000000000000000, 0.000000000000000000, 0.000000000000000000, 0.000000000000000000, 0.000000000000000000, 0.000000000000000000, 0.000000000000000000 ) ;
#373 = UNCERTAINTY_MEASURE_WITH_UNIT (LENGTH_MEASURE( 1.000000000000000082E-05 ), #118, 'distance_accuracy_value', 'NONE');
ENDSEC;
END-ISO-10303-21;
