ISO-10303-21;
HEADER;
FILE_DESCRIPTION (( 'STEP AP214' ),
    '1' );
FILE_NAME ('56257.STEP',
    '2023-06-30T22:07:16',
    ( '' ),
    ( '' ),
    'SwSTEP 2.0',
    'SolidWorks 2023',
    '' );
FILE_SCHEMA (( 'AUTOMOTIVE_DESIGN' ));
ENDSEC;

DATA;
#1 = CYLINDRICAL_SURFACE ( 'NONE', #82, 0.1562499999999999167 ) ;
#2 = EDGE_CURVE ( 'NONE', #309, #224, #42, .T. ) ;
#3 = DIRECTION ( 'NONE',  ( 0.000000000000000000, 0.000000000000000000, 1.000000000000000000 ) ) ;
#4 =( NAMED_UNIT ( * ) PLANE_ANGLE_UNIT ( ) SI_UNIT ( $, .RADIAN. ) );
#5 = FILL_AREA_STYLE_COLOUR ( '', #371 ) ;
#6 = STYLED_ITEM ( 'NONE', ( #180 ), #368 ) ;
#7 = SURFACE_SIDE_STYLE ('',( #151 ) ) ;
#8 = SURFACE_STYLE_USAGE ( .BOTH. , #270 ) ;
#9 = DIMENSIONAL_EXPONENTS ( 1.000000000000000000, 0.000000000000000000, 0.000000000000000000, 0.000000000000000000, 0.000000000000000000, 0.000000000000000000, 0.000000000000000000 ) ;
#10 = APPLICATION_PROTOCOL_DEFINITION ( 'draft international standard', 'automotive_design', 1998, #195 ) ;
#11 = LENGTH_MEASURE_WITH_UNIT ( LENGTH_MEASURE( 0.02539999999999999897 ), #266 );
#12 = CARTESIAN_POINT ( 'NONE',  ( -6.123233995736772199E-17, 3.000000000000000444, 0.000000000000000000 ) ) ;
#13 =( GEOMETRIC_REPRESENTATION_CONTEXT ( 3 ) GLOBAL_UNCERTAINTY_ASSIGNED_CONTEXT ( ( #234 ) ) GLOBAL_UNIT_ASSIGNED_CONTEXT ( ( #248, #59, #279 ) ) REPRESENTATION_CONTEXT ( 'NONE', 'WORKASPACE' ) );
#14 = MECHANICAL_DESIGN_GEOMETRIC_PRESENTATION_REPRESENTATION (  '', ( #105 ), #341 ) ;
#15 = DIMENSIONAL_EXPONENTS ( 1.000000000000000000, 0.000000000000000000, 0.000000000000000000, 0.000000000000000000, 0.000000000000000000, 0.000000000000000000, 0.000000000000000000 ) ;
#16 = DIRECTION ( 'NONE',  ( -0.000000000000000000, -1.000000000000000000, -0.000000000000000000 ) ) ;
#17 = EDGE_LOOP ( 'NONE', ( #337, #23, #60, #197 ) ) ;
#18 =( GEOMETRIC_REPRESENTATION_CONTEXT ( 3 ) GLOBAL_UNCERTAINTY_ASSIGNED_CONTEXT ( ( #147 ) ) GLOBAL_UNIT_ASSIGNED_CONTEXT ( ( #141, #86, #263 ) ) REPRESENTATION_CONTEXT ( 'NONE', 'WORKASPACE' ) );
#19 = ORIENTED_EDGE ( 'NONE', *, *, #198, .T. ) ;
#20 = FILL_AREA_STYLE_COLOUR ( '', #352 ) ;
#21 = FILL_AREA_STYLE_COLOUR ( '', #55 ) ;
#22 = FILL_AREA_STYLE ('',( #20 ) ) ;
#23 = ORIENTED_EDGE ( 'NONE', *, *, #281, .T. ) ;
#24 = CARTESIAN_POINT ( 'NONE',  ( 0.000000000000000000, 0.000000000000000000, 0.000000000000000000 ) ) ;
#25 = VERTEX_POINT ( 'NONE', #325 ) ;
#26 = AXIS2_PLACEMENT_3D ( 'NONE', #242, #43, #273 ) ;
#27 = PLANE ( 'NONE',  #347 ) ;
#28 = PRESENTATION_LAYER_ASSIGNMENT (  '', '', ( #6 ) ) ;
#29 =( NAMED_UNIT ( * ) PLANE_ANGLE_UNIT ( ) SI_UNIT ( $, .RADIAN. ) );
#30 = EDGE_LOOP ( 'NONE', ( #280, #108, #64, #52 ) ) ;
#31 = SPHERICAL_SURFACE ( 'NONE', #289, 0.1562500000000000000 ) ;
#32 = SURFACE_STYLE_USAGE ( .BOTH. , #211 ) ;
#33 = DIRECTION ( 'NONE',  ( 1.000000000000000000, 0.000000000000000000, 0.000000000000000000 ) ) ;
#34 = FACE_OUTER_BOUND ( 'NONE', #54, .T. ) ;
#35 = MECHANICAL_DESIGN_GEOMETRIC_PRESENTATION_REPRESENTATION (  '', ( #355 ), #247 ) ;
#36 = EDGE_CURVE ( 'NONE', #256, #25, #246, .T. ) ;
#37 = CARTESIAN_POINT ( 'NONE',  ( 0.1562499999999998335, 3.000000000000000444, 1.913510623667737614E-17 ) ) ;
#38 =( GEOMETRIC_REPRESENTATION_CONTEXT ( 3 ) GLOBAL_UNCERTAINTY_ASSIGNED_CONTEXT ( ( #316 ) ) GLOBAL_UNIT_ASSIGNED_CONTEXT ( ( #46, #187, #209 ) ) REPRESENTATION_CONTEXT ( 'NONE', 'WORKASPACE' ) );
#39 = PRODUCT_DEFINITION_FORMATION_WITH_SPECIFIED_SOURCE ( 'ANY', '', #217, .NOT_KNOWN. ) ;
#40 = SHAPE_DEFINITION_REPRESENTATION ( #244, #201 ) ;
#41 = FILL_AREA_STYLE ('',( #345 ) ) ;
#42 = CIRCLE ( 'NONE', #146, 0.1562500000000000000 ) ;
#43 = DIRECTION ( 'NONE',  ( -1.224646799147353454E-16, 1.000000000000000000, -0.000000000000000000 ) ) ;
#44 = PRESENTATION_LAYER_ASSIGNMENT (  '', '', ( #355 ) ) ;
#45 = DIMENSIONAL_EXPONENTS ( 1.000000000000000000, 0.000000000000000000, 0.000000000000000000, 0.000000000000000000, 0.000000000000000000, 0.000000000000000000, 0.000000000000000000 ) ;
#46 =( CONVERSION_BASED_UNIT ( 'INCH', #11 ) LENGTH_UNIT ( ) NAMED_UNIT ( #101 ) );
#47 = CARTESIAN_POINT ( 'NONE',  ( 1.913510623667738231E-17, 0.000000000000000000, 0.1562499999999999167 ) ) ;
#48 = DIMENSIONAL_EXPONENTS ( 1.000000000000000000, 0.000000000000000000, 0.000000000000000000, 0.000000000000000000, 0.000000000000000000, 0.000000000000000000, 0.000000000000000000 ) ;
#49 = VECTOR ( 'NONE', #16, 39.37007874015748143 ) ;
#50 = AXIS2_PLACEMENT_3D ( 'NONE', #88, #366, #336 ) ;
#51 = EDGE_CURVE ( 'NONE', #168, #278, #351, .T. ) ;
#52 = ORIENTED_EDGE ( 'NONE', *, *, #319, .T. ) ;
#53 = FACE_OUTER_BOUND ( 'NONE', #365, .T. ) ;
#54 = EDGE_LOOP ( 'NONE', ( #112, #133 ) ) ;
#55 = COLOUR_RGB ( '',1.000000000000000000, 0.000000000000000000, 0.000000000000000000 ) ;
#56 =( LENGTH_UNIT ( ) NAMED_UNIT ( * ) SI_UNIT ( $, .METRE. ) );
#57 = CARTESIAN_POINT ( 'NONE',  ( -6.123233995736772199E-17, 3.000000000000000444, 0.000000000000000000 ) ) ;
#58 = CYLINDRICAL_SURFACE ( 'NONE', #311, 0.1562499999999999167 ) ;
#59 =( NAMED_UNIT ( * ) PLANE_ANGLE_UNIT ( ) SI_UNIT ( $, .RADIAN. ) );
#60 = ORIENTED_EDGE ( 'NONE', *, *, #166, .F. ) ;
#61 = EDGE_CURVE ( 'NONE', #229, #363, #184, .T. ) ;
#62 = ORIENTED_EDGE ( 'NONE', *, *, #61, .F. ) ;
#63 = FACE_OUTER_BOUND ( 'NONE', #254, .T. ) ;
#64 = ORIENTED_EDGE ( 'NONE', *, *, #332, .F. ) ;
#65 = UNCERTAINTY_MEASURE_WITH_UNIT (LENGTH_MEASURE( 1.000000000000000082E-05 ), #208, 'distance_accuracy_value', 'NONE');
#66 = LINE ( 'NONE', #190, #178 ) ;
#67 =( LENGTH_UNIT ( ) NAMED_UNIT ( * ) SI_UNIT ( $, .METRE. ) );
#68 = EDGE_CURVE ( 'NONE', #196, #309, #161, .T. ) ;
#69 = DIRECTION ( 'NONE',  ( -1.224646799147353454E-16, 1.000000000000000000, 0.000000000000000000 ) ) ;
#70 = CLOSED_SHELL ( 'NONE', ( #104, #264, #368, #268, #205 ) ) ;
#71 = MECHANICAL_DESIGN_GEOMETRIC_PRESENTATION_REPRESENTATION (  '', ( #89 ), #306 ) ;
#72 =( LENGTH_UNIT ( ) NAMED_UNIT ( * ) SI_UNIT ( $, .METRE. ) );
#73 = LENGTH_MEASURE_WITH_UNIT ( LENGTH_MEASURE( 0.02539999999999999897 ), #165 );
#74 = DIRECTION ( 'NONE',  ( 1.000000000000000000, 0.000000000000000000, 0.000000000000000000 ) ) ;
#75 = DIMENSIONAL_EXPONENTS ( 1.000000000000000000, 0.000000000000000000, 0.000000000000000000, 0.000000000000000000, 0.000000000000000000, 0.000000000000000000, 0.000000000000000000 ) ;
#76 = SURFACE_STYLE_FILL_AREA ( #321 ) ;
#77 = EDGE_CURVE ( 'NONE', #252, #167, #346, .T. ) ;
#78 = DIRECTION ( 'NONE',  ( 0.000000000000000000, 0.000000000000000000, -1.000000000000000000 ) ) ;
#79 = ORIENTED_EDGE ( 'NONE', *, *, #166, .T. ) ;
#80 = CARTESIAN_POINT ( 'NONE',  ( 0.000000000000000000, 0.1562500000000000278, 0.000000000000000000 ) ) ;
#81 = FILL_AREA_STYLE ('',( #110 ) ) ;
#82 = AXIS2_PLACEMENT_3D ( 'NONE', #90, #372, #257 ) ;
#83 = ORIENTED_EDGE ( 'NONE', *, *, #154, .F. ) ;
#84 =( NAMED_UNIT ( * ) SI_UNIT ( $, .STERADIAN. ) SOLID_ANGLE_UNIT ( ) );
#85 = DIRECTION ( 'NONE',  ( 0.000000000000000000, 0.000000000000000000, -1.000000000000000000 ) ) ;
#86 =( NAMED_UNIT ( * ) PLANE_ANGLE_UNIT ( ) SI_UNIT ( $, .RADIAN. ) );
#87 = ORIENTED_EDGE ( 'NONE', *, *, #359, .T. ) ;
#88 = CARTESIAN_POINT ( 'NONE',  ( 0.1562499999999998335, 3.000000000000000444, 0.000000000000000000 ) ) ;
#89 = STYLED_ITEM ( 'NONE', ( #324 ), #264 ) ;
#90 = CARTESIAN_POINT ( 'NONE',  ( 0.000000000000000000, 0.000000000000000000, 0.000000000000000000 ) ) ;
#91 = DIRECTION ( 'NONE',  ( 0.000000000000000000, 0.000000000000000000, 1.000000000000000000 ) ) ;
#92 = DIRECTION ( 'NONE',  ( -1.224646799147353454E-16, 1.000000000000000000, -0.000000000000000000 ) ) ;
#93 = UNCERTAINTY_MEASURE_WITH_UNIT (LENGTH_MEASURE( 1.000000000000000082E-05 ), #200, 'distance_accuracy_value', 'NONE');
#94 = DIRECTION ( 'NONE',  ( 0.000000000000000000, 1.000000000000000000, 0.000000000000000000 ) ) ;
#95 = MECHANICAL_DESIGN_GEOMETRIC_PRESENTATION_REPRESENTATION (  '', ( #260 ), #13 ) ;
#96 = AXIS2_PLACEMENT_3D ( 'NONE', #120, #310, #160 ) ;
#97 = CARTESIAN_POINT ( 'NONE',  ( 0.000000000000000000, 1.250000000000000000, 0.000000000000000000 ) ) ;
#98 = PRODUCT_DEFINITION ( 'UNKNOWN', '', #39, #181 ) ;
#99 = PRESENTATION_STYLE_ASSIGNMENT (( #8 ) ) ;
#100 = DIRECTION ( 'NONE',  ( 1.000000000000000000, 0.000000000000000000, 0.000000000000000000 ) ) ;
#101 = DIMENSIONAL_EXPONENTS ( 1.000000000000000000, 0.000000000000000000, 0.000000000000000000, 0.000000000000000000, 0.000000000000000000, 0.000000000000000000, 0.000000000000000000 ) ;
#102 = CARTESIAN_POINT ( 'NONE',  ( 0.000000000000000000, 0.000000000000000000, 0.000000000000000000 ) ) ;
#103 = FACE_OUTER_BOUND ( 'NONE', #323, .T. ) ;
#104 = ADVANCED_FACE ( 'NONE', ( #307 ), #31, .T. ) ;
#105 = STYLED_ITEM ( 'NONE', ( #267 ), #235 ) ;
#106 = EDGE_CURVE ( 'NONE', #278, #168, #272, .T. ) ;
#107 = DIRECTION ( 'NONE',  ( -1.224646799147353454E-16, 1.000000000000000000, -0.000000000000000000 ) ) ;
#108 = ORIENTED_EDGE ( 'NONE', *, *, #2, .T. ) ;
#109 = FILL_AREA_STYLE_COLOUR ( '', #261 ) ;
#110 = FILL_AREA_STYLE_COLOUR ( '', #329 ) ;
#111 = VECTOR ( 'NONE', #92, 39.37007874015748143 ) ;
#112 = ORIENTED_EDGE ( 'NONE', *, *, #36, .F. ) ;
#113 = SURFACE_STYLE_FILL_AREA ( #138 ) ;
#114 = ORIENTED_EDGE ( 'NONE', *, *, #123, .F. ) ;
#115 =( LENGTH_UNIT ( ) NAMED_UNIT ( * ) SI_UNIT ( $, .METRE. ) );
#116 =( CONVERSION_BASED_UNIT ( 'INCH', #231 ) LENGTH_UNIT ( ) NAMED_UNIT ( #15 ) );
#117 =( LENGTH_UNIT ( ) NAMED_UNIT ( * ) SI_UNIT ( $, .METRE. ) );
#118 = SURFACE_SIDE_STYLE ('',( #113 ) ) ;
#119 =( CONVERSION_BASED_UNIT ( 'INCH', #373 ) LENGTH_UNIT ( ) NAMED_UNIT ( #322 ) );
#120 = CARTESIAN_POINT ( 'NONE',  ( 0.000000000000000000, 0.1562500000000000278, 0.000000000000000000 ) ) ;
#121 = MECHANICAL_DESIGN_GEOMETRIC_PRESENTATION_REPRESENTATION (  '', ( #152 ), #18 ) ;
#122 = SURFACE_STYLE_USAGE ( .BOTH. , #7 ) ;
#123 = EDGE_CURVE ( 'NONE', #168, #229, #66, .T. ) ;
#124 = PRODUCT_RELATED_PRODUCT_CATEGORY ( 'part', '', ( #217 ) ) ;
#125 = AXIS2_PLACEMENT_3D ( 'NONE', #334, #360, #199 ) ;
#126 = LENGTH_MEASURE_WITH_UNIT ( LENGTH_MEASURE( 0.02539999999999999897 ), #117 );
#127 = DIRECTION ( 'NONE',  ( -1.000000000000000000, 0.000000000000000000, 0.000000000000000000 ) ) ;
#128 = SURFACE_STYLE_FILL_AREA ( #22 ) ;
#129 = CARTESIAN_POINT ( 'NONE',  ( -0.1562499999999995559, 1.250000000000000000, 0.000000000000000000 ) ) ;
#130 = AXIS2_PLACEMENT_3D ( 'NONE', #156, #94, #297 ) ;
#131 = FILL_AREA_STYLE ('',( #21 ) ) ;
#132 = SURFACE_STYLE_FILL_AREA ( #81 ) ;
#133 = ORIENTED_EDGE ( 'NONE', *, *, #198, .F. ) ;
#134 = ADVANCED_FACE ( 'NONE', ( #243 ), #218, .T. ) ;
#135 = DIRECTION ( 'NONE',  ( -0.000000000000000000, -1.000000000000000000, -0.000000000000000000 ) ) ;
#136 = CARTESIAN_POINT ( 'NONE',  ( 1.530808498934191571E-16, 1.250000000000000000, 0.000000000000000000 ) ) ;
#137 =( GEOMETRIC_REPRESENTATION_CONTEXT ( 3 ) GLOBAL_UNCERTAINTY_ASSIGNED_CONTEXT ( ( #149 ) ) GLOBAL_UNIT_ASSIGNED_CONTEXT ( ( #204, #236, #293 ) ) REPRESENTATION_CONTEXT ( 'NONE', 'WORKASPACE' ) );
#138 = FILL_AREA_STYLE ('',( #274 ) ) ;
#139 = ORIENTED_EDGE ( 'NONE', *, *, #332, .T. ) ;
#140 = ORIENTED_EDGE ( 'NONE', *, *, #68, .F. ) ;
#141 =( CONVERSION_BASED_UNIT ( 'INCH', #237 ) LENGTH_UNIT ( ) NAMED_UNIT ( #48 ) );
#142 = CARTESIAN_POINT ( 'NONE',  ( 0.000000000000000000, 0.1562500000000000278, 0.000000000000000000 ) ) ;
#143 = LINE ( 'NONE', #291, #111 ) ;
#144 = CARTESIAN_POINT ( 'NONE',  ( -1.913510623667739463E-17, 0.1562500000000000000, 0.000000000000000000 ) ) ;
#145 = CARTESIAN_POINT ( 'NONE',  ( -0.1562499999999998612, 3.000000000000000444, 0.000000000000000000 ) ) ;
#146 = AXIS2_PLACEMENT_3D ( 'NONE', #249, #193, #227 ) ;
#147 = UNCERTAINTY_MEASURE_WITH_UNIT (LENGTH_MEASURE( 1.000000000000000082E-05 ), #141, 'distance_accuracy_value', 'NONE');
#148 = DIRECTION ( 'NONE',  ( -0.000000000000000000, -1.000000000000000000, -0.000000000000000000 ) ) ;
#149 = UNCERTAINTY_MEASURE_WITH_UNIT (LENGTH_MEASURE( 1.000000000000000082E-05 ), #204, 'distance_accuracy_value', 'NONE');
#150 = DIRECTION ( 'NONE',  ( -1.224646799147353454E-16, 1.000000000000000000, -0.000000000000000000 ) ) ;
#151 = SURFACE_STYLE_FILL_AREA ( #41 ) ;
#152 = STYLED_ITEM ( 'NONE', ( #302 ), #268 ) ;
#153 = CARTESIAN_POINT ( 'NONE',  ( 1.913510623667738847E-17, 0.1562500000000000278, 0.1562499999999999722 ) ) ;
#154 = EDGE_CURVE ( 'NONE', #278, #196, #215, .T. ) ;
#155 = DIRECTION ( 'NONE',  ( -1.000000000000000000, 0.000000000000000000, 0.000000000000000000 ) ) ;
#156 = CARTESIAN_POINT ( 'NONE',  ( 0.000000000000000000, 1.250000000000000000, 0.000000000000000000 ) ) ;
#157 = CIRCLE ( 'NONE', #362, 0.1562499999999999167 ) ;
#158 = CIRCLE ( 'NONE', #207, 0.1562500000000000000 ) ;
#159 = DIRECTION ( 'NONE',  ( -1.224646799147353454E-16, 1.000000000000000000, -0.000000000000000000 ) ) ;
#160 = DIRECTION ( 'NONE',  ( 0.000000000000000000, 0.000000000000000000, -1.000000000000000000 ) ) ;
#161 = CIRCLE ( 'NONE', #370, 0.1562499999999999722 ) ;
#162 = CIRCLE ( 'NONE', #290, 0.1562499999999999722 ) ;
#163 = EDGE_LOOP ( 'NONE', ( #164, #87, #285, #139 ) ) ;
#164 = ORIENTED_EDGE ( 'NONE', *, *, #2, .F. ) ;
#165 =( LENGTH_UNIT ( ) NAMED_UNIT ( * ) SI_UNIT ( $, .METRE. ) );
#166 = EDGE_CURVE ( 'NONE', #167, #252, #157, .T. ) ;
#167 = VERTEX_POINT ( 'NONE', #354 ) ;
#168 = VERTEX_POINT ( 'NONE', #294 ) ;
#169 = ORIENTED_EDGE ( 'NONE', *, *, #106, .T. ) ;
#170 = AXIS2_PLACEMENT_3D ( 'NONE', #175, #91, #33 ) ;
#171 = PLANE ( 'NONE',  #130 ) ;
#172 = DIRECTION ( 'NONE',  ( 0.000000000000000000, 0.000000000000000000, 1.000000000000000000 ) ) ;
#173 = DIRECTION ( 'NONE',  ( 0.000000000000000000, 0.000000000000000000, -1.000000000000000000 ) ) ;
#174 = DIRECTION ( 'NONE',  ( 0.000000000000000000, 0.000000000000000000, -1.000000000000000000 ) ) ;
#175 = CARTESIAN_POINT ( 'NONE',  ( -1.913510623667739463E-17, 0.1562500000000000000, 0.000000000000000000 ) ) ;
#176 =( NAMED_UNIT ( * ) PLANE_ANGLE_UNIT ( ) SI_UNIT ( $, .RADIAN. ) );
#177 = CARTESIAN_POINT ( 'NONE',  ( 0.000000000000000000, 0.1562500000000000278, -0.1562499999999999722 ) ) ;
#178 = VECTOR ( 'NONE', #241, 39.37007874015748143 ) ;
#179 = VECTOR ( 'NONE', #202, 39.37007874015748143 ) ;
#180 = PRESENTATION_STYLE_ASSIGNMENT (( #284 ) ) ;
#181 = PRODUCT_DEFINITION_CONTEXT ( 'detailed design', #245, 'design' ) ;
#182 = LENGTH_MEASURE_WITH_UNIT ( LENGTH_MEASURE( 0.02539999999999999897 ), #72 );
#183 = SURFACE_STYLE_FILL_AREA ( #131 ) ;
#184 = CIRCLE ( 'NONE', #320, 0.1562499999999999722 ) ;
#185 = PRESENTATION_LAYER_ASSIGNMENT (  '', '', ( #89 ) ) ;
#186 = CARTESIAN_POINT ( 'NONE',  ( -6.123233995736772199E-17, 3.000000000000000444, 0.000000000000000000 ) ) ;
#187 =( NAMED_UNIT ( * ) PLANE_ANGLE_UNIT ( ) SI_UNIT ( $, .RADIAN. ) );
#188 = SURFACE_SIDE_STYLE ('',( #277 ) ) ;
#189 = DIRECTION ( 'NONE',  ( -1.224646799147353454E-16, 1.000000000000000000, -0.000000000000000000 ) ) ;
#190 = CARTESIAN_POINT ( 'NONE',  ( 0.000000000000000000, 0.000000000000000000, -0.1562499999999999167 ) ) ;
#191 = EDGE_LOOP ( 'NONE', ( #83, #169, #367, #308, #140 ) ) ;
#192 = CLOSED_SHELL ( 'NONE', ( #134, #303, #194, #350 ) ) ;
#193 = DIRECTION ( 'NONE',  ( 1.224646799147353207E-16, -0.000000000000000000, 1.000000000000000000 ) ) ;
#194 = ADVANCED_FACE ( 'NONE', ( #103 ), #271, .T. ) ;
#195 = APPLICATION_CONTEXT ( 'automotive_design' ) ;
#196 = VERTEX_POINT ( 'NONE', #153 ) ;
#197 = ORIENTED_EDGE ( 'NONE', *, *, #212, .F. ) ;
#198 = EDGE_CURVE ( 'NONE', #25, #256, #206, .T. ) ;
#199 = DIRECTION ( 'NONE',  ( 0.000000000000000000, 0.000000000000000000, -1.000000000000000000 ) ) ;
#200 =( CONVERSION_BASED_UNIT ( 'INCH', #342 ) LENGTH_UNIT ( ) NAMED_UNIT ( #45 ) );
#201 = ADVANCED_BREP_SHAPE_REPRESENTATION ( '56257', ( #235, #240, #348 ), #38 ) ;
#202 = DIRECTION ( 'NONE',  ( -1.224646799147353454E-16, 1.000000000000000000, -0.000000000000000000 ) ) ;
#203 = DIRECTION ( 'NONE',  ( -1.000000000000000000, -1.224646799147353454E-16, 0.000000000000000000 ) ) ;
#204 =( CONVERSION_BASED_UNIT ( 'INCH', #73 ) LENGTH_UNIT ( ) NAMED_UNIT ( #9 ) );
#205 = ADVANCED_FACE ( 'NONE', ( #210 ), #287, .T. ) ;
#206 = CIRCLE ( 'NONE', #238, 0.1562499999999996947 ) ;
#207 = AXIS2_PLACEMENT_3D ( 'NONE', #369, #174, #265 ) ;
#208 =( CONVERSION_BASED_UNIT ( 'INCH', #182 ) LENGTH_UNIT ( ) NAMED_UNIT ( #213 ) );
#209 =( NAMED_UNIT ( * ) SI_UNIT ( $, .STERADIAN. ) SOLID_ANGLE_UNIT ( ) );
#210 = FACE_OUTER_BOUND ( 'NONE', #163, .T. ) ;
#211 = SURFACE_SIDE_STYLE ('',( #183 ) ) ;
#212 = EDGE_CURVE ( 'NONE', #256, #167, #314, .T. ) ;
#213 = DIMENSIONAL_EXPONENTS ( 1.000000000000000000, 0.000000000000000000, 0.000000000000000000, 0.000000000000000000, 0.000000000000000000, 0.000000000000000000, 0.000000000000000000 ) ;
#214 = AXIS2_PLACEMENT_3D ( 'NONE', #57, #107, #221 ) ;
#215 = LINE ( 'NONE', #47, #49 ) ;
#216 = CARTESIAN_POINT ( 'NONE',  ( 1.530808498934191571E-16, 1.250000000000000000, 0.000000000000000000 ) ) ;
#217 = PRODUCT ( '56257', '56257', '', ( #299 ) ) ;
#218 = CYLINDRICAL_SURFACE ( 'NONE', #300, 0.1562499999999998057 ) ;
#219 = ORIENTED_EDGE ( 'NONE', *, *, #212, .T. ) ;
#220 = PRESENTATION_LAYER_ASSIGNMENT (  '', '', ( #225 ) ) ;
#221 = DIRECTION ( 'NONE',  ( -1.000000000000000000, 0.000000000000000000, 0.000000000000000000 ) ) ;
#222 = ORIENTED_EDGE ( 'NONE', *, *, #281, .F. ) ;
#223 = SURFACE_STYLE_USAGE ( .BOTH. , #358 ) ;
#224 = VERTEX_POINT ( 'NONE', #262 ) ;
#225 = STYLED_ITEM ( 'NONE', ( #326 ), #240 ) ;
#226 = ORIENTED_EDGE ( 'NONE', *, *, #51, .F. ) ;
#227 = DIRECTION ( 'NONE',  ( 1.000000000000000000, 0.000000000000000000, -1.224646799147353207E-16 ) ) ;
#228 = CARTESIAN_POINT ( 'NONE',  ( 0.000000000000000000, 0.1562500000000000278, 0.000000000000000000 ) ) ;
#229 = VERTEX_POINT ( 'NONE', #177 ) ;
#230 =( LENGTH_UNIT ( ) NAMED_UNIT ( * ) SI_UNIT ( $, .METRE. ) );
#231 = LENGTH_MEASURE_WITH_UNIT ( LENGTH_MEASURE( 0.02539999999999999897 ), #56 );
#232 = DIRECTION ( 'NONE',  ( -0.000000000000000000, -1.000000000000000000, -0.000000000000000000 ) ) ;
#233 =( NAMED_UNIT ( * ) PLANE_ANGLE_UNIT ( ) SI_UNIT ( $, .RADIAN. ) );
#234 = UNCERTAINTY_MEASURE_WITH_UNIT (LENGTH_MEASURE( 1.000000000000000082E-05 ), #248, 'distance_accuracy_value', 'NONE');
#235 = MANIFOLD_SOLID_BREP ( 'Revolve - Cutting Edge', #70 ) ;
#236 =( NAMED_UNIT ( * ) PLANE_ANGLE_UNIT ( ) SI_UNIT ( $, .RADIAN. ) );
#237 = LENGTH_MEASURE_WITH_UNIT ( LENGTH_MEASURE( 0.02539999999999999897 ), #230 );
#238 = AXIS2_PLACEMENT_3D ( 'NONE', #216, #150, #349 ) ;
#239 = MECHANICAL_DESIGN_GEOMETRIC_PRESENTATION_REPRESENTATION (  '', ( #6 ), #335 ) ;
#240 = MANIFOLD_SOLID_BREP ( 'Revolve - Tool Body (Straight Shanked)', #192 ) ;
#241 = DIRECTION ( 'NONE',  ( -0.000000000000000000, -1.000000000000000000, -0.000000000000000000 ) ) ;
#242 = CARTESIAN_POINT ( 'NONE',  ( -6.123233995736772199E-17, 3.000000000000000444, 0.000000000000000000 ) ) ;
#243 = FACE_OUTER_BOUND ( 'NONE', #17, .T. ) ;
#244 = PRODUCT_DEFINITION_SHAPE ( 'NONE', 'NONE',  #98 ) ;
#245 = APPLICATION_CONTEXT ( 'automotive_design' ) ;
#246 = CIRCLE ( 'NONE', #317, 0.1562499999999996947 ) ;
#247 =( GEOMETRIC_REPRESENTATION_CONTEXT ( 3 ) GLOBAL_UNCERTAINTY_ASSIGNED_CONTEXT ( ( #269 ) ) GLOBAL_UNIT_ASSIGNED_CONTEXT ( ( #119, #233, #343 ) ) REPRESENTATION_CONTEXT ( 'NONE', 'WORKASPACE' ) );
#248 =( CONVERSION_BASED_UNIT ( 'INCH', #126 ) LENGTH_UNIT ( ) NAMED_UNIT ( #75 ) );
#249 = CARTESIAN_POINT ( 'NONE',  ( -1.913510623667739463E-17, 0.1562500000000000000, 0.000000000000000000 ) ) ;
#250 = ORIENTED_EDGE ( 'NONE', *, *, #77, .T. ) ;
#251 = SURFACE_SIDE_STYLE ('',( #132 ) ) ;
#252 = VERTEX_POINT ( 'NONE', #37 ) ;
#253 = CIRCLE ( 'NONE', #96, 0.1562499999999999722 ) ;
#254 = EDGE_LOOP ( 'NONE', ( #226, #304 ) ) ;
#255 = DIRECTION ( 'NONE',  ( 0.000000000000000000, 0.000000000000000000, -1.000000000000000000 ) ) ;
#256 = VERTEX_POINT ( 'NONE', #129 ) ;
#257 = DIRECTION ( 'NONE',  ( 0.000000000000000000, 0.000000000000000000, -1.000000000000000000 ) ) ;
#258 = DIRECTION ( 'NONE',  ( -0.000000000000000000, -1.000000000000000000, -0.000000000000000000 ) ) ;
#259 = CARTESIAN_POINT ( 'NONE',  ( 1.530808498934191571E-16, 1.250000000000000000, 0.000000000000000000 ) ) ;
#260 = STYLED_ITEM ( 'NONE', ( #295 ), #104 ) ;
#261 = COLOUR_RGB ( '',1.000000000000000000, 0.000000000000000000, 0.000000000000000000 ) ;
#262 = CARTESIAN_POINT ( 'NONE',  ( -9.567553118338697316E-18, 0.000000000000000000, 0.000000000000000000 ) ) ;
#263 =( NAMED_UNIT ( * ) SI_UNIT ( $, .STERADIAN. ) SOLID_ANGLE_UNIT ( ) );
#264 = ADVANCED_FACE ( 'NONE', ( #333 ), #58, .T. ) ;
#265 = DIRECTION ( 'NONE',  ( -1.000000000000000000, 0.000000000000000000, 0.000000000000000000 ) ) ;
#266 =( LENGTH_UNIT ( ) NAMED_UNIT ( * ) SI_UNIT ( $, .METRE. ) );
#267 = PRESENTATION_STYLE_ASSIGNMENT (( #122 ) ) ;
#268 = ADVANCED_FACE ( 'NONE', ( #286 ), #1, .T. ) ;
#269 = UNCERTAINTY_MEASURE_WITH_UNIT (LENGTH_MEASURE( 1.000000000000000082E-05 ), #119, 'distance_accuracy_value', 'NONE');
#270 = SURFACE_SIDE_STYLE ('',( #76 ) ) ;
#271 = CYLINDRICAL_SURFACE ( 'NONE', #26, 0.1562499999999998057 ) ;
#272 = CIRCLE ( 'NONE', #328, 0.1562499999999998335 ) ;
#273 = DIRECTION ( 'NONE',  ( -1.000000000000000000, 0.000000000000000000, 0.000000000000000000 ) ) ;
#274 = FILL_AREA_STYLE_COLOUR ( '', #301 ) ;
#275 = SURFACE_STYLE_USAGE ( .BOTH. , #188 ) ;
#276 = EDGE_LOOP ( 'NONE', ( #283, #312, #357, #62, #114 ) ) ;
#277 = SURFACE_STYLE_FILL_AREA ( #327 ) ;
#278 = VERTEX_POINT ( 'NONE', #344 ) ;
#279 =( NAMED_UNIT ( * ) SI_UNIT ( $, .STERADIAN. ) SOLID_ANGLE_UNIT ( ) );
#280 = ORIENTED_EDGE ( 'NONE', *, *, #68, .T. ) ;
#281 = EDGE_CURVE ( 'NONE', #25, #252, #143, .T. ) ;
#282 = MECHANICAL_DESIGN_GEOMETRIC_PRESENTATION_REPRESENTATION (  '', ( #225 ), #137 ) ;
#283 = ORIENTED_EDGE ( 'NONE', *, *, #51, .T. ) ;
#284 = SURFACE_STYLE_USAGE ( .BOTH. , #118 ) ;
#285 = ORIENTED_EDGE ( 'NONE', *, *, #61, .T. ) ;
#286 = FACE_OUTER_BOUND ( 'NONE', #191, .T. ) ;
#287 = SPHERICAL_SURFACE ( 'NONE', #170, 0.1562500000000000000 ) ;
#288 = UNCERTAINTY_MEASURE_WITH_UNIT (LENGTH_MEASURE( 1.000000000000000082E-05 ), #116, 'distance_accuracy_value', 'NONE');
#289 = AXIS2_PLACEMENT_3D ( 'NONE', #144, #172, #74 ) ;
#290 = AXIS2_PLACEMENT_3D ( 'NONE', #228, #148, #255 ) ;
#291 = CARTESIAN_POINT ( 'NONE',  ( 0.1562499999999997224, 3.000000000000000444, 1.913510623667736998E-17 ) ) ;
#292 =( NAMED_UNIT ( * ) SI_UNIT ( $, .STERADIAN. ) SOLID_ANGLE_UNIT ( ) );
#293 =( NAMED_UNIT ( * ) SI_UNIT ( $, .STERADIAN. ) SOLID_ANGLE_UNIT ( ) );
#294 = CARTESIAN_POINT ( 'NONE',  ( 0.000000000000000000, 1.250000000000000000, -0.1562499999999998335 ) ) ;
#295 = PRESENTATION_STYLE_ASSIGNMENT (( #32 ) ) ;
#296 = PRESENTATION_LAYER_ASSIGNMENT (  '', '', ( #105 ) ) ;
#297 = DIRECTION ( 'NONE',  ( 0.000000000000000000, -0.000000000000000000, 1.000000000000000000 ) ) ;
#298 = DIRECTION ( 'NONE',  ( -1.000000000000000000, 0.000000000000000000, 0.000000000000000000 ) ) ;
#299 = PRODUCT_CONTEXT ( 'NONE', #195, 'mechanical' ) ;
#300 = AXIS2_PLACEMENT_3D ( 'NONE', #186, #159, #298 ) ;
#301 = COLOUR_RGB ( '',1.000000000000000000, 0.000000000000000000, 0.000000000000000000 ) ;
#302 = PRESENTATION_STYLE_ASSIGNMENT (( #275 ) ) ;
#303 = ADVANCED_FACE ( 'NONE', ( #34 ), #27, .F. ) ;
#304 = ORIENTED_EDGE ( 'NONE', *, *, #106, .F. ) ;
#305 = PRESENTATION_LAYER_ASSIGNMENT (  '', '', ( #260 ) ) ;
#306 =( GEOMETRIC_REPRESENTATION_CONTEXT ( 3 ) GLOBAL_UNCERTAINTY_ASSIGNED_CONTEXT ( ( #288 ) ) GLOBAL_UNIT_ASSIGNED_CONTEXT ( ( #116, #29, #330 ) ) REPRESENTATION_CONTEXT ( 'NONE', 'WORKASPACE' ) );
#307 = FACE_OUTER_BOUND ( 'NONE', #30, .T. ) ;
#308 = ORIENTED_EDGE ( 'NONE', *, *, #359, .F. ) ;
#309 = VERTEX_POINT ( 'NONE', #340 ) ;
#310 = DIRECTION ( 'NONE',  ( -0.000000000000000000, -1.000000000000000000, -0.000000000000000000 ) ) ;
#311 = AXIS2_PLACEMENT_3D ( 'NONE', #24, #135, #78 ) ;
#312 = ORIENTED_EDGE ( 'NONE', *, *, #154, .T. ) ;
#313 = CARTESIAN_POINT ( 'NONE',  ( 0.1562499999999999722, 0.1562500000000000278, 0.000000000000000000 ) ) ;
#314 = LINE ( 'NONE', #145, #179 ) ;
#315 = PLANE ( 'NONE',  #50 ) ;
#316 = UNCERTAINTY_MEASURE_WITH_UNIT (LENGTH_MEASURE( 1.000000000000000082E-05 ), #46, 'distance_accuracy_value', 'NONE');
#317 = AXIS2_PLACEMENT_3D ( 'NONE', #136, #339, #127 ) ;
#318 = COLOUR_RGB ( '',0.7921568627450980005, 0.8196078431372548767, 0.9333333333333333481 ) ;
#319 = EDGE_CURVE ( 'NONE', #363, #196, #162, .T. ) ;
#320 = AXIS2_PLACEMENT_3D ( 'NONE', #80, #331, #173 ) ;
#321 = FILL_AREA_STYLE ('',( #5 ) ) ;
#322 = DIMENSIONAL_EXPONENTS ( 1.000000000000000000, 0.000000000000000000, 0.000000000000000000, 0.000000000000000000, 0.000000000000000000, 0.000000000000000000, 0.000000000000000000 ) ;
#323 = EDGE_LOOP ( 'NONE', ( #222, #19, #219, #356 ) ) ;
#324 = PRESENTATION_STYLE_ASSIGNMENT (( #361 ) ) ;
#325 = CARTESIAN_POINT ( 'NONE',  ( 0.1562499999999998335, 1.250000000000000000, 1.913510623667737614E-17 ) ) ;
#326 = PRESENTATION_STYLE_ASSIGNMENT (( #223 ) ) ;
#327 = FILL_AREA_STYLE ('',( #109 ) ) ;
#328 = AXIS2_PLACEMENT_3D ( 'NONE', #97, #232, #338 ) ;
#329 = COLOUR_RGB ( '',1.000000000000000000, 0.000000000000000000, 0.000000000000000000 ) ;
#330 =( NAMED_UNIT ( * ) SI_UNIT ( $, .STERADIAN. ) SOLID_ANGLE_UNIT ( ) );
#331 = DIRECTION ( 'NONE',  ( -0.000000000000000000, -1.000000000000000000, -0.000000000000000000 ) ) ;
#332 = EDGE_CURVE ( 'NONE', #363, #224, #158, .T. ) ;
#333 = FACE_OUTER_BOUND ( 'NONE', #276, .T. ) ;
#334 = CARTESIAN_POINT ( 'NONE',  ( 0.000000000000000000, 1.250000000000000000, 0.000000000000000000 ) ) ;
#335 =( GEOMETRIC_REPRESENTATION_CONTEXT ( 3 ) GLOBAL_UNCERTAINTY_ASSIGNED_CONTEXT ( ( #93 ) ) GLOBAL_UNIT_ASSIGNED_CONTEXT ( ( #200, #176, #292 ) ) REPRESENTATION_CONTEXT ( 'NONE', 'WORKASPACE' ) );
#336 = DIRECTION ( 'NONE',  ( 1.000000000000000000, 1.224646799147353454E-16, 0.000000000000000000 ) ) ;
#337 = ORIENTED_EDGE ( 'NONE', *, *, #36, .T. ) ;
#338 = DIRECTION ( 'NONE',  ( 0.000000000000000000, 0.000000000000000000, -1.000000000000000000 ) ) ;
#339 = DIRECTION ( 'NONE',  ( -1.224646799147353454E-16, 1.000000000000000000, -0.000000000000000000 ) ) ;
#340 = CARTESIAN_POINT ( 'NONE',  ( -0.1562500000000000000, 0.1562500000000000278, 1.913510623667738847E-17 ) ) ;
#341 =( GEOMETRIC_REPRESENTATION_CONTEXT ( 3 ) GLOBAL_UNCERTAINTY_ASSIGNED_CONTEXT ( ( #65 ) ) GLOBAL_UNIT_ASSIGNED_CONTEXT ( ( #208, #4, #84 ) ) REPRESENTATION_CONTEXT ( 'NONE', 'WORKASPACE' ) );
#342 = LENGTH_MEASURE_WITH_UNIT ( LENGTH_MEASURE( 0.02539999999999999897 ), #115 );
#343 =( NAMED_UNIT ( * ) SI_UNIT ( $, .STERADIAN. ) SOLID_ANGLE_UNIT ( ) );
#344 = CARTESIAN_POINT ( 'NONE',  ( 1.913510623667737923E-17, 1.250000000000000000, 0.1562499999999998335 ) ) ;
#345 = FILL_AREA_STYLE_COLOUR ( '', #318 ) ;
#346 = CIRCLE ( 'NONE', #214, 0.1562499999999999167 ) ;
#347 = AXIS2_PLACEMENT_3D ( 'NONE', #259, #69, #203 ) ;
#348 = AXIS2_PLACEMENT_3D ( 'NONE', #102, #3, #100 ) ;
#349 = DIRECTION ( 'NONE',  ( -1.000000000000000000, 0.000000000000000000, 0.000000000000000000 ) ) ;
#350 = ADVANCED_FACE ( 'NONE', ( #53 ), #315, .F. ) ;
#351 = CIRCLE ( 'NONE', #125, 0.1562499999999998335 ) ;
#352 = COLOUR_RGB ( '',0.7921568627450980005, 0.8196078431372548767, 0.9333333333333333481 ) ;
#353 = APPLICATION_PROTOCOL_DEFINITION ( 'draft international standard', 'automotive_design', 1998, #245 ) ;
#354 = CARTESIAN_POINT ( 'NONE',  ( -0.1562499999999999722, 3.000000000000000444, 0.000000000000000000 ) ) ;
#355 = STYLED_ITEM ( 'NONE', ( #99 ), #205 ) ;
#356 = ORIENTED_EDGE ( 'NONE', *, *, #77, .F. ) ;
#357 = ORIENTED_EDGE ( 'NONE', *, *, #319, .F. ) ;
#358 = SURFACE_SIDE_STYLE ('',( #128 ) ) ;
#359 = EDGE_CURVE ( 'NONE', #309, #229, #253, .T. ) ;
#360 = DIRECTION ( 'NONE',  ( -0.000000000000000000, -1.000000000000000000, -0.000000000000000000 ) ) ;
#361 = SURFACE_STYLE_USAGE ( .BOTH. , #251 ) ;
#362 = AXIS2_PLACEMENT_3D ( 'NONE', #12, #189, #155 ) ;
#363 = VERTEX_POINT ( 'NONE', #313 ) ;
#364 = PRESENTATION_LAYER_ASSIGNMENT (  '', '', ( #152 ) ) ;
#365 = EDGE_LOOP ( 'NONE', ( #79, #250 ) ) ;
#366 = DIRECTION ( 'NONE',  ( 1.224646799147353454E-16, -1.000000000000000000, 0.000000000000000000 ) ) ;
#367 = ORIENTED_EDGE ( 'NONE', *, *, #123, .T. ) ;
#368 = ADVANCED_FACE ( 'NONE', ( #63 ), #171, .T. ) ;
#369 = CARTESIAN_POINT ( 'NONE',  ( -1.913510623667739463E-17, 0.1562500000000000000, 0.000000000000000000 ) ) ;
#370 = AXIS2_PLACEMENT_3D ( 'NONE', #142, #258, #85 ) ;
#371 = COLOUR_RGB ( '',1.000000000000000000, 0.000000000000000000, 0.000000000000000000 ) ;
#372 = DIRECTION ( 'NONE',  ( -0.000000000000000000, -1.000000000000000000, -0.000000000000000000 ) ) ;
#373 = LENGTH_MEASURE_WITH_UNIT ( LENGTH_MEASURE( 0.02539999999999999897 ), #67 );
ENDSEC;
END-ISO-10303-21;
