ISO-10303-21;
HEADER;
FILE_DESCRIPTION (( 'STEP AP214' ),
    '1' );
FILE_NAME ('Micro_MMBM-040-15X.STEP',
    '2021-09-03T16:34:02',
    ( '' ),
    ( '' ),
    'SwSTEP 2.0',
    'SolidWorks 2020',
    '' );
FILE_SCHEMA (( 'AUTOMOTIVE_DESIGN' ));
ENDSEC;

DATA;
#1 = ORIENTED_EDGE ( 'NONE', *, *, #138, .T. ) ;
#2 = VERTEX_POINT ( 'NONE', #231 ) ;
#3 = SURFACE_SIDE_STYLE ('',( #260 ) ) ;
#4 = CYLINDRICAL_SURFACE ( 'NONE', #242, 0.07480300000000005001 ) ;
#5 = AXIS2_PLACEMENT_3D ( 'NONE', #164, #130, #56 ) ;
#6 = STYLED_ITEM ( 'NONE', ( #226 ), #31 ) ;
#7 = DIRECTION ( 'NONE',  ( -0.0000000000000000000, -0.0000000000000000000, -1.000000000000000000 ) ) ;
#8 = DIRECTION ( 'NONE',  ( -0.0000000000000000000, -0.0000000000000000000, -1.000000000000000000 ) ) ;
#9 = EDGE_LOOP ( 'NONE', ( #101, #275 ) ) ;
#10 =( CONVERSION_BASED_UNIT ( 'INCH', #38 ) LENGTH_UNIT ( ) NAMED_UNIT ( #347 ) );
#11 = DIRECTION ( 'NONE',  ( -0.0000000000000000000, -0.0000000000000000000, -1.000000000000000000 ) ) ;
#12 = DIRECTION ( 'NONE',  ( -0.0000000000000000000, -0.0000000000000000000, -1.000000000000000000 ) ) ;
#13 = ADVANCED_FACE ( 'NONE', ( #33 ), #238, .T. ) ;
#14 = COLOUR_RGB ( '',0.7921568627450980005, 0.8196078431372548767, 0.9333333333333333481 ) ;
#15 = DIRECTION ( 'NONE',  ( -0.0000000000000000000, 0.0000000000000000000, -1.000000000000000000 ) ) ;
#16 = DIRECTION ( 'NONE',  ( -1.000000000000000000, 0.0000000000000000000, 0.0000000000000000000 ) ) ;
#17 = ORIENTED_EDGE ( 'NONE', *, *, #287, .T. ) ;
#18 = DIRECTION ( 'NONE',  ( -0.0000000000000000000, -0.0000000000000000000, -1.000000000000000000 ) ) ;
#19 = CARTESIAN_POINT ( 'NONE',  ( 0.0000000000000000000, 0.0000000000000000000, 2.244094000000000033 ) ) ;
#20 = DIRECTION ( 'NONE',  ( 0.0000000000000000000, 0.0000000000000000000, 1.000000000000000000 ) ) ;
#21 = VERTEX_POINT ( 'NONE', #88 ) ;
#22 = DIRECTION ( 'NONE',  ( -1.000000000000000000, 0.0000000000000000000, 0.0000000000000000000 ) ) ;
#23 = ORIENTED_EDGE ( 'NONE', *, *, #208, .F. ) ;
#24 = DIRECTION ( 'NONE',  ( -0.0000000000000000000, -0.0000000000000000000, -1.000000000000000000 ) ) ;
#25 =( NAMED_UNIT ( * ) SI_UNIT ( $, .STERADIAN. ) SOLID_ANGLE_UNIT ( ) );
#26 = ORIENTED_EDGE ( 'NONE', *, *, #72, .F. ) ;
#27 = CARTESIAN_POINT ( 'NONE',  ( 0.1031100000000002570, 1.262733314600838667E-17, 2.244094000000000033 ) ) ;
#28 =( CONVERSION_BASED_UNIT ( 'INCH', #100 ) LENGTH_UNIT ( ) NAMED_UNIT ( #367 ) );
#29 = VECTOR ( 'NONE', #18, 39.37007874015748143 ) ;
#30 = ORIENTED_EDGE ( 'NONE', *, *, #297, .F. ) ;
#31 = ADVANCED_BREP_SHAPE_REPRESENTATION ( 'Micro_MMBM-040-15X', ( #86, #243 ), #94 ) ;
#32 = CARTESIAN_POINT ( 'NONE',  ( 0.07873212600000001338, 9.641904609596613134E-18, 0.0000000000000000000 ) ) ;
#33 = FACE_OUTER_BOUND ( 'NONE', #181, .T. ) ;
#34 = LINE ( 'NONE', #359, #167 ) ;
#35 = VECTOR ( 'NONE', #344, 39.37007874015748143 ) ;
#36 = AXIS2_PLACEMENT_3D ( 'NONE', #299, #8, #126 ) ;
#37 = DIRECTION ( 'NONE',  ( -1.000000000000000000, 0.0000000000000000000, 0.0000000000000000000 ) ) ;
#38 = LENGTH_MEASURE_WITH_UNIT ( LENGTH_MEASURE( 0.02539999999999999897 ), #207 );
#39 = ADVANCED_FACE ( 'NONE', ( #84 ), #378, .T. ) ;
#40 = ORIENTED_EDGE ( 'NONE', *, *, #320, .F. ) ;
#41 = PLANE ( 'NONE',  #114 ) ;
#42 = ORIENTED_EDGE ( 'NONE', *, *, #178, .T. ) ;
#43 = FACE_OUTER_BOUND ( 'NONE', #373, .T. ) ;
#44 = AXIS2_PLACEMENT_3D ( 'NONE', #19, #303, #151 ) ;
#45 = LINE ( 'NONE', #218, #189 ) ;
#46 = ORIENTED_EDGE ( 'NONE', *, *, #178, .F. ) ;
#47 = DIRECTION ( 'NONE',  ( -1.000000000000000000, 0.0000000000000000000, 0.0000000000000000000 ) ) ;
#48 =( NAMED_UNIT ( * ) PLANE_ANGLE_UNIT ( ) SI_UNIT ( $, .RADIAN. ) );
#49 = VERTEX_POINT ( 'NONE', #32 ) ;
#50 = CARTESIAN_POINT ( 'NONE',  ( 0.0000000000000000000, 0.0000000000000000000, 2.229093999999999465 ) ) ;
#51 = ADVANCED_FACE ( 'NONE', ( #291 ), #4, .T. ) ;
#52 = APPLICATION_PROTOCOL_DEFINITION ( 'draft international standard', 'automotive_design', 1998, #81 ) ;
#53 = DIRECTION ( 'NONE',  ( 1.000000000000000000, 0.0000000000000000000, 0.0000000000000000000 ) ) ;
#54 = AXIS2_PLACEMENT_3D ( 'NONE', #87, #300, #175 ) ;
#55 = EDGE_CURVE ( 'NONE', #49, #308, #361, .T. ) ;
#56 = DIRECTION ( 'NONE',  ( -1.000000000000000000, 0.0000000000000000000, 0.0000000000000000000 ) ) ;
#57 = EDGE_CURVE ( 'NONE', #147, #318, #135, .T. ) ;
#58 = AXIS2_PLACEMENT_3D ( 'NONE', #194, #24, #285 ) ;
#59 = EDGE_LOOP ( 'NONE', ( #278, #369, #336, #40 ) ) ;
#60 = CARTESIAN_POINT ( 'NONE',  ( 0.0000000000000000000, 0.0000000000000000000, 2.229093999999999465 ) ) ;
#61 = LINE ( 'NONE', #119, #313 ) ;
#62 = CARTESIAN_POINT ( 'NONE',  ( 0.1031100000000002570, 1.354581824536888722E-17, 2.244094000000000033 ) ) ;
#63 = ADVANCED_FACE ( 'NONE', ( #235 ), #91, .T. ) ;
#64 = DIRECTION ( 'NONE',  ( 0.0000000000000000000, 0.0000000000000000000, -1.000000000000000000 ) ) ;
#65 = CARTESIAN_POINT ( 'NONE',  ( 0.0000000000000000000, 0.0000000000000000000, 0.0000000000000000000 ) ) ;
#66 =( LENGTH_UNIT ( ) NAMED_UNIT ( * ) SI_UNIT ( $, .METRE. ) );
#67 = FACE_OUTER_BOUND ( 'NONE', #323, .T. ) ;
#68 = AXIS2_PLACEMENT_3D ( 'NONE', #228, #103, #73 ) ;
#69 = CYLINDRICAL_SURFACE ( 'NONE', #219, 0.07873212600000001338 ) ;
#70 = FACE_OUTER_BOUND ( 'NONE', #227, .T. ) ;
#71 = EDGE_LOOP ( 'NONE', ( #245, #105, #210, #268 ) ) ;
#72 = EDGE_CURVE ( 'NONE', #310, #214, #202, .T. ) ;
#73 = DIRECTION ( 'NONE',  ( -1.000000000000000000, 0.0000000000000000000, 0.0000000000000000000 ) ) ;
#74 = LINE ( 'NONE', #309, #232 ) ;
#75 = CIRCLE ( 'NONE', #174, 0.07480300000000002225 ) ;
#76 = EDGE_CURVE ( 'NONE', #308, #49, #143, .T. ) ;
#77 = AXIS2_PLACEMENT_3D ( 'NONE', #236, #357, #274 ) ;
#78 = EDGE_CURVE ( 'NONE', #176, #2, #75, .T. ) ;
#79 = CIRCLE ( 'NONE', #295, 0.07480300000000002225 ) ;
#80 = CIRCLE ( 'NONE', #85, 0.1031100000000002570 ) ;
#81 = APPLICATION_CONTEXT ( 'automotive_design' ) ;
#82 = VERTEX_POINT ( 'NONE', #155 ) ;
#83 = ADVANCED_FACE ( 'NONE', ( #267, #292 ), #353, .T. ) ;
#84 = FACE_OUTER_BOUND ( 'NONE', #339, .T. ) ;
#85 = AXIS2_PLACEMENT_3D ( 'NONE', #206, #324, #177 ) ;
#86 = MANIFOLD_SOLID_BREP ( 'Cut-Revolve1', #200 ) ;
#87 = CARTESIAN_POINT ( 'NONE',  ( 0.0000000000000000000, 0.0000000000000000000, 0.0000000000000000000 ) ) ;
#88 = CARTESIAN_POINT ( 'NONE',  ( -0.07480300000000006388, 0.0000000000000000000, 0.5905510000000000481 ) ) ;
#89 = PRODUCT ( 'Micro_MMBM-040-15X', 'Micro_MMBM-040-15X', '', ( #193 ) ) ;
#90 = CARTESIAN_POINT ( 'NONE',  ( -0.07873212600000001338, 0.0000000000000000000, 0.1574800000000000089 ) ) ;
#91 = CYLINDRICAL_SURFACE ( 'NONE', #371, 0.07873212600000001338 ) ;
#92 = CARTESIAN_POINT ( 'NONE',  ( 0.0000000000000000000, 0.0000000000000000000, 0.0000000000000000000 ) ) ;
#93 = PLANE ( 'NONE',  #209 ) ;
#94 =( GEOMETRIC_REPRESENTATION_CONTEXT ( 3 ) GLOBAL_UNCERTAINTY_ASSIGNED_CONTEXT ( ( #171 ) ) GLOBAL_UNIT_ASSIGNED_CONTEXT ( ( #10, #97, #368 ) ) REPRESENTATION_CONTEXT ( 'NONE', 'WORKASPACE' ) );
#95 = DIRECTION ( 'NONE',  ( -1.000000000000000000, 0.0000000000000000000, 0.0000000000000000000 ) ) ;
#96 = PRODUCT_DEFINITION_SHAPE ( 'NONE', 'NONE',  #246 ) ;
#97 =( NAMED_UNIT ( * ) PLANE_ANGLE_UNIT ( ) SI_UNIT ( $, .RADIAN. ) );
#98 = VERTEX_POINT ( 'NONE', #376 ) ;
#99 = CARTESIAN_POINT ( 'NONE',  ( -0.1031100000000002570, 0.0000000000000000000, 2.244094000000000033 ) ) ;
#100 = LENGTH_MEASURE_WITH_UNIT ( LENGTH_MEASURE( 0.02539999999999999897 ), #198 );
#101 = ORIENTED_EDGE ( 'NONE', *, *, #76, .T. ) ;
#102 = MECHANICAL_DESIGN_GEOMETRIC_PRESENTATION_REPRESENTATION (  '', ( #142 ), #288 ) ;
#103 = DIRECTION ( 'NONE',  ( -0.0000000000000000000, -0.0000000000000000000, -1.000000000000000000 ) ) ;
#104 = EDGE_CURVE ( 'NONE', #2, #354, #45, .T. ) ;
#105 = ORIENTED_EDGE ( 'NONE', *, *, #104, .T. ) ;
#106 = DIRECTION ( 'NONE',  ( -1.000000000000000000, 0.0000000000000000000, 0.0000000000000000000 ) ) ;
#107 = FILL_AREA_STYLE ('',( #314 ) ) ;
#108 = ORIENTED_EDGE ( 'NONE', *, *, #332, .F. ) ;
#109 = EDGE_CURVE ( 'NONE', #214, #147, #74, .T. ) ;
#110 = CARTESIAN_POINT ( 'NONE',  ( 0.0000000000000000000, 0.0000000000000000000, 0.0000000000000000000 ) ) ;
#111 = CONICAL_SURFACE ( 'NONE', #77, 0.1031100000000002570, 0.7853981633974318477 ) ;
#112 = VECTOR ( 'NONE', #197, 39.37007874015748143 ) ;
#113 = CONICAL_SURFACE ( 'NONE', #68, 0.07873212600000001338, 0.1745329251994332254 ) ;
#114 = AXIS2_PLACEMENT_3D ( 'NONE', #244, #266, #333 ) ;
#115 = ADVANCED_FACE ( 'NONE', ( #70 ), #69, .T. ) ;
#116 = ORIENTED_EDGE ( 'NONE', *, *, #57, .T. ) ;
#117 = SURFACE_STYLE_USAGE ( .BOTH. , #3 ) ;
#118 = CARTESIAN_POINT ( 'NONE',  ( 0.0000000000000000000, 0.0000000000000000000, 0.0000000000000000000 ) ) ;
#119 = CARTESIAN_POINT ( 'NONE',  ( 0.07873212600000001338, 9.641904609596613134E-18, 0.0000000000000000000 ) ) ;
#120 = EDGE_LOOP ( 'NONE', ( #165, #217, #131, #256 ) ) ;
#121 = DIRECTION ( 'NONE',  ( -0.0000000000000000000, -0.0000000000000000000, -1.000000000000000000 ) ) ;
#122 = FILL_AREA_STYLE_COLOUR ( '', #14 ) ;
#123 = ORIENTED_EDGE ( 'NONE', *, *, #186, .T. ) ;
#124 = DIRECTION ( 'NONE',  ( -0.0000000000000000000, -0.0000000000000000000, -1.000000000000000000 ) ) ;
#125 = CIRCLE ( 'NONE', #58, 0.1181100000000000066 ) ;
#126 = DIRECTION ( 'NONE',  ( -1.000000000000000000, 0.0000000000000000000, 0.0000000000000000000 ) ) ;
#127 = ORIENTED_EDGE ( 'NONE', *, *, #240, .T. ) ;
#128 = CARTESIAN_POINT ( 'NONE',  ( -0.07480300000000005001, 0.0000000000000000000, 0.0000000000000000000 ) ) ;
#129 = ORIENTED_EDGE ( 'NONE', *, *, #205, .F. ) ;
#130 = DIRECTION ( 'NONE',  ( -0.0000000000000000000, -0.0000000000000000000, -1.000000000000000000 ) ) ;
#131 = ORIENTED_EDGE ( 'NONE', *, *, #364, .T. ) ;
#132 = DIRECTION ( 'NONE',  ( -1.000000000000000000, 0.0000000000000000000, 0.0000000000000000000 ) ) ;
#133 = ADVANCED_FACE ( 'NONE', ( #315 ), #113, .T. ) ;
#134 = ORIENTED_EDGE ( 'NONE', *, *, #205, .T. ) ;
#135 = CIRCLE ( 'NONE', #273, 0.1181100000000000066 ) ;
#136 = DIRECTION ( 'NONE',  ( 0.0000000000000000000, 0.0000000000000000000, -1.000000000000000000 ) ) ;
#137 = PRESENTATION_LAYER_ASSIGNMENT (  '', '', ( #6 ) ) ;
#138 = EDGE_CURVE ( 'NONE', #82, #2, #276, .T. ) ;
#139 = ORIENTED_EDGE ( 'NONE', *, *, #289, .T. ) ;
#140 = CARTESIAN_POINT ( 'NONE',  ( 0.0000000000000000000, 0.0000000000000000000, 0.1574800000000000089 ) ) ;
#141 = UNCERTAINTY_MEASURE_WITH_UNIT (LENGTH_MEASURE( 1.000000000000000082E-05 ), #183, 'distance_accuracy_value', 'NONE');
#142 = STYLED_ITEM ( 'NONE', ( #262 ), #86 ) ;
#143 = CIRCLE ( 'NONE', #54, 0.07873212600000001338 ) ;
#144 = VECTOR ( 'NONE', #335, 39.37007874015748143 ) ;
#145 = EDGE_CURVE ( 'NONE', #176, #322, #337, .T. ) ;
#146 = ORIENTED_EDGE ( 'NONE', *, *, #104, .F. ) ;
#147 = VERTEX_POINT ( 'NONE', #169 ) ;
#148 = CIRCLE ( 'NONE', #251, 0.07873212600000001338 ) ;
#149 = DIRECTION ( 'NONE',  ( -1.000000000000000000, 0.0000000000000000000, 0.0000000000000000000 ) ) ;
#150 = CARTESIAN_POINT ( 'NONE',  ( 0.0000000000000000000, 0.0000000000000000000, 0.0000000000000000000 ) ) ;
#151 = DIRECTION ( 'NONE',  ( 1.000000000000000000, 0.0000000000000000000, 0.0000000000000000000 ) ) ;
#152 = CARTESIAN_POINT ( 'NONE',  ( -0.07873212600000001338, 0.0000000000000000000, 0.0000000000000000000 ) ) ;
#153 = LINE ( 'NONE', #355, #221 ) ;
#154 = ORIENTED_EDGE ( 'NONE', *, *, #320, .T. ) ;
#155 = CARTESIAN_POINT ( 'NONE',  ( 0.07480300000000006388, 9.160725451661953287E-18, 0.5905510000000000481 ) ) ;
#156 = AXIS2_PLACEMENT_3D ( 'NONE', #272, #15, #215 ) ;
#157 = DIRECTION ( 'NONE',  ( -1.000000000000000000, 0.0000000000000000000, 0.0000000000000000000 ) ) ;
#158 = EDGE_LOOP ( 'NONE', ( #42, #1, #247, #282 ) ) ;
#159 = DIRECTION ( 'NONE',  ( -0.7071067811865358044, 0.0000000000000000000, -0.7071067811865590080 ) ) ;
#160 = EDGE_LOOP ( 'NONE', ( #365, #134, #356, #224 ) ) ;
#161 = PRODUCT_RELATED_PRODUCT_CATEGORY ( 'part', '', ( #89 ) ) ;
#162 = CARTESIAN_POINT ( 'NONE',  ( 0.0000000000000000000, 0.0000000000000000000, 0.1797631808507871853 ) ) ;
#163 = SURFACE_SIDE_STYLE ('',( #199 ) ) ;
#164 = CARTESIAN_POINT ( 'NONE',  ( 0.0000000000000000000, 0.0000000000000000000, 0.5905510000000000481 ) ) ;
#165 = ORIENTED_EDGE ( 'NONE', *, *, #138, .F. ) ;
#166 = AXIS2_PLACEMENT_3D ( 'NONE', #277, #124, #16 ) ;
#167 = VECTOR ( 'NONE', #270, 39.37007874015748143 ) ;
#168 = FACE_OUTER_BOUND ( 'NONE', #71, .T. ) ;
#169 = CARTESIAN_POINT ( 'NONE',  ( -0.1181100000000000066, 0.0000000000000000000, 2.229093999999999465 ) ) ;
#170 = DIMENSIONAL_EXPONENTS ( 1.000000000000000000, 0.0000000000000000000, 0.0000000000000000000, 0.0000000000000000000, 0.0000000000000000000, 0.0000000000000000000, 0.0000000000000000000 ) ;
#171 = UNCERTAINTY_MEASURE_WITH_UNIT (LENGTH_MEASURE( 1.000000000000000082E-05 ), #10, 'distance_accuracy_value', 'NONE');
#172 = APPLICATION_PROTOCOL_DEFINITION ( 'draft international standard', 'automotive_design', 1998, #188 ) ;
#173 = ORIENTED_EDGE ( 'NONE', *, *, #269, .F. ) ;
#174 = AXIS2_PLACEMENT_3D ( 'NONE', #325, #11, #179 ) ;
#175 = DIRECTION ( 'NONE',  ( -1.000000000000000000, 0.0000000000000000000, 0.0000000000000000000 ) ) ;
#176 = VERTEX_POINT ( 'NONE', #222 ) ;
#177 = DIRECTION ( 'NONE',  ( 1.000000000000000000, 0.0000000000000000000, 0.0000000000000000000 ) ) ;
#178 = EDGE_CURVE ( 'NONE', #21, #82, #281, .T. ) ;
#179 = DIRECTION ( 'NONE',  ( -1.000000000000000000, 0.0000000000000000000, 0.0000000000000000000 ) ) ;
#180 = AXIS2_PLACEMENT_3D ( 'NONE', #50, #136, #53 ) ;
#181 = EDGE_LOOP ( 'NONE', ( #116, #139, #191, #30 ) ) ;
#182 = LINE ( 'NONE', #128, #144 ) ;
#183 =( CONVERSION_BASED_UNIT ( 'INCH', #329 ) LENGTH_UNIT ( ) NAMED_UNIT ( #170 ) );
#184 = DIRECTION ( 'NONE',  ( 0.0000000000000000000, 0.0000000000000000000, -1.000000000000000000 ) ) ;
#185 = CARTESIAN_POINT ( 'NONE',  ( 0.1181100000000000066, 1.446430334472939084E-17, 2.229093999999999465 ) ) ;
#186 = EDGE_CURVE ( 'NONE', #98, #248, #125, .T. ) ;
#187 = DIRECTION ( 'NONE',  ( -0.0000000000000000000, -0.0000000000000000000, -1.000000000000000000 ) ) ;
#188 = APPLICATION_CONTEXT ( 'automotive_design' ) ;
#189 = VECTOR ( 'NONE', #252, 39.37007874015748143 ) ;
#190 = DIRECTION ( 'NONE',  ( 0.0000000000000000000, 0.0000000000000000000, 1.000000000000000000 ) ) ;
#191 = ORIENTED_EDGE ( 'NONE', *, *, #186, .F. ) ;
#192 = DIRECTION ( 'NONE',  ( 0.7071067811865358044, 8.659560562354788645E-17, -0.7071067811865590080 ) ) ;
#193 = PRODUCT_CONTEXT ( 'NONE', #81, 'mechanical' ) ;
#194 = CARTESIAN_POINT ( 'NONE',  ( 0.0000000000000000000, 0.0000000000000000000, 0.5905510000000000481 ) ) ;
#195 = CARTESIAN_POINT ( 'NONE',  ( 0.0000000000000000000, 0.0000000000000000000, 0.0000000000000000000 ) ) ;
#196 = ORIENTED_EDGE ( 'NONE', *, *, #109, .T. ) ;
#197 = DIRECTION ( 'NONE',  ( -0.0000000000000000000, -0.0000000000000000000, -1.000000000000000000 ) ) ;
#198 =( LENGTH_UNIT ( ) NAMED_UNIT ( * ) SI_UNIT ( $, .METRE. ) );
#199 = SURFACE_STYLE_FILL_AREA ( #107 ) ;
#200 = CLOSED_SHELL ( 'NONE', ( #115, #284, #258, #39, #13, #317, #350, #360, #83, #133, #51, #63, #286 ) ) ;
#201 = AXIS2_PLACEMENT_3D ( 'NONE', #304, #12, #294 ) ;
#202 = CIRCLE ( 'NONE', #44, 0.1031100000000002570 ) ;
#203 = COLOUR_RGB ( '',0.7921568627450980005, 0.8196078431372548767, 0.9333333333333333481 ) ;
#204 = CARTESIAN_POINT ( 'NONE',  ( 0.0000000000000000000, 0.0000000000000000000, 2.244094000000000033 ) ) ;
#205 = EDGE_CURVE ( 'NONE', #354, #322, #345, .T. ) ;
#206 = CARTESIAN_POINT ( 'NONE',  ( 0.0000000000000000000, 0.0000000000000000000, 2.244094000000000033 ) ) ;
#207 =( LENGTH_UNIT ( ) NAMED_UNIT ( * ) SI_UNIT ( $, .METRE. ) );
#208 = EDGE_CURVE ( 'NONE', #310, #318, #225, .T. ) ;
#209 = AXIS2_PLACEMENT_3D ( 'NONE', #65, #190, #216 ) ;
#210 = ORIENTED_EDGE ( 'NONE', *, *, #223, .F. ) ;
#211 = DIRECTION ( 'NONE',  ( -0.0000000000000000000, -0.0000000000000000000, -1.000000000000000000 ) ) ;
#212 = EDGE_CURVE ( 'NONE', #322, #308, #279, .T. ) ;
#213 = CARTESIAN_POINT ( 'NONE',  ( 0.07873212600000001338, 9.641904609596613134E-18, 0.1574800000000000089 ) ) ;
#214 = VERTEX_POINT ( 'NONE', #99 ) ;
#215 = DIRECTION ( 'NONE',  ( -1.000000000000000000, 0.0000000000000000000, 0.0000000000000000000 ) ) ;
#216 = DIRECTION ( 'NONE',  ( 1.000000000000000000, 0.0000000000000000000, -0.0000000000000000000 ) ) ;
#217 = ORIENTED_EDGE ( 'NONE', *, *, #269, .T. ) ;
#218 = CARTESIAN_POINT ( 'NONE',  ( 0.07873212600000001338, 9.641904609596613134E-18, 0.1574800000000000089 ) ) ;
#219 = AXIS2_PLACEMENT_3D ( 'NONE', #110, #249, #132 ) ;
#220 = EDGE_LOOP ( 'NONE', ( #46, #173 ) ) ;
#221 = VECTOR ( 'NONE', #234, 39.37007874015748143 ) ;
#222 = CARTESIAN_POINT ( 'NONE',  ( -0.07480300000000002225, 0.0000000000000000000, 0.1797631808507871853 ) ) ;
#223 = EDGE_CURVE ( 'NONE', #322, #354, #148, .T. ) ;
#224 = ORIENTED_EDGE ( 'NONE', *, *, #55, .F. ) ;
#225 = LINE ( 'NONE', #27, #316 ) ;
#226 = PRESENTATION_STYLE_ASSIGNMENT (( #307 ) ) ;
#227 = EDGE_LOOP ( 'NONE', ( #271, #17, #254, #363 ) ) ;
#228 = CARTESIAN_POINT ( 'NONE',  ( 0.0000000000000000000, 0.0000000000000000000, 0.1574800000000000089 ) ) ;
#229 = AXIS2_PLACEMENT_3D ( 'NONE', #118, #7, #233 ) ;
#230 = AXIS2_PLACEMENT_3D ( 'NONE', #283, #187, #157 ) ;
#231 = CARTESIAN_POINT ( 'NONE',  ( 0.07480300000000002225, 9.401315030629280899E-18, 0.1797631808507871853 ) ) ;
#232 = VECTOR ( 'NONE', #159, 39.37007874015748854 ) ;
#233 = DIRECTION ( 'NONE',  ( -1.000000000000000000, 0.0000000000000000000, 0.0000000000000000000 ) ) ;
#234 = DIRECTION ( 'NONE',  ( -0.0000000000000000000, -0.0000000000000000000, -1.000000000000000000 ) ) ;
#235 = FACE_OUTER_BOUND ( 'NONE', #160, .T. ) ;
#236 = CARTESIAN_POINT ( 'NONE',  ( 0.0000000000000000000, 0.0000000000000000000, 2.244094000000000033 ) ) ;
#237 = FILL_AREA_STYLE ('',( #122 ) ) ;
#238 = CYLINDRICAL_SURFACE ( 'NONE', #319, 0.1181100000000000066 ) ;
#239 = FACE_OUTER_BOUND ( 'NONE', #158, .T. ) ;
#240 = EDGE_CURVE ( 'NONE', #2, #176, #79, .T. ) ;
#241 =( NAMED_UNIT ( * ) PLANE_ANGLE_UNIT ( ) SI_UNIT ( $, .RADIAN. ) );
#242 = AXIS2_PLACEMENT_3D ( 'NONE', #92, #261, #149 ) ;
#243 = AXIS2_PLACEMENT_3D ( 'NONE', #195, #20, #253 ) ;
#244 = CARTESIAN_POINT ( 'NONE',  ( 0.0000000000000000000, 0.0000000000000000000, 2.244094000000000033 ) ) ;
#245 = ORIENTED_EDGE ( 'NONE', *, *, #78, .T. ) ;
#246 = PRODUCT_DEFINITION ( 'UNKNOWN', '', #349, #346 ) ;
#247 = ORIENTED_EDGE ( 'NONE', *, *, #78, .F. ) ;
#248 = VERTEX_POINT ( 'NONE', #340 ) ;
#249 = DIRECTION ( 'NONE',  ( -0.0000000000000000000, -0.0000000000000000000, -1.000000000000000000 ) ) ;
#250 = EDGE_CURVE ( 'NONE', #318, #147, #348, .T. ) ;
#251 = AXIS2_PLACEMENT_3D ( 'NONE', #140, #370, #47 ) ;
#252 = DIRECTION ( 'NONE',  ( 0.1736481776669306087, 2.126576849575774688E-17, -0.9848077530122080203 ) ) ;
#253 = DIRECTION ( 'NONE',  ( 1.000000000000000000, 0.0000000000000000000, 0.0000000000000000000 ) ) ;
#254 = ORIENTED_EDGE ( 'NONE', *, *, #76, .F. ) ;
#255 = SHAPE_DEFINITION_REPRESENTATION ( #96, #31 ) ;
#256 = ORIENTED_EDGE ( 'NONE', *, *, #240, .F. ) ;
#257 = AXIS2_PLACEMENT_3D ( 'NONE', #150, #121, #95 ) ;
#258 = ADVANCED_FACE ( 'NONE', ( #168 ), #312, .T. ) ;
#259 = ORIENTED_EDGE ( 'NONE', *, *, #109, .F. ) ;
#260 = SURFACE_STYLE_FILL_AREA ( #237 ) ;
#261 = DIRECTION ( 'NONE',  ( -0.0000000000000000000, -0.0000000000000000000, -1.000000000000000000 ) ) ;
#262 = PRESENTATION_STYLE_ASSIGNMENT (( #117 ) ) ;
#263 = AXIS2_PLACEMENT_3D ( 'NONE', #374, #305, #106 ) ;
#264 = MECHANICAL_DESIGN_GEOMETRIC_PRESENTATION_REPRESENTATION (  '', ( #6 ), #372 ) ;
#265 = DIRECTION ( 'NONE',  ( 1.000000000000000000, 0.0000000000000000000, 0.0000000000000000000 ) ) ;
#266 = DIRECTION ( 'NONE',  ( 0.0000000000000000000, 0.0000000000000000000, 1.000000000000000000 ) ) ;
#267 = FACE_BOUND ( 'NONE', #220, .T. ) ;
#268 = ORIENTED_EDGE ( 'NONE', *, *, #145, .F. ) ;
#269 = EDGE_CURVE ( 'NONE', #82, #21, #328, .T. ) ;
#270 = DIRECTION ( 'NONE',  ( -0.0000000000000000000, -0.0000000000000000000, -1.000000000000000000 ) ) ;
#271 = ORIENTED_EDGE ( 'NONE', *, *, #223, .T. ) ;
#272 = CARTESIAN_POINT ( 'NONE',  ( 0.07480300000000006388, 0.0000000000000000000, 0.5905510000000000481 ) ) ;
#273 = AXIS2_PLACEMENT_3D ( 'NONE', #60, #184, #265 ) ;
#274 = DIRECTION ( 'NONE',  ( -1.000000000000000000, 0.0000000000000000000, 0.0000000000000000000 ) ) ;
#275 = ORIENTED_EDGE ( 'NONE', *, *, #55, .T. ) ;
#276 = LINE ( 'NONE', #311, #29 ) ;
#277 = CARTESIAN_POINT ( 'NONE',  ( 0.0000000000000000000, 0.0000000000000000000, 0.5905510000000000481 ) ) ;
#278 = ORIENTED_EDGE ( 'NONE', *, *, #289, .F. ) ;
#279 = LINE ( 'NONE', #280, #112 ) ;
#280 = CARTESIAN_POINT ( 'NONE',  ( -0.07873212600000001338, 0.0000000000000000000, 0.0000000000000000000 ) ) ;
#281 = CIRCLE ( 'NONE', #5, 0.07480300000000006388 ) ;
#282 = ORIENTED_EDGE ( 'NONE', *, *, #364, .F. ) ;
#283 = CARTESIAN_POINT ( 'NONE',  ( 0.0000000000000000000, 0.0000000000000000000, 0.1574800000000000089 ) ) ;
#284 = ADVANCED_FACE ( 'NONE', ( #239 ), #362, .T. ) ;
#285 = DIRECTION ( 'NONE',  ( -1.000000000000000000, 0.0000000000000000000, 0.0000000000000000000 ) ) ;
#286 = ADVANCED_FACE ( 'NONE', ( #301 ), #93, .F. ) ;
#287 = EDGE_CURVE ( 'NONE', #354, #49, #61, .T. ) ;
#288 =( GEOMETRIC_REPRESENTATION_CONTEXT ( 3 ) GLOBAL_UNCERTAINTY_ASSIGNED_CONTEXT ( ( #141 ) ) GLOBAL_UNIT_ASSIGNED_CONTEXT ( ( #183, #241, #331 ) ) REPRESENTATION_CONTEXT ( 'NONE', 'WORKASPACE' ) );
#289 = EDGE_CURVE ( 'NONE', #318, #248, #153, .T. ) ;
#290 = EDGE_LOOP ( 'NONE', ( #146, #127, #341, #129 ) ) ;
#291 = FACE_OUTER_BOUND ( 'NONE', #120, .T. ) ;
#292 = FACE_OUTER_BOUND ( 'NONE', #334, .T. ) ;
#293 = DIRECTION ( 'NONE',  ( -0.0000000000000000000, -0.0000000000000000000, -1.000000000000000000 ) ) ;
#294 = DIRECTION ( 'NONE',  ( -1.000000000000000000, 0.0000000000000000000, 0.0000000000000000000 ) ) ;
#295 = AXIS2_PLACEMENT_3D ( 'NONE', #162, #342, #22 ) ;
#296 = ORIENTED_EDGE ( 'NONE', *, *, #208, .T. ) ;
#297 = EDGE_CURVE ( 'NONE', #147, #98, #34, .T. ) ;
#298 = ORIENTED_EDGE ( 'NONE', *, *, #332, .T. ) ;
#299 = CARTESIAN_POINT ( 'NONE',  ( 0.0000000000000000000, 0.0000000000000000000, 0.5905510000000000481 ) ) ;
#300 = DIRECTION ( 'NONE',  ( -0.0000000000000000000, -0.0000000000000000000, -1.000000000000000000 ) ) ;
#301 = FACE_OUTER_BOUND ( 'NONE', #9, .T. ) ;
#302 = ORIENTED_EDGE ( 'NONE', *, *, #72, .T. ) ;
#303 = DIRECTION ( 'NONE',  ( 0.0000000000000000000, 0.0000000000000000000, 1.000000000000000000 ) ) ;
#304 = CARTESIAN_POINT ( 'NONE',  ( 0.0000000000000000000, 0.0000000000000000000, 2.244094000000000033 ) ) ;
#305 = DIRECTION ( 'NONE',  ( -0.0000000000000000000, -0.0000000000000000000, -1.000000000000000000 ) ) ;
#306 = DIRECTION ( 'NONE',  ( -0.0000000000000000000, -0.0000000000000000000, -1.000000000000000000 ) ) ;
#307 = SURFACE_STYLE_USAGE ( .BOTH. , #163 ) ;
#308 = VERTEX_POINT ( 'NONE', #152 ) ;
#309 = CARTESIAN_POINT ( 'NONE',  ( -0.1031100000000002570, 0.0000000000000000000, 2.244094000000000033 ) ) ;
#310 = VERTEX_POINT ( 'NONE', #62 ) ;
#311 = CARTESIAN_POINT ( 'NONE',  ( 0.07480300000000005001, 9.160725451661951746E-18, 0.0000000000000000000 ) ) ;
#312 = CONICAL_SURFACE ( 'NONE', #230, 0.07873212600000001338, 0.1745329251994332254 ) ;
#313 = VECTOR ( 'NONE', #211, 39.37007874015748143 ) ;
#314 = FILL_AREA_STYLE_COLOUR ( '', #203 ) ;
#315 = FACE_OUTER_BOUND ( 'NONE', #290, .T. ) ;
#316 = VECTOR ( 'NONE', #192, 39.37007874015748854 ) ;
#317 = ADVANCED_FACE ( 'NONE', ( #327 ), #330, .T. ) ;
#318 = VERTEX_POINT ( 'NONE', #185 ) ;
#319 = AXIS2_PLACEMENT_3D ( 'NONE', #351, #293, #37 ) ;
#320 = EDGE_CURVE ( 'NONE', #248, #98, #379, .T. ) ;
#321 = UNCERTAINTY_MEASURE_WITH_UNIT (LENGTH_MEASURE( 1.000000000000000082E-05 ), #28, 'distance_accuracy_value', 'NONE');
#322 = VERTEX_POINT ( 'NONE', #90 ) ;
#323 = EDGE_LOOP ( 'NONE', ( #23, #108, #196, #375 ) ) ;
#324 = DIRECTION ( 'NONE',  ( 0.0000000000000000000, 0.0000000000000000000, 1.000000000000000000 ) ) ;
#325 = CARTESIAN_POINT ( 'NONE',  ( 0.0000000000000000000, 0.0000000000000000000, 0.1797631808507871853 ) ) ;
#326 = CARTESIAN_POINT ( 'NONE',  ( 0.0000000000000000000, 0.0000000000000000000, 0.0000000000000000000 ) ) ;
#327 = FACE_OUTER_BOUND ( 'NONE', #59, .T. ) ;
#328 = CIRCLE ( 'NONE', #166, 0.07480300000000006388 ) ;
#329 = LENGTH_MEASURE_WITH_UNIT ( LENGTH_MEASURE( 0.02539999999999999897 ), #66 );
#330 = CYLINDRICAL_SURFACE ( 'NONE', #201, 0.1181100000000000066 ) ;
#331 =( NAMED_UNIT ( * ) SI_UNIT ( $, .STERADIAN. ) SOLID_ANGLE_UNIT ( ) );
#332 = EDGE_CURVE ( 'NONE', #214, #310, #80, .T. ) ;
#333 = DIRECTION ( 'NONE',  ( 1.000000000000000000, 0.0000000000000000000, -0.0000000000000000000 ) ) ;
#334 = EDGE_LOOP ( 'NONE', ( #123, #154 ) ) ;
#335 = DIRECTION ( 'NONE',  ( -0.0000000000000000000, -0.0000000000000000000, -1.000000000000000000 ) ) ;
#336 = ORIENTED_EDGE ( 'NONE', *, *, #297, .T. ) ;
#337 = LINE ( 'NONE', #366, #35 ) ;
#338 = AXIS2_PLACEMENT_3D ( 'NONE', #204, #64, #358 ) ;
#339 = EDGE_LOOP ( 'NONE', ( #26, #296, #343, #259 ) ) ;
#340 = CARTESIAN_POINT ( 'NONE',  ( 0.1181100000000000066, 1.446430334472939084E-17, 0.5905510000000000481 ) ) ;
#341 = ORIENTED_EDGE ( 'NONE', *, *, #145, .T. ) ;
#342 = DIRECTION ( 'NONE',  ( -0.0000000000000000000, -0.0000000000000000000, -1.000000000000000000 ) ) ;
#343 = ORIENTED_EDGE ( 'NONE', *, *, #57, .F. ) ;
#344 = DIRECTION ( 'NONE',  ( -0.1736481776669306087, 0.0000000000000000000, -0.9848077530122080203 ) ) ;
#345 = CIRCLE ( 'NONE', #263, 0.07873212600000001338 ) ;
#346 = PRODUCT_DEFINITION_CONTEXT ( 'detailed design', #188, 'design' ) ;
#347 = DIMENSIONAL_EXPONENTS ( 1.000000000000000000, 0.0000000000000000000, 0.0000000000000000000, 0.0000000000000000000, 0.0000000000000000000, 0.0000000000000000000, 0.0000000000000000000 ) ;
#348 = CIRCLE ( 'NONE', #180, 0.1181100000000000066 ) ;
#349 = PRODUCT_DEFINITION_FORMATION_WITH_SPECIFIED_SOURCE ( 'ANY', '', #89, .NOT_KNOWN. ) ;
#350 = ADVANCED_FACE ( 'NONE', ( #43 ), #41, .T. ) ;
#351 = CARTESIAN_POINT ( 'NONE',  ( 0.0000000000000000000, 0.0000000000000000000, 2.244094000000000033 ) ) ;
#352 = PRESENTATION_LAYER_ASSIGNMENT (  '', '', ( #142 ) ) ;
#353 = PLANE ( 'NONE',  #156 ) ;
#354 = VERTEX_POINT ( 'NONE', #213 ) ;
#355 = CARTESIAN_POINT ( 'NONE',  ( 0.1181100000000000066, 1.446430334472939084E-17, 2.244094000000000033 ) ) ;
#356 = ORIENTED_EDGE ( 'NONE', *, *, #212, .T. ) ;
#357 = DIRECTION ( 'NONE',  ( 0.0000000000000000000, 0.0000000000000000000, -1.000000000000000000 ) ) ;
#358 = DIRECTION ( 'NONE',  ( -1.000000000000000000, 0.0000000000000000000, 0.0000000000000000000 ) ) ;
#359 = CARTESIAN_POINT ( 'NONE',  ( -0.1181100000000000066, 0.0000000000000000000, 2.244094000000000033 ) ) ;
#360 = ADVANCED_FACE ( 'NONE', ( #67 ), #111, .T. ) ;
#361 = CIRCLE ( 'NONE', #229, 0.07873212600000001338 ) ;
#362 = CYLINDRICAL_SURFACE ( 'NONE', #257, 0.07480300000000005001 ) ;
#363 = ORIENTED_EDGE ( 'NONE', *, *, #212, .F. ) ;
#364 = EDGE_CURVE ( 'NONE', #21, #176, #182, .T. ) ;
#365 = ORIENTED_EDGE ( 'NONE', *, *, #287, .F. ) ;
#366 = CARTESIAN_POINT ( 'NONE',  ( -0.07873212600000001338, 0.0000000000000000000, 0.1574800000000000089 ) ) ;
#367 = DIMENSIONAL_EXPONENTS ( 1.000000000000000000, 0.0000000000000000000, 0.0000000000000000000, 0.0000000000000000000, 0.0000000000000000000, 0.0000000000000000000, 0.0000000000000000000 ) ;
#368 =( NAMED_UNIT ( * ) SI_UNIT ( $, .STERADIAN. ) SOLID_ANGLE_UNIT ( ) );
#369 = ORIENTED_EDGE ( 'NONE', *, *, #250, .T. ) ;
#370 = DIRECTION ( 'NONE',  ( -0.0000000000000000000, -0.0000000000000000000, -1.000000000000000000 ) ) ;
#371 = AXIS2_PLACEMENT_3D ( 'NONE', #326, #306, #377 ) ;
#372 =( GEOMETRIC_REPRESENTATION_CONTEXT ( 3 ) GLOBAL_UNCERTAINTY_ASSIGNED_CONTEXT ( ( #321 ) ) GLOBAL_UNIT_ASSIGNED_CONTEXT ( ( #28, #48, #25 ) ) REPRESENTATION_CONTEXT ( 'NONE', 'WORKASPACE' ) );
#373 = EDGE_LOOP ( 'NONE', ( #298, #302 ) ) ;
#374 = CARTESIAN_POINT ( 'NONE',  ( 0.0000000000000000000, 0.0000000000000000000, 0.1574800000000000089 ) ) ;
#375 = ORIENTED_EDGE ( 'NONE', *, *, #250, .F. ) ;
#376 = CARTESIAN_POINT ( 'NONE',  ( -0.1181100000000000066, 0.0000000000000000000, 0.5905510000000000481 ) ) ;
#377 = DIRECTION ( 'NONE',  ( -1.000000000000000000, 0.0000000000000000000, 0.0000000000000000000 ) ) ;
#378 = CONICAL_SURFACE ( 'NONE', #338, 0.1031100000000002570, 0.7853981633974318477 ) ;
#379 = CIRCLE ( 'NONE', #36, 0.1181100000000000066 ) ;
ENDSEC;
END-ISO-10303-21;
