ISO-10303-21;
HEADER;
FILE_DESCRIPTION (( 'STEP AP214' ),
    '1' );
FILE_NAME ('05652.STEP',
    '2023-06-22T16:16:13',
    ( '' ),
    ( '' ),
    'SwSTEP 2.0',
    'SolidWorks 2023',
    '' );
FILE_SCHEMA (( 'AUTOMOTIVE_DESIGN' ));
ENDSEC;

DATA;
#1 =( NAMED_UNIT ( * ) SI_UNIT ( $, .STERADIAN. ) SOLID_ANGLE_UNIT ( ) );
#2 = SURFACE_SIDE_STYLE ('',( #223 ) ) ;
#3 = ORIENTED_EDGE ( 'NONE', *, *, #37, .T. ) ;
#4 = CIRCLE ( 'NONE', #107, 0.3125000000000000000 ) ;
#5 = EDGE_LOOP ( 'NONE', ( #169, #264 ) ) ;
#6 = UNCERTAINTY_MEASURE_WITH_UNIT (LENGTH_MEASURE( 1.000000000000000082E-05 ), #10, 'distance_accuracy_value', 'NONE');
#7 = VERTEX_POINT ( 'NONE', #222 ) ;
#8 = AXIS2_PLACEMENT_3D ( 'NONE', #176, #214, #51 ) ;
#9 = EDGE_LOOP ( 'NONE', ( #36, #31, #103, #145 ) ) ;
#10 =( CONVERSION_BASED_UNIT ( 'INCH', #201 ) LENGTH_UNIT ( ) NAMED_UNIT ( #115 ) );
#11 = LENGTH_MEASURE_WITH_UNIT ( LENGTH_MEASURE( 0.02539999999999999897 ), #42 );
#12 =( CONVERSION_BASED_UNIT ( 'INCH', #44 ) LENGTH_UNIT ( ) NAMED_UNIT ( #182 ) );
#13 = FILL_AREA_STYLE_COLOUR ( '', #255 ) ;
#14 = AXIS2_PLACEMENT_3D ( 'NONE', #302, #296, #110 ) ;
#15 =( LENGTH_UNIT ( ) NAMED_UNIT ( * ) SI_UNIT ( $, .METRE. ) );
#16 = PRESENTATION_STYLE_ASSIGNMENT (( #104 ) ) ;
#17 = CARTESIAN_POINT ( 'NONE',  ( -0.3125000000000002220, 5.000000000000000000, 0.000000000000000000 ) ) ;
#18 =( NAMED_UNIT ( * ) PLANE_ANGLE_UNIT ( ) SI_UNIT ( $, .RADIAN. ) );
#19 = EDGE_CURVE ( 'NONE', #140, #286, #244, .T. ) ;
#20 = DIMENSIONAL_EXPONENTS ( 1.000000000000000000, 0.000000000000000000, 0.000000000000000000, 0.000000000000000000, 0.000000000000000000, 0.000000000000000000, 0.000000000000000000 ) ;
#21 = FILL_AREA_STYLE_COLOUR ( '', #56 ) ;
#22 = CYLINDRICAL_SURFACE ( 'NONE', #194, 0.3125000000000000000 ) ;
#23 = PRODUCT_RELATED_PRODUCT_CATEGORY ( 'part', '', ( #272 ) ) ;
#24 = LENGTH_MEASURE_WITH_UNIT ( LENGTH_MEASURE( 0.02539999999999999897 ), #282 );
#25 = COLOUR_RGB ( '',0.7921568627450980005, 0.8196078431372548767, 0.9333333333333333481 ) ;
#26 =( CONVERSION_BASED_UNIT ( 'INCH', #191 ) LENGTH_UNIT ( ) NAMED_UNIT ( #20 ) );
#27 = APPLICATION_CONTEXT ( 'automotive_design' ) ;
#28 = VERTEX_POINT ( 'NONE', #247 ) ;
#29 = DIRECTION ( 'NONE',  ( -4.898587196589412459E-17, 1.000000000000000000, 0.000000000000000000 ) ) ;
#30 = ADVANCED_FACE ( 'NONE', ( #124 ), #85, .F. ) ;
#31 = ORIENTED_EDGE ( 'NONE', *, *, #167, .T. ) ;
#32 = AXIS2_PLACEMENT_3D ( 'NONE', #41, #196, #250 ) ;
#33 = PRODUCT_DEFINITION_FORMATION_WITH_SPECIFIED_SOURCE ( 'ANY', '', #272, .NOT_KNOWN. ) ;
#34 = FILL_AREA_STYLE_COLOUR ( '', #205 ) ;
#35 = ORIENTED_EDGE ( 'NONE', *, *, #252, .F. ) ;
#36 = ORIENTED_EDGE ( 'NONE', *, *, #19, .T. ) ;
#37 = EDGE_CURVE ( 'NONE', #7, #265, #4, .T. ) ;
#38 = ORIENTED_EDGE ( 'NONE', *, *, #297, .T. ) ;
#39 = AXIS2_PLACEMENT_3D ( 'NONE', #165, #29, #58 ) ;
#40 = STYLED_ITEM ( 'NONE', ( #88 ), #278 ) ;
#41 = CARTESIAN_POINT ( 'NONE',  ( -1.224646799147353207E-16, 5.000000000000000000, 0.000000000000000000 ) ) ;
#42 =( LENGTH_UNIT ( ) NAMED_UNIT ( * ) SI_UNIT ( $, .METRE. ) );
#43 = CARTESIAN_POINT ( 'NONE',  ( 0.000000000000000000, 0.000000000000000000, 0.000000000000000000 ) ) ;
#44 = LENGTH_MEASURE_WITH_UNIT ( LENGTH_MEASURE( 0.02539999999999999897 ), #126 );
#45 = EDGE_CURVE ( 'NONE', #286, #140, #158, .T. ) ;
#46 = DIRECTION ( 'NONE',  ( -0.000000000000000000, -1.000000000000000000, -0.000000000000000000 ) ) ;
#47 = FILL_AREA_STYLE_COLOUR ( '', #25 ) ;
#48 = MECHANICAL_DESIGN_GEOMETRIC_PRESENTATION_REPRESENTATION (  '', ( #268 ), #261 ) ;
#49 = SURFACE_STYLE_FILL_AREA ( #237 ) ;
#50 = FACE_OUTER_BOUND ( 'NONE', #288, .T. ) ;
#51 = DIRECTION ( 'NONE',  ( 0.000000000000000000, -0.000000000000000000, 1.000000000000000000 ) ) ;
#52 = CLOSED_SHELL ( 'NONE', ( #303, #221, #271, #30 ) ) ;
#53 = EDGE_LOOP ( 'NONE', ( #3, #172 ) ) ;
#54 =( CONVERSION_BASED_UNIT ( 'INCH', #260 ) LENGTH_UNIT ( ) NAMED_UNIT ( #274 ) );
#55 = ORIENTED_EDGE ( 'NONE', *, *, #276, .T. ) ;
#56 = COLOUR_RGB ( '',1.000000000000000000, 0.000000000000000000, 0.000000000000000000 ) ;
#57 = VECTOR ( 'NONE', #187, 39.37007874015748143 ) ;
#58 = DIRECTION ( 'NONE',  ( -1.000000000000000000, -4.898587196589412459E-17, 0.000000000000000000 ) ) ;
#59 = EDGE_LOOP ( 'NONE', ( #220, #259 ) ) ;
#60 = PRODUCT_DEFINITION_CONTEXT ( 'detailed design', #149, 'design' ) ;
#61 = ORIENTED_EDGE ( 'NONE', *, *, #68, .F. ) ;
#62 = DIRECTION ( 'NONE',  ( -1.000000000000000000, 0.000000000000000000, 0.000000000000000000 ) ) ;
#63 = SURFACE_STYLE_FILL_AREA ( #127 ) ;
#64 = AXIS2_PLACEMENT_3D ( 'NONE', #183, #152, #299 ) ;
#65 = SURFACE_SIDE_STYLE ('',( #87 ) ) ;
#66 = CARTESIAN_POINT ( 'NONE',  ( 0.3124999999999999445, 5.000000000000000000, 3.827021247335479543E-17 ) ) ;
#67 = PRESENTATION_LAYER_ASSIGNMENT (  '', '', ( #254 ) ) ;
#68 = EDGE_CURVE ( 'NONE', #166, #219, #236, .T. ) ;
#69 = PRODUCT_CONTEXT ( 'NONE', #27, 'mechanical' ) ;
#70 =( NAMED_UNIT ( * ) PLANE_ANGLE_UNIT ( ) SI_UNIT ( $, .RADIAN. ) );
#71 =( NAMED_UNIT ( * ) PLANE_ANGLE_UNIT ( ) SI_UNIT ( $, .RADIAN. ) );
#72 =( GEOMETRIC_REPRESENTATION_CONTEXT ( 3 ) GLOBAL_UNCERTAINTY_ASSIGNED_CONTEXT ( ( #119 ) ) GLOBAL_UNIT_ASSIGNED_CONTEXT ( ( #54, #242, #102 ) ) REPRESENTATION_CONTEXT ( 'NONE', 'WORKASPACE' ) );
#73 =( NAMED_UNIT ( * ) SI_UNIT ( $, .STERADIAN. ) SOLID_ANGLE_UNIT ( ) );
#74 = DIRECTION ( 'NONE',  ( -4.898587196589413075E-17, 1.000000000000000000, -0.000000000000000000 ) ) ;
#75 = CARTESIAN_POINT ( 'NONE',  ( 0.000000000000000000, 0.000000000000000000, -0.3125000000000000000 ) ) ;
#76 = STYLED_ITEM ( 'NONE', ( #284 ), #229 ) ;
#77 = UNCERTAINTY_MEASURE_WITH_UNIT (LENGTH_MEASURE( 1.000000000000000082E-05 ), #12, 'distance_accuracy_value', 'NONE');
#78 =( NAMED_UNIT ( * ) SI_UNIT ( $, .STERADIAN. ) SOLID_ANGLE_UNIT ( ) );
#79 = ORIENTED_EDGE ( 'NONE', *, *, #167, .F. ) ;
#80 = ADVANCED_FACE ( 'NONE', ( #204 ), #112, .T. ) ;
#81 = AXIS2_PLACEMENT_3D ( 'NONE', #257, #238, #203 ) ;
#82 = FACE_OUTER_BOUND ( 'NONE', #122, .T. ) ;
#83 = DIRECTION ( 'NONE',  ( 0.000000000000000000, 0.000000000000000000, -1.000000000000000000 ) ) ;
#84 = DIRECTION ( 'NONE',  ( 0.000000000000000000, 0.000000000000000000, -1.000000000000000000 ) ) ;
#85 = PLANE ( 'NONE',  #97 ) ;
#86 = CIRCLE ( 'NONE', #129, 0.3125000000000000000 ) ;
#87 = SURFACE_STYLE_FILL_AREA ( #300 ) ;
#88 = PRESENTATION_STYLE_ASSIGNMENT (( #249 ) ) ;
#89 = DIRECTION ( 'NONE',  ( 4.898587196589412459E-17, -1.000000000000000000, 0.000000000000000000 ) ) ;
#90 = AXIS2_PLACEMENT_3D ( 'NONE', #213, #74, #241 ) ;
#91 = CARTESIAN_POINT ( 'NONE',  ( 0.000000000000000000, 0.000000000000000000, 0.000000000000000000 ) ) ;
#92 = CARTESIAN_POINT ( 'NONE',  ( 3.827021247335478926E-17, 0.000000000000000000, 0.3125000000000000000 ) ) ;
#93 = SURFACE_SIDE_STYLE ('',( #49 ) ) ;
#94 = CARTESIAN_POINT ( 'NONE',  ( 0.000000000000000000, 0.000000000000000000, 0.000000000000000000 ) ) ;
#95 = PRODUCT_DEFINITION ( 'UNKNOWN', '', #33, #60 ) ;
#96 = ORIENTED_EDGE ( 'NONE', *, *, #141, .F. ) ;
#97 = AXIS2_PLACEMENT_3D ( 'NONE', #174, #89, #178 ) ;
#98 = FILL_AREA_STYLE ('',( #34 ) ) ;
#99 = ORIENTED_EDGE ( 'NONE', *, *, #155, .F. ) ;
#100 = ORIENTED_EDGE ( 'NONE', *, *, #45, .T. ) ;
#101 = DIRECTION ( 'NONE',  ( -0.000000000000000000, -1.000000000000000000, -0.000000000000000000 ) ) ;
#102 =( NAMED_UNIT ( * ) SI_UNIT ( $, .STERADIAN. ) SOLID_ANGLE_UNIT ( ) );
#103 = ORIENTED_EDGE ( 'NONE', *, *, #37, .F. ) ;
#104 = SURFACE_STYLE_USAGE ( .BOTH. , #228 ) ;
#105 = ADVANCED_FACE ( 'NONE', ( #202 ), #131, .T. ) ;
#106 = DIRECTION ( 'NONE',  ( -4.898587196589412459E-17, 1.000000000000000000, -0.000000000000000000 ) ) ;
#107 = AXIS2_PLACEMENT_3D ( 'NONE', #91, #233, #148 ) ;
#108 = SURFACE_STYLE_FILL_AREA ( #179 ) ;
#109 = SURFACE_SIDE_STYLE ('',( #108 ) ) ;
#110 = DIRECTION ( 'NONE',  ( 0.000000000000000000, 0.000000000000000000, -1.000000000000000000 ) ) ;
#111 = DIRECTION ( 'NONE',  ( -0.000000000000000000, -1.000000000000000000, -0.000000000000000000 ) ) ;
#112 = CYLINDRICAL_SURFACE ( 'NONE', #14, 0.3125000000000000000 ) ;
#113 = MECHANICAL_DESIGN_GEOMETRIC_PRESENTATION_REPRESENTATION (  '', ( #76 ), #72 ) ;
#114 = CARTESIAN_POINT ( 'NONE',  ( 0.3125000000000000000, 5.000000000000000000, 3.827021247335479543E-17 ) ) ;
#115 = DIMENSIONAL_EXPONENTS ( 1.000000000000000000, 0.000000000000000000, 0.000000000000000000, 0.000000000000000000, 0.000000000000000000, 0.000000000000000000, 0.000000000000000000 ) ;
#116 = SURFACE_STYLE_FILL_AREA ( #189 ) ;
#117 = APPLICATION_PROTOCOL_DEFINITION ( 'draft international standard', 'automotive_design', 1998, #27 ) ;
#118 = CARTESIAN_POINT ( 'NONE',  ( 0.000000000000000000, 2.500000000000000000, -0.3125000000000000000 ) ) ;
#119 = UNCERTAINTY_MEASURE_WITH_UNIT (LENGTH_MEASURE( 1.000000000000000082E-05 ), #54, 'distance_accuracy_value', 'NONE');
#120 = CLOSED_SHELL ( 'NONE', ( #80, #105, #162, #229 ) ) ;
#121 = MECHANICAL_DESIGN_GEOMETRIC_PRESENTATION_REPRESENTATION (  '', ( #40 ), #160 ) ;
#122 = EDGE_LOOP ( 'NONE', ( #123, #96 ) ) ;
#123 = ORIENTED_EDGE ( 'NONE', *, *, #150, .F. ) ;
#124 = FACE_OUTER_BOUND ( 'NONE', #59, .T. ) ;
#125 = AXIS2_PLACEMENT_3D ( 'NONE', #161, #136, #211 ) ;
#126 =( LENGTH_UNIT ( ) NAMED_UNIT ( * ) SI_UNIT ( $, .METRE. ) );
#127 = FILL_AREA_STYLE ('',( #295 ) ) ;
#128 = DIRECTION ( 'NONE',  ( -4.898587196589413075E-17, 1.000000000000000000, -0.000000000000000000 ) ) ;
#129 = AXIS2_PLACEMENT_3D ( 'NONE', #185, #309, #159 ) ;
#130 = SURFACE_STYLE_USAGE ( .BOTH. , #65 ) ;
#131 = PLANE ( 'NONE',  #8 ) ;
#132 = LINE ( 'NONE', #75, #154 ) ;
#133 = CIRCLE ( 'NONE', #90, 0.3125000000000000000 ) ;
#134 = LINE ( 'NONE', #92, #200 ) ;
#135 = AXIS2_PLACEMENT_3D ( 'NONE', #230, #227, #294 ) ;
#136 = DIRECTION ( 'NONE',  ( 0.000000000000000000, 0.000000000000000000, 1.000000000000000000 ) ) ;
#137 = SURFACE_STYLE_USAGE ( .BOTH. , #93 ) ;
#138 = FACE_OUTER_BOUND ( 'NONE', #243, .T. ) ;
#139 = AXIS2_PLACEMENT_3D ( 'NONE', #94, #283, #209 ) ;
#140 = VERTEX_POINT ( 'NONE', #118 ) ;
#141 = EDGE_CURVE ( 'NONE', #28, #215, #133, .T. ) ;
#142 = ORIENTED_EDGE ( 'NONE', *, *, #150, .T. ) ;
#143 = PRESENTATION_LAYER_ASSIGNMENT (  '', '', ( #181 ) ) ;
#144 = UNCERTAINTY_MEASURE_WITH_UNIT (LENGTH_MEASURE( 1.000000000000000082E-05 ), #208, 'distance_accuracy_value', 'NONE');
#145 = ORIENTED_EDGE ( 'NONE', *, *, #297, .F. ) ;
#146 = ADVANCED_BREP_SHAPE_REPRESENTATION ( '05652', ( #186, #278, #125 ), #291 ) ;
#147 = CYLINDRICAL_SURFACE ( 'NONE', #135, 0.3125000000000000555 ) ;
#148 = DIRECTION ( 'NONE',  ( 0.000000000000000000, 0.000000000000000000, -1.000000000000000000 ) ) ;
#149 = APPLICATION_CONTEXT ( 'automotive_design' ) ;
#150 = EDGE_CURVE ( 'NONE', #215, #28, #86, .T. ) ;
#151 = PRESENTATION_STYLE_ASSIGNMENT (( #130 ) ) ;
#152 = DIRECTION ( 'NONE',  ( -0.000000000000000000, -1.000000000000000000, -0.000000000000000000 ) ) ;
#153 = CIRCLE ( 'NONE', #139, 0.3125000000000000000 ) ;
#154 = VECTOR ( 'NONE', #111, 39.37007874015748143 ) ;
#155 = EDGE_CURVE ( 'NONE', #265, #7, #153, .T. ) ;
#156 = DIRECTION ( 'NONE',  ( 0.000000000000000000, 0.000000000000000000, -1.000000000000000000 ) ) ;
#157 =( CONVERSION_BASED_UNIT ( 'INCH', #281 ) LENGTH_UNIT ( ) NAMED_UNIT ( #163 ) );
#158 = CIRCLE ( 'NONE', #64, 0.3125000000000000000 ) ;
#159 = DIRECTION ( 'NONE',  ( -1.000000000000000000, 0.000000000000000000, 0.000000000000000000 ) ) ;
#160 =( GEOMETRIC_REPRESENTATION_CONTEXT ( 3 ) GLOBAL_UNCERTAINTY_ASSIGNED_CONTEXT ( ( #144 ) ) GLOBAL_UNIT_ASSIGNED_CONTEXT ( ( #208, #70, #301 ) ) REPRESENTATION_CONTEXT ( 'NONE', 'WORKASPACE' ) );
#161 = CARTESIAN_POINT ( 'NONE',  ( 0.000000000000000000, 0.000000000000000000, 0.000000000000000000 ) ) ;
#162 = ADVANCED_FACE ( 'NONE', ( #138 ), #22, .T. ) ;
#163 = DIMENSIONAL_EXPONENTS ( 1.000000000000000000, 0.000000000000000000, 0.000000000000000000, 0.000000000000000000, 0.000000000000000000, 0.000000000000000000, 0.000000000000000000 ) ;
#164 =( GEOMETRIC_REPRESENTATION_CONTEXT ( 3 ) GLOBAL_UNCERTAINTY_ASSIGNED_CONTEXT ( ( #226 ) ) GLOBAL_UNIT_ASSIGNED_CONTEXT ( ( #26, #285, #78 ) ) REPRESENTATION_CONTEXT ( 'NONE', 'WORKASPACE' ) );
#165 = CARTESIAN_POINT ( 'NONE',  ( 3.749399456654644447E-34, 2.500000000000000000, 0.000000000000000000 ) ) ;
#166 = VERTEX_POINT ( 'NONE', #114 ) ;
#167 = EDGE_CURVE ( 'NONE', #286, #265, #134, .T. ) ;
#168 = CARTESIAN_POINT ( 'NONE',  ( -0.3125000000000000000, 2.500000000000000000, 0.000000000000000000 ) ) ;
#169 = ORIENTED_EDGE ( 'NONE', *, *, #19, .F. ) ;
#170 = ORIENTED_EDGE ( 'NONE', *, *, #141, .T. ) ;
#171 = PLANE ( 'NONE',  #212 ) ;
#172 = ORIENTED_EDGE ( 'NONE', *, *, #155, .T. ) ;
#173 = CARTESIAN_POINT ( 'NONE',  ( -1.224646799147353207E-16, 5.000000000000000000, 0.000000000000000000 ) ) ;
#174 = CARTESIAN_POINT ( 'NONE',  ( 0.3125000000000000000, 5.000000000000000000, 0.000000000000000000 ) ) ;
#175 = UNCERTAINTY_MEASURE_WITH_UNIT (LENGTH_MEASURE( 1.000000000000000082E-05 ), #251, 'distance_accuracy_value', 'NONE');
#176 = CARTESIAN_POINT ( 'NONE',  ( 0.000000000000000000, 2.500000000000000000, 0.000000000000000000 ) ) ;
#177 = STYLED_ITEM ( 'NONE', ( #16 ), #80 ) ;
#178 = DIRECTION ( 'NONE',  ( 1.000000000000000000, 4.898587196589412459E-17, 0.000000000000000000 ) ) ;
#179 = FILL_AREA_STYLE ('',( #13 ) ) ;
#180 =( NAMED_UNIT ( * ) SI_UNIT ( $, .STERADIAN. ) SOLID_ANGLE_UNIT ( ) );
#181 = STYLED_ITEM ( 'NONE', ( #306 ), #186 ) ;
#182 = DIMENSIONAL_EXPONENTS ( 1.000000000000000000, 0.000000000000000000, 0.000000000000000000, 0.000000000000000000, 0.000000000000000000, 0.000000000000000000, 0.000000000000000000 ) ;
#183 = CARTESIAN_POINT ( 'NONE',  ( 0.000000000000000000, 2.500000000000000000, 0.000000000000000000 ) ) ;
#184 =( NAMED_UNIT ( * ) PLANE_ANGLE_UNIT ( ) SI_UNIT ( $, .RADIAN. ) );
#185 = CARTESIAN_POINT ( 'NONE',  ( 1.516480271171051896E-32, 2.500000000000000000, 0.000000000000000000 ) ) ;
#186 = MANIFOLD_SOLID_BREP ( 'Revolve - Cutting Edge', #120 ) ;
#187 = DIRECTION ( 'NONE',  ( -4.898587196589412459E-17, 1.000000000000000000, -0.000000000000000000 ) ) ;
#188 = COLOUR_RGB ( '',1.000000000000000000, 0.000000000000000000, 0.000000000000000000 ) ;
#189 = FILL_AREA_STYLE ('',( #21 ) ) ;
#190 =( LENGTH_UNIT ( ) NAMED_UNIT ( * ) SI_UNIT ( $, .METRE. ) );
#191 = LENGTH_MEASURE_WITH_UNIT ( LENGTH_MEASURE( 0.02539999999999999897 ), #190 );
#192 = ORIENTED_EDGE ( 'NONE', *, *, #293, .T. ) ;
#193 = CARTESIAN_POINT ( 'NONE',  ( 0.000000000000000000, 2.500000000000000000, 0.000000000000000000 ) ) ;
#194 = AXIS2_PLACEMENT_3D ( 'NONE', #239, #46, #156 ) ;
#195 = AXIS2_PLACEMENT_3D ( 'NONE', #173, #128, #62 ) ;
#196 = DIRECTION ( 'NONE',  ( -4.898587196589413075E-17, 1.000000000000000000, -0.000000000000000000 ) ) ;
#197 = LINE ( 'NONE', #17, #57 ) ;
#198 =( NAMED_UNIT ( * ) PLANE_ANGLE_UNIT ( ) SI_UNIT ( $, .RADIAN. ) );
#199 = MECHANICAL_DESIGN_GEOMETRIC_PRESENTATION_REPRESENTATION (  '', ( #177 ), #225 ) ;
#200 = VECTOR ( 'NONE', #207, 39.37007874015748143 ) ;
#201 = LENGTH_MEASURE_WITH_UNIT ( LENGTH_MEASURE( 0.02539999999999999897 ), #15 );
#202 = FACE_OUTER_BOUND ( 'NONE', #5, .T. ) ;
#203 = DIRECTION ( 'NONE',  ( -1.000000000000000000, 0.000000000000000000, 0.000000000000000000 ) ) ;
#204 = FACE_OUTER_BOUND ( 'NONE', #9, .T. ) ;
#205 = COLOUR_RGB ( '',1.000000000000000000, 0.000000000000000000, 0.000000000000000000 ) ;
#206 = SHAPE_DEFINITION_REPRESENTATION ( #234, #146 ) ;
#207 = DIRECTION ( 'NONE',  ( -0.000000000000000000, -1.000000000000000000, -0.000000000000000000 ) ) ;
#208 =( CONVERSION_BASED_UNIT ( 'INCH', #11 ) LENGTH_UNIT ( ) NAMED_UNIT ( #256 ) );
#209 = DIRECTION ( 'NONE',  ( 0.000000000000000000, 0.000000000000000000, -1.000000000000000000 ) ) ;
#210 = CARTESIAN_POINT ( 'NONE',  ( 3.827021247335478926E-17, 2.500000000000000000, 0.3125000000000000000 ) ) ;
#211 = DIRECTION ( 'NONE',  ( 1.000000000000000000, 0.000000000000000000, 0.000000000000000000 ) ) ;
#212 = AXIS2_PLACEMENT_3D ( 'NONE', #43, #266, #84 ) ;
#213 = CARTESIAN_POINT ( 'NONE',  ( 1.516480271171051896E-32, 2.500000000000000000, 0.000000000000000000 ) ) ;
#214 = DIRECTION ( 'NONE',  ( 0.000000000000000000, 1.000000000000000000, 0.000000000000000000 ) ) ;
#215 = VERTEX_POINT ( 'NONE', #168 ) ;
#216 = UNCERTAINTY_MEASURE_WITH_UNIT (LENGTH_MEASURE( 1.000000000000000082E-05 ), #157, 'distance_accuracy_value', 'NONE');
#217 = SURFACE_STYLE_USAGE ( .BOTH. , #2 ) ;
#218 = COLOUR_RGB ( '',1.000000000000000000, 0.000000000000000000, 0.000000000000000000 ) ;
#219 = VERTEX_POINT ( 'NONE', #290 ) ;
#220 = ORIENTED_EDGE ( 'NONE', *, *, #252, .T. ) ;
#221 = ADVANCED_FACE ( 'NONE', ( #82 ), #279, .F. ) ;
#222 = CARTESIAN_POINT ( 'NONE',  ( 0.000000000000000000, 0.000000000000000000, -0.3125000000000000000 ) ) ;
#223 = SURFACE_STYLE_FILL_AREA ( #98 ) ;
#224 = ORIENTED_EDGE ( 'NONE', *, *, #276, .F. ) ;
#225 =( GEOMETRIC_REPRESENTATION_CONTEXT ( 3 ) GLOBAL_UNCERTAINTY_ASSIGNED_CONTEXT ( ( #77 ) ) GLOBAL_UNIT_ASSIGNED_CONTEXT ( ( #12, #198, #270 ) ) REPRESENTATION_CONTEXT ( 'NONE', 'WORKASPACE' ) );
#226 = UNCERTAINTY_MEASURE_WITH_UNIT (LENGTH_MEASURE( 1.000000000000000082E-05 ), #26, 'distance_accuracy_value', 'NONE');
#227 = DIRECTION ( 'NONE',  ( -4.898587196589413075E-17, 1.000000000000000000, -0.000000000000000000 ) ) ;
#228 = SURFACE_SIDE_STYLE ('',( #63 ) ) ;
#229 = ADVANCED_FACE ( 'NONE', ( #262 ), #171, .T. ) ;
#230 = CARTESIAN_POINT ( 'NONE',  ( -1.224646799147353207E-16, 5.000000000000000000, 0.000000000000000000 ) ) ;
#231 = AXIS2_PLACEMENT_3D ( 'NONE', #193, #101, #83 ) ;
#232 = FACE_OUTER_BOUND ( 'NONE', #246, .T. ) ;
#233 = DIRECTION ( 'NONE',  ( -0.000000000000000000, -1.000000000000000000, -0.000000000000000000 ) ) ;
#234 = PRODUCT_DEFINITION_SHAPE ( 'NONE', 'NONE',  #95 ) ;
#235 = DIMENSIONAL_EXPONENTS ( 1.000000000000000000, 0.000000000000000000, 0.000000000000000000, 0.000000000000000000, 0.000000000000000000, 0.000000000000000000, 0.000000000000000000 ) ;
#236 = CIRCLE ( 'NONE', #32, 0.3125000000000001665 ) ;
#237 = FILL_AREA_STYLE ('',( #47 ) ) ;
#238 = DIRECTION ( 'NONE',  ( -4.898587196589413075E-17, 1.000000000000000000, -0.000000000000000000 ) ) ;
#239 = CARTESIAN_POINT ( 'NONE',  ( 0.000000000000000000, 0.000000000000000000, 0.000000000000000000 ) ) ;
#240 = MECHANICAL_DESIGN_GEOMETRIC_PRESENTATION_REPRESENTATION (  '', ( #181 ), #164 ) ;
#241 = DIRECTION ( 'NONE',  ( -1.000000000000000000, 0.000000000000000000, 0.000000000000000000 ) ) ;
#242 =( NAMED_UNIT ( * ) PLANE_ANGLE_UNIT ( ) SI_UNIT ( $, .RADIAN. ) );
#243 = EDGE_LOOP ( 'NONE', ( #79, #100, #38, #99 ) ) ;
#244 = CIRCLE ( 'NONE', #231, 0.3125000000000000000 ) ;
#245 = VECTOR ( 'NONE', #106, 39.37007874015748143 ) ;
#246 = EDGE_LOOP ( 'NONE', ( #224, #170, #192, #61 ) ) ;
#247 = CARTESIAN_POINT ( 'NONE',  ( 0.3125000000000000000, 2.500000000000000000, 3.827021247335479543E-17 ) ) ;
#248 = PRESENTATION_LAYER_ASSIGNMENT (  '', '', ( #76 ) ) ;
#249 = SURFACE_STYLE_USAGE ( .BOTH. , #109 ) ;
#250 = DIRECTION ( 'NONE',  ( -1.000000000000000000, 0.000000000000000000, 0.000000000000000000 ) ) ;
#251 =( CONVERSION_BASED_UNIT ( 'INCH', #24 ) LENGTH_UNIT ( ) NAMED_UNIT ( #235 ) );
#252 = EDGE_CURVE ( 'NONE', #219, #166, #269, .T. ) ;
#253 = SURFACE_STYLE_USAGE ( .BOTH. , #305 ) ;
#254 = STYLED_ITEM ( 'NONE', ( #275 ), #162 ) ;
#255 = COLOUR_RGB ( '',0.7921568627450980005, 0.8196078431372548767, 0.9333333333333333481 ) ;
#256 = DIMENSIONAL_EXPONENTS ( 1.000000000000000000, 0.000000000000000000, 0.000000000000000000, 0.000000000000000000, 0.000000000000000000, 0.000000000000000000, 0.000000000000000000 ) ;
#257 = CARTESIAN_POINT ( 'NONE',  ( -1.224646799147353207E-16, 5.000000000000000000, 0.000000000000000000 ) ) ;
#258 =( GEOMETRIC_REPRESENTATION_CONTEXT ( 3 ) GLOBAL_UNCERTAINTY_ASSIGNED_CONTEXT ( ( #175 ) ) GLOBAL_UNIT_ASSIGNED_CONTEXT ( ( #251, #71, #1 ) ) REPRESENTATION_CONTEXT ( 'NONE', 'WORKASPACE' ) );
#259 = ORIENTED_EDGE ( 'NONE', *, *, #68, .T. ) ;
#260 = LENGTH_MEASURE_WITH_UNIT ( LENGTH_MEASURE( 0.02539999999999999897 ), #287 );
#261 =( GEOMETRIC_REPRESENTATION_CONTEXT ( 3 ) GLOBAL_UNCERTAINTY_ASSIGNED_CONTEXT ( ( #6 ) ) GLOBAL_UNIT_ASSIGNED_CONTEXT ( ( #10, #18, #180 ) ) REPRESENTATION_CONTEXT ( 'NONE', 'WORKASPACE' ) );
#262 = FACE_OUTER_BOUND ( 'NONE', #53, .T. ) ;
#263 = PRESENTATION_LAYER_ASSIGNMENT (  '', '', ( #40 ) ) ;
#264 = ORIENTED_EDGE ( 'NONE', *, *, #45, .F. ) ;
#265 = VERTEX_POINT ( 'NONE', #298 ) ;
#266 = DIRECTION ( 'NONE',  ( 0.000000000000000000, -1.000000000000000000, -0.000000000000000000 ) ) ;
#267 = FILL_AREA_STYLE_COLOUR ( '', #218 ) ;
#268 = STYLED_ITEM ( 'NONE', ( #151 ), #105 ) ;
#269 = CIRCLE ( 'NONE', #195, 0.3125000000000001665 ) ;
#270 =( NAMED_UNIT ( * ) SI_UNIT ( $, .STERADIAN. ) SOLID_ANGLE_UNIT ( ) );
#271 = ADVANCED_FACE ( 'NONE', ( #232 ), #147, .T. ) ;
#272 = PRODUCT ( '05652', '05652', '', ( #69 ) ) ;
#273 = LINE ( 'NONE', #66, #245 ) ;
#274 = DIMENSIONAL_EXPONENTS ( 1.000000000000000000, 0.000000000000000000, 0.000000000000000000, 0.000000000000000000, 0.000000000000000000, 0.000000000000000000, 0.000000000000000000 ) ;
#275 = PRESENTATION_STYLE_ASSIGNMENT (( #253 ) ) ;
#276 = EDGE_CURVE ( 'NONE', #28, #166, #273, .T. ) ;
#277 =( LENGTH_UNIT ( ) NAMED_UNIT ( * ) SI_UNIT ( $, .METRE. ) );
#278 = MANIFOLD_SOLID_BREP ( 'Revolve - Tool Body (Straight Shanked)', #52 ) ;
#279 = PLANE ( 'NONE',  #39 ) ;
#280 = PRESENTATION_LAYER_ASSIGNMENT (  '', '', ( #177 ) ) ;
#281 = LENGTH_MEASURE_WITH_UNIT ( LENGTH_MEASURE( 0.02539999999999999897 ), #277 );
#282 =( LENGTH_UNIT ( ) NAMED_UNIT ( * ) SI_UNIT ( $, .METRE. ) );
#283 = DIRECTION ( 'NONE',  ( -0.000000000000000000, -1.000000000000000000, -0.000000000000000000 ) ) ;
#284 = PRESENTATION_STYLE_ASSIGNMENT (( #217 ) ) ;
#285 =( NAMED_UNIT ( * ) PLANE_ANGLE_UNIT ( ) SI_UNIT ( $, .RADIAN. ) );
#286 = VERTEX_POINT ( 'NONE', #210 ) ;
#287 =( LENGTH_UNIT ( ) NAMED_UNIT ( * ) SI_UNIT ( $, .METRE. ) );
#288 = EDGE_LOOP ( 'NONE', ( #142, #55, #35, #292 ) ) ;
#289 = PRESENTATION_LAYER_ASSIGNMENT (  '', '', ( #268 ) ) ;
#290 = CARTESIAN_POINT ( 'NONE',  ( -0.3125000000000002776, 5.000000000000000000, 0.000000000000000000 ) ) ;
#291 =( GEOMETRIC_REPRESENTATION_CONTEXT ( 3 ) GLOBAL_UNCERTAINTY_ASSIGNED_CONTEXT ( ( #216 ) ) GLOBAL_UNIT_ASSIGNED_CONTEXT ( ( #157, #184, #73 ) ) REPRESENTATION_CONTEXT ( 'NONE', 'WORKASPACE' ) );
#292 = ORIENTED_EDGE ( 'NONE', *, *, #293, .F. ) ;
#293 = EDGE_CURVE ( 'NONE', #215, #219, #197, .T. ) ;
#294 = DIRECTION ( 'NONE',  ( -1.000000000000000000, 0.000000000000000000, 0.000000000000000000 ) ) ;
#295 = FILL_AREA_STYLE_COLOUR ( '', #188 ) ;
#296 = DIRECTION ( 'NONE',  ( -0.000000000000000000, -1.000000000000000000, -0.000000000000000000 ) ) ;
#297 = EDGE_CURVE ( 'NONE', #140, #7, #132, .T. ) ;
#298 = CARTESIAN_POINT ( 'NONE',  ( 3.827021247335478926E-17, 0.000000000000000000, 0.3125000000000000000 ) ) ;
#299 = DIRECTION ( 'NONE',  ( 0.000000000000000000, 0.000000000000000000, -1.000000000000000000 ) ) ;
#300 = FILL_AREA_STYLE ('',( #267 ) ) ;
#301 =( NAMED_UNIT ( * ) SI_UNIT ( $, .STERADIAN. ) SOLID_ANGLE_UNIT ( ) );
#302 = CARTESIAN_POINT ( 'NONE',  ( 0.000000000000000000, 0.000000000000000000, 0.000000000000000000 ) ) ;
#303 = ADVANCED_FACE ( 'NONE', ( #50 ), #304, .T. ) ;
#304 = CYLINDRICAL_SURFACE ( 'NONE', #81, 0.3125000000000000555 ) ;
#305 = SURFACE_SIDE_STYLE ('',( #116 ) ) ;
#306 = PRESENTATION_STYLE_ASSIGNMENT (( #137 ) ) ;
#307 = MECHANICAL_DESIGN_GEOMETRIC_PRESENTATION_REPRESENTATION (  '', ( #254 ), #258 ) ;
#308 = APPLICATION_PROTOCOL_DEFINITION ( 'draft international standard', 'automotive_design', 1998, #149 ) ;
#309 = DIRECTION ( 'NONE',  ( -4.898587196589413075E-17, 1.000000000000000000, -0.000000000000000000 ) ) ;
ENDSEC;
END-ISO-10303-21;
