ISO-10303-21;
HEADER;
FILE_DESCRIPTION (( 'STEP AP214' ),
    '1' );
FILE_NAME ('Micro_SEM-093-03.STEP',
    '2021-09-02T01:08:35',
    ( '' ),
    ( '' ),
    'SwSTEP 2.0',
    'SolidWorks 2020',
    '' );
FILE_SCHEMA (( 'AUTOMOTIVE_DESIGN' ));
ENDSEC;

DATA;
#1 = AXIS2_PLACEMENT_3D ( 'NONE', #60, #55, #112 ) ;
#2 = DIRECTION ( 'NONE',  ( -1.224646799147353454E-16, -0.0000000000000000000, -1.000000000000000000 ) ) ;
#3 = LINE ( 'NONE', #220, #99 ) ;
#4 = DIRECTION ( 'NONE',  ( 1.000000000000000000, 0.0000000000000000000, 0.0000000000000000000 ) ) ;
#5 = CONICAL_SURFACE ( 'NONE', #283, 0.04685310000000000863, 0.1745329251994339192 ) ;
#6 = CARTESIAN_POINT ( 'NONE',  ( 0.0000000000000000000, 0.0000000000000000000, 1.500000000000000222 ) ) ;
#7 = DIRECTION ( 'NONE',  ( 1.000000000000000000, 0.0000000000000000000, 0.0000000000000000000 ) ) ;
#8 = CIRCLE ( 'NONE', #199, 0.04685310000000000169 ) ;
#9 = DIRECTION ( 'NONE',  ( 0.0000000000000000000, 0.0000000000000000000, 1.000000000000000000 ) ) ;
#10 = PRODUCT_DEFINITION_FORMATION_WITH_SPECIFIED_SOURCE ( 'ANY', '', #244, .NOT_KNOWN. ) ;
#11 = SURFACE_STYLE_FILL_AREA ( #243 ) ;
#12 = AXIS2_PLACEMENT_3D ( 'NONE', #6, #173, #123 ) ;
#13 = ORIENTED_EDGE ( 'NONE', *, *, #77, .T. ) ;
#14 = EDGE_CURVE ( 'NONE', #92, #231, #32, .T. ) ;
#15 = LINE ( 'NONE', #194, #135 ) ;
#16 = EDGE_LOOP ( 'NONE', ( #208, #18, #230, #36 ) ) ;
#17 = DIRECTION ( 'NONE',  ( 1.000000000000000000, 0.0000000000000000000, 0.0000000000000000000 ) ) ;
#18 = ORIENTED_EDGE ( 'NONE', *, *, #295, .T. ) ;
#19 = EDGE_CURVE ( 'NONE', #190, #212, #265, .T. ) ;
#20 = DIRECTION ( 'NONE',  ( -1.224646799147353454E-16, -0.0000000000000000000, -1.000000000000000000 ) ) ;
#21 = DIRECTION ( 'NONE',  ( 0.0000000000000000000, 0.0000000000000000000, -1.000000000000000000 ) ) ;
#22 = EDGE_CURVE ( 'NONE', #92, #157, #127, .T. ) ;
#23 = DIRECTION ( 'NONE',  ( -1.000000000000000000, 0.0000000000000000000, 0.0000000000000000000 ) ) ;
#24 = PRODUCT_DEFINITION_CONTEXT ( 'detailed design', #125, 'design' ) ;
#25 = PRODUCT_RELATED_PRODUCT_CATEGORY ( 'part', '', ( #244 ) ) ;
#26 = CARTESIAN_POINT ( 'NONE',  ( 0.04685310000000000169, 5.737849894513085128E-18, 0.0000000000000000000 ) ) ;
#27 = CARTESIAN_POINT ( 'NONE',  ( -0.04685310000000000169, 0.0000000000000000000, 1.147569978902617334E-17 ) ) ;
#28 = CARTESIAN_POINT ( 'NONE',  ( 0.0000000000000000000, 0.0000000000000000000, 1.500000000000000222 ) ) ;
#29 = ADVANCED_FACE ( 'NONE', ( #289 ), #87, .T. ) ;
#30 =( NAMED_UNIT ( * ) SI_UNIT ( $, .STERADIAN. ) SOLID_ANGLE_UNIT ( ) );
#31 = SURFACE_STYLE_USAGE ( .BOTH. , #53 ) ;
#32 = LINE ( 'NONE', #105, #177 ) ;
#33 = AXIS2_PLACEMENT_3D ( 'NONE', #69, #93, #23 ) ;
#34 = ORIENTED_EDGE ( 'NONE', *, *, #73, .T. ) ;
#35 = FACE_OUTER_BOUND ( 'NONE', #136, .T. ) ;
#36 = ORIENTED_EDGE ( 'NONE', *, *, #14, .F. ) ;
#37 = PLANE ( 'NONE',  #83 ) ;
#38 = EDGE_LOOP ( 'NONE', ( #108, #292, #252, #153 ) ) ;
#39 = EDGE_CURVE ( 'NONE', #231, #182, #8, .T. ) ;
#40 = CARTESIAN_POINT ( 'NONE',  ( 0.04750000000000064587, 5.817072295950006528E-18, 1.500000000000000222 ) ) ;
#41 = ORIENTED_EDGE ( 'NONE', *, *, #80, .F. ) ;
#42 = AXIS2_PLACEMENT_3D ( 'NONE', #261, #78, #4 ) ;
#43 = DIRECTION ( 'NONE',  ( -0.0000000000000000000, -0.0000000000000000000, -1.000000000000000000 ) ) ;
#44 = ADVANCED_FACE ( 'NONE', ( #209 ), #5, .T. ) ;
#45 = CARTESIAN_POINT ( 'NONE',  ( 7.026839507303431300E-34, 0.0000000000000000000, 5.737849894513086668E-18 ) ) ;
#46 = PRODUCT_DEFINITION ( 'UNKNOWN', '', #10, #24 ) ;
#47 = CYLINDRICAL_SURFACE ( 'NONE', #12, 0.06250000000000000000 ) ;
#48 = CIRCLE ( 'NONE', #33, 0.04685310000000000863 ) ;
#49 = FACE_OUTER_BOUND ( 'NONE', #274, .T. ) ;
#50 = DIRECTION ( 'NONE',  ( 0.0000000000000000000, 0.0000000000000000000, -1.000000000000000000 ) ) ;
#51 = MECHANICAL_DESIGN_GEOMETRIC_PRESENTATION_REPRESENTATION (  '', ( #196 ), #154 ) ;
#52 = EDGE_CURVE ( 'NONE', #157, #190, #139, .T. ) ;
#53 = SURFACE_SIDE_STYLE ('',( #100 ) ) ;
#54 = AXIS2_PLACEMENT_3D ( 'NONE', #82, #9, #103 ) ;
#55 = DIRECTION ( 'NONE',  ( -1.224646799147353454E-16, -0.0000000000000000000, -1.000000000000000000 ) ) ;
#56 = ORIENTED_EDGE ( 'NONE', *, *, #39, .T. ) ;
#57 = PRESENTATION_STYLE_ASSIGNMENT (( #285 ) ) ;
#58 = VECTOR ( 'NONE', #144, 39.37007874015748143 ) ;
#59 = DIRECTION ( 'NONE',  ( -1.224646799147353454E-16, -0.0000000000000000000, -1.000000000000000000 ) ) ;
#60 = CARTESIAN_POINT ( 'NONE',  ( 2.302335982397024786E-17, 0.0000000000000000000, 0.1880000000000000282 ) ) ;
#61 = CIRCLE ( 'NONE', #298, 0.04750000000000064587 ) ;
#62 = CARTESIAN_POINT ( 'NONE',  ( 2.302335982397024786E-17, 0.0000000000000000000, 0.1880000000000000282 ) ) ;
#63 = ORIENTED_EDGE ( 'NONE', *, *, #213, .T. ) ;
#64 = CIRCLE ( 'NONE', #216, 0.04750000000000064587 ) ;
#65 = CARTESIAN_POINT ( 'NONE',  ( 2.302335982397024786E-17, 0.0000000000000000000, 0.1880000000000000282 ) ) ;
#66 = EDGE_LOOP ( 'NONE', ( #56, #245 ) ) ;
#67 = DIRECTION ( 'NONE',  ( 1.224646799147353454E-16, 0.0000000000000000000, 1.000000000000000000 ) ) ;
#68 = ORIENTED_EDGE ( 'NONE', *, *, #189, .T. ) ;
#69 = CARTESIAN_POINT ( 'NONE',  ( 2.302335982397024786E-17, 0.0000000000000000000, 0.1880000000000000282 ) ) ;
#70 = ORIENTED_EDGE ( 'NONE', *, *, #187, .F. ) ;
#71 = DIRECTION ( 'NONE',  ( 0.0000000000000000000, 0.0000000000000000000, 1.000000000000000000 ) ) ;
#72 = CYLINDRICAL_SURFACE ( 'NONE', #203, 0.04685310000000000169 ) ;
#73 = EDGE_CURVE ( 'NONE', #157, #92, #48, .T. ) ;
#74 = CARTESIAN_POINT ( 'NONE',  ( 0.0000000000000000000, 0.0000000000000000000, 1.500000000000000222 ) ) ;
#75 =( GEOMETRIC_REPRESENTATION_CONTEXT ( 3 ) GLOBAL_UNCERTAINTY_ASSIGNED_CONTEXT ( ( #296 ) ) GLOBAL_UNIT_ASSIGNED_CONTEXT ( ( #259, #149, #30 ) ) REPRESENTATION_CONTEXT ( 'NONE', 'WORKASPACE' ) );
#76 = DIRECTION ( 'NONE',  ( -0.0000000000000000000, -0.0000000000000000000, -1.000000000000000000 ) ) ;
#77 = EDGE_CURVE ( 'NONE', #236, #109, #217, .T. ) ;
#78 = DIRECTION ( 'NONE',  ( 0.0000000000000000000, 0.0000000000000000000, -1.000000000000000000 ) ) ;
#79 = PRODUCT_CONTEXT ( 'NONE', #224, 'mechanical' ) ;
#80 = EDGE_CURVE ( 'NONE', #294, #212, #293, .T. ) ;
#81 = ADVANCED_BREP_SHAPE_REPRESENTATION ( 'Micro_SEM-093-03', ( #242, #54 ), #191 ) ;
#82 = CARTESIAN_POINT ( 'NONE',  ( 0.0000000000000000000, 0.0000000000000000000, 0.0000000000000000000 ) ) ;
#83 = AXIS2_PLACEMENT_3D ( 'NONE', #237, #71, #247 ) ;
#84 = SHAPE_DEFINITION_REPRESENTATION ( #174, #81 ) ;
#85 = ORIENTED_EDGE ( 'NONE', *, *, #80, .T. ) ;
#86 = ORIENTED_EDGE ( 'NONE', *, *, #268, .T. ) ;
#87 = CONICAL_SURFACE ( 'NONE', #150, 0.04685310000000000863, 0.1745329251994339192 ) ;
#88 = DIRECTION ( 'NONE',  ( 0.0000000000000000000, 0.0000000000000000000, 1.000000000000000000 ) ) ;
#89 = ADVANCED_FACE ( 'NONE', ( #299 ), #232, .F. ) ;
#90 = ORIENTED_EDGE ( 'NONE', *, *, #213, .F. ) ;
#91 = CYLINDRICAL_SURFACE ( 'NONE', #254, 0.06250000000000000000 ) ;
#92 = VERTEX_POINT ( 'NONE', #234 ) ;
#93 = DIRECTION ( 'NONE',  ( -1.224646799147353454E-16, -0.0000000000000000000, -1.000000000000000000 ) ) ;
#94 = UNCERTAINTY_MEASURE_WITH_UNIT (LENGTH_MEASURE( 1.000000000000000082E-05 ), #155, 'distance_accuracy_value', 'NONE');
#95 = CARTESIAN_POINT ( 'NONE',  ( 0.04685310000000002945, 0.0000000000000000000, 0.1880000000000000282 ) ) ;
#96 = CONICAL_SURFACE ( 'NONE', #262, 0.04750000000000064587, 0.7853981633974457255 ) ;
#97 = DIRECTION ( 'NONE',  ( 0.7071067811865456854, 8.659560562354911904E-17, -0.7071067811865493491 ) ) ;
#98 = DIRECTION ( 'NONE',  ( 1.000000000000000000, 0.0000000000000000000, 0.0000000000000000000 ) ) ;
#99 = VECTOR ( 'NONE', #129, 39.37007874015748143 ) ;
#100 = SURFACE_STYLE_FILL_AREA ( #146 ) ;
#101 = DIRECTION ( 'NONE',  ( -1.224646799147353454E-16, -0.0000000000000000000, -1.000000000000000000 ) ) ;
#102 = PRESENTATION_STYLE_ASSIGNMENT (( #31 ) ) ;
#103 = DIRECTION ( 'NONE',  ( 1.000000000000000000, 0.0000000000000000000, 0.0000000000000000000 ) ) ;
#104 = EDGE_CURVE ( 'NONE', #212, #190, #221, .T. ) ;
#105 = CARTESIAN_POINT ( 'NONE',  ( -0.04685310000000000169, 0.0000000000000000000, 5.737849894513086668E-18 ) ) ;
#106 = VECTOR ( 'NONE', #76, 39.37007874015748143 ) ;
#107 = ADVANCED_FACE ( 'NONE', ( #270 ), #37, .T. ) ;
#108 = ORIENTED_EDGE ( 'NONE', *, *, #280, .F. ) ;
#109 = VERTEX_POINT ( 'NONE', #249 ) ;
#110 =( NAMED_UNIT ( * ) SI_UNIT ( $, .STERADIAN. ) SOLID_ANGLE_UNIT ( ) );
#111 = AXIS2_PLACEMENT_3D ( 'NONE', #141, #211, #158 ) ;
#112 = DIRECTION ( 'NONE',  ( -1.000000000000000000, 0.0000000000000000000, 0.0000000000000000000 ) ) ;
#113 = ORIENTED_EDGE ( 'NONE', *, *, #152, .T. ) ;
#114 = CYLINDRICAL_SURFACE ( 'NONE', #193, 0.04685310000000000169 ) ;
#115 = ORIENTED_EDGE ( 'NONE', *, *, #104, .F. ) ;
#116 = DIRECTION ( 'NONE',  ( 0.1736481776669314137, 0.0000000000000000000, 0.9848077530122077983 ) ) ;
#117 = ORIENTED_EDGE ( 'NONE', *, *, #280, .T. ) ;
#118 = DIMENSIONAL_EXPONENTS ( 1.000000000000000000, 0.0000000000000000000, 0.0000000000000000000, 0.0000000000000000000, 0.0000000000000000000, 0.0000000000000000000, 0.0000000000000000000 ) ;
#119 = DIRECTION ( 'NONE',  ( 1.000000000000000000, 0.0000000000000000000, 0.0000000000000000000 ) ) ;
#120 = DIRECTION ( 'NONE',  ( -1.000000000000000000, 0.0000000000000000000, 0.0000000000000000000 ) ) ;
#121 = DIRECTION ( 'NONE',  ( 1.224646799147353454E-16, 0.0000000000000000000, 1.000000000000000000 ) ) ;
#122 = AXIS2_PLACEMENT_3D ( 'NONE', #169, #101, #200 ) ;
#123 = DIRECTION ( 'NONE',  ( -1.000000000000000000, 0.0000000000000000000, 0.0000000000000000000 ) ) ;
#124 = CARTESIAN_POINT ( 'NONE',  ( -0.04685309999999998087, 5.737849894513086668E-18, 0.1880000000000000282 ) ) ;
#125 = APPLICATION_CONTEXT ( 'automotive_design' ) ;
#126 = LINE ( 'NONE', #282, #106 ) ;
#127 = CIRCLE ( 'NONE', #1, 0.04685310000000000863 ) ;
#128 = ADVANCED_FACE ( 'NONE', ( #214 ), #91, .T. ) ;
#129 = DIRECTION ( 'NONE',  ( -1.224646799147353454E-16, -0.0000000000000000000, -1.000000000000000000 ) ) ;
#130 = ADVANCED_FACE ( 'NONE', ( #35 ), #114, .T. ) ;
#131 =( LENGTH_UNIT ( ) NAMED_UNIT ( * ) SI_UNIT ( $, .METRE. ) );
#132 = ORIENTED_EDGE ( 'NONE', *, *, #268, .F. ) ;
#133 = AXIS2_PLACEMENT_3D ( 'NONE', #272, #20, #119 ) ;
#134 =( NAMED_UNIT ( * ) PLANE_ANGLE_UNIT ( ) SI_UNIT ( $, .RADIAN. ) );
#135 = VECTOR ( 'NONE', #215, 39.37007874015748143 ) ;
#136 = EDGE_LOOP ( 'NONE', ( #269, #34, #271, #70 ) ) ;
#137 = CARTESIAN_POINT ( 'NONE',  ( 0.0000000000000000000, 0.0000000000000000000, 1.500000000000000222 ) ) ;
#138 = ORIENTED_EDGE ( 'NONE', *, *, #104, .T. ) ;
#139 = LINE ( 'NONE', #275, #184 ) ;
#140 = EDGE_LOOP ( 'NONE', ( #161, #117, #138, #156 ) ) ;
#141 = CARTESIAN_POINT ( 'NONE',  ( 0.0000000000000000000, 0.0000000000000000000, 0.0000000000000000000 ) ) ;
#142 = VERTEX_POINT ( 'NONE', #143 ) ;
#143 = CARTESIAN_POINT ( 'NONE',  ( -0.04750000000000064587, 0.0000000000000000000, 1.500000000000000222 ) ) ;
#144 = DIRECTION ( 'NONE',  ( -0.0000000000000000000, -0.0000000000000000000, -1.000000000000000000 ) ) ;
#145 = CARTESIAN_POINT ( 'NONE',  ( -0.06250000000000000000, 0.0000000000000000000, 1.485000000000000764 ) ) ;
#146 = FILL_AREA_STYLE ('',( #172 ) ) ;
#147 = STYLED_ITEM ( 'NONE', ( #102 ), #242 ) ;
#148 = ADVANCED_FACE ( 'NONE', ( #192 ), #96, .T. ) ;
#149 =( NAMED_UNIT ( * ) PLANE_ANGLE_UNIT ( ) SI_UNIT ( $, .RADIAN. ) );
#150 = AXIS2_PLACEMENT_3D ( 'NONE', #62, #121, #17 ) ;
#151 = DIRECTION ( 'NONE',  ( 0.0000000000000000000, 0.0000000000000000000, -1.000000000000000000 ) ) ;
#152 = EDGE_CURVE ( 'NONE', #142, #294, #15, .T. ) ;
#153 = ORIENTED_EDGE ( 'NONE', *, *, #19, .T. ) ;
#154 =( GEOMETRIC_REPRESENTATION_CONTEXT ( 3 ) GLOBAL_UNCERTAINTY_ASSIGNED_CONTEXT ( ( #94 ) ) GLOBAL_UNIT_ASSIGNED_CONTEXT ( ( #155, #134, #227 ) ) REPRESENTATION_CONTEXT ( 'NONE', 'WORKASPACE' ) );
#155 =( CONVERSION_BASED_UNIT ( 'INCH', #176 ) LENGTH_UNIT ( ) NAMED_UNIT ( #118 ) );
#156 = ORIENTED_EDGE ( 'NONE', *, *, #52, .F. ) ;
#157 = VERTEX_POINT ( 'NONE', #95 ) ;
#158 = DIRECTION ( 'NONE',  ( 1.000000000000000000, 0.0000000000000000000, -0.0000000000000000000 ) ) ;
#159 = EDGE_LOOP ( 'NONE', ( #204, #68, #85, #290 ) ) ;
#160 = CARTESIAN_POINT ( 'NONE',  ( 0.0000000000000000000, 0.0000000000000000000, 0.0000000000000000000 ) ) ;
#161 = ORIENTED_EDGE ( 'NONE', *, *, #22, .F. ) ;
#162 = DIRECTION ( 'NONE',  ( -1.000000000000000000, 0.0000000000000000000, 1.224646799147353454E-16 ) ) ;
#163 = EDGE_LOOP ( 'NONE', ( #186, #233, #113, #183 ) ) ;
#164 = CARTESIAN_POINT ( 'NONE',  ( -0.06250000000000000000, 0.0000000000000000000, 1.500000000000000222 ) ) ;
#165 = DIRECTION ( 'NONE',  ( -1.224646799147353454E-16, -0.0000000000000000000, -1.000000000000000000 ) ) ;
#166 = CARTESIAN_POINT ( 'NONE',  ( 0.04750000000000064587, 6.735557395310482421E-18, 1.500000000000000222 ) ) ;
#167 = ADVANCED_FACE ( 'NONE', ( #277 ), #72, .T. ) ;
#168 = CARTESIAN_POINT ( 'NONE',  ( 0.0000000000000000000, 0.0000000000000000000, 1.485000000000000764 ) ) ;
#169 = CARTESIAN_POINT ( 'NONE',  ( 7.026839507303431300E-34, 0.0000000000000000000, 5.737849894513086668E-18 ) ) ;
#170 = MECHANICAL_DESIGN_GEOMETRIC_PRESENTATION_REPRESENTATION (  '', ( #147 ), #75 ) ;
#171 = UNCERTAINTY_MEASURE_WITH_UNIT (LENGTH_MEASURE( 1.000000000000000082E-05 ), #264, 'distance_accuracy_value', 'NONE');
#172 = FILL_AREA_STYLE_COLOUR ( '', #229 ) ;
#173 = DIRECTION ( 'NONE',  ( -0.0000000000000000000, -0.0000000000000000000, -1.000000000000000000 ) ) ;
#174 = PRODUCT_DEFINITION_SHAPE ( 'NONE', 'NONE',  #46 ) ;
#175 = CARTESIAN_POINT ( 'NONE',  ( 3.389062808013151311E-17, 0.0000000000000000000, 0.2767379795033758083 ) ) ;
#176 = LENGTH_MEASURE_WITH_UNIT ( LENGTH_MEASURE( 0.02539999999999999897 ), #228 );
#177 = VECTOR ( 'NONE', #59, 39.37007874015748143 ) ;
#178 = EDGE_CURVE ( 'NONE', #142, #236, #64, .T. ) ;
#179 = ORIENTED_EDGE ( 'NONE', *, *, #152, .F. ) ;
#180 = AXIS2_PLACEMENT_3D ( 'NONE', #74, #151, #219 ) ;
#181 = PRESENTATION_LAYER_ASSIGNMENT (  '', '', ( #196 ) ) ;
#182 = VERTEX_POINT ( 'NONE', #26 ) ;
#183 = ORIENTED_EDGE ( 'NONE', *, *, #189, .F. ) ;
#184 = VECTOR ( 'NONE', #116, 39.37007874015748143 ) ;
#185 = DIRECTION ( 'NONE',  ( 1.000000000000000000, 0.0000000000000000000, 0.0000000000000000000 ) ) ;
#186 = ORIENTED_EDGE ( 'NONE', *, *, #77, .F. ) ;
#187 = EDGE_CURVE ( 'NONE', #182, #231, #246, .T. ) ;
#188 = DIRECTION ( 'NONE',  ( -1.000000000000000000, 0.0000000000000000000, 0.0000000000000000000 ) ) ;
#189 = EDGE_CURVE ( 'NONE', #109, #294, #225, .T. ) ;
#190 = VERTEX_POINT ( 'NONE', #197 ) ;
#191 =( GEOMETRIC_REPRESENTATION_CONTEXT ( 3 ) GLOBAL_UNCERTAINTY_ASSIGNED_CONTEXT ( ( #171 ) ) GLOBAL_UNIT_ASSIGNED_CONTEXT ( ( #264, #226, #110 ) ) REPRESENTATION_CONTEXT ( 'NONE', 'WORKASPACE' ) );
#192 = FACE_OUTER_BOUND ( 'NONE', #163, .T. ) ;
#193 = AXIS2_PLACEMENT_3D ( 'NONE', #160, #251, #297 ) ;
#194 = CARTESIAN_POINT ( 'NONE',  ( -0.04750000000000064587, 0.0000000000000000000, 1.500000000000000222 ) ) ;
#195 = ADVANCED_FACE ( 'NONE', ( #260 ), #287, .T. ) ;
#196 = STYLED_ITEM ( 'NONE', ( #57 ), #81 ) ;
#197 = CARTESIAN_POINT ( 'NONE',  ( 0.06250000000000002776, 7.654042494670959086E-18, 0.2767379795033758083 ) ) ;
#198 = DIRECTION ( 'NONE',  ( -0.1736481776669312194, 2.126576849575783625E-17, 0.9848077530122080203 ) ) ;
#199 = AXIS2_PLACEMENT_3D ( 'NONE', #45, #2, #162 ) ;
#200 = DIRECTION ( 'NONE',  ( -1.000000000000000000, 0.0000000000000000000, 1.224646799147353454E-16 ) ) ;
#201 =( LENGTH_UNIT ( ) NAMED_UNIT ( * ) SI_UNIT ( $, .METRE. ) );
#202 = ADVANCED_FACE ( 'NONE', ( #49 ), #47, .T. ) ;
#203 = AXIS2_PLACEMENT_3D ( 'NONE', #256, #165, #239 ) ;
#204 = ORIENTED_EDGE ( 'NONE', *, *, #286, .F. ) ;
#205 = CLOSED_SHELL ( 'NONE', ( #167, #44, #195, #202, #128, #107, #148, #29, #130, #89 ) ) ;
#206 = APPLICATION_PROTOCOL_DEFINITION ( 'draft international standard', 'automotive_design', 1998, #224 ) ;
#207 = DIRECTION ( 'NONE',  ( 1.000000000000000000, 0.0000000000000000000, 0.0000000000000000000 ) ) ;
#208 = ORIENTED_EDGE ( 'NONE', *, *, #22, .T. ) ;
#209 = FACE_OUTER_BOUND ( 'NONE', #140, .T. ) ;
#210 = EDGE_LOOP ( 'NONE', ( #248, #86 ) ) ;
#211 = DIRECTION ( 'NONE',  ( 0.0000000000000000000, 0.0000000000000000000, 1.000000000000000000 ) ) ;
#212 = VERTEX_POINT ( 'NONE', #279 ) ;
#213 = EDGE_CURVE ( 'NONE', #294, #109, #278, .T. ) ;
#214 = FACE_OUTER_BOUND ( 'NONE', #159, .T. ) ;
#215 = DIRECTION ( 'NONE',  ( -0.7071067811865456854, 0.0000000000000000000, -0.7071067811865493491 ) ) ;
#216 = AXIS2_PLACEMENT_3D ( 'NONE', #291, #88, #185 ) ;
#217 = LINE ( 'NONE', #40, #258 ) ;
#218 = LENGTH_MEASURE_WITH_UNIT ( LENGTH_MEASURE( 0.02539999999999999897 ), #201 );
#219 = DIRECTION ( 'NONE',  ( -1.000000000000000000, 0.0000000000000000000, 0.0000000000000000000 ) ) ;
#220 = CARTESIAN_POINT ( 'NONE',  ( 0.04685310000000000169, 5.737849894513085128E-18, -5.737849894513086668E-18 ) ) ;
#221 = CIRCLE ( 'NONE', #133, 0.06250000000000000000 ) ;
#222 = LINE ( 'NONE', #124, #238 ) ;
#223 = EDGE_LOOP ( 'NONE', ( #132, #13, #90, #179 ) ) ;
#224 = APPLICATION_CONTEXT ( 'automotive_design' ) ;
#225 = CIRCLE ( 'NONE', #42, 0.06250000000000000000 ) ;
#226 =( NAMED_UNIT ( * ) PLANE_ANGLE_UNIT ( ) SI_UNIT ( $, .RADIAN. ) );
#227 =( NAMED_UNIT ( * ) SI_UNIT ( $, .STERADIAN. ) SOLID_ANGLE_UNIT ( ) );
#228 =( LENGTH_UNIT ( ) NAMED_UNIT ( * ) SI_UNIT ( $, .METRE. ) );
#229 = COLOUR_RGB ( '',0.7921568627450980005, 0.8196078431372548767, 0.9333333333333333481 ) ;
#230 = ORIENTED_EDGE ( 'NONE', *, *, #39, .F. ) ;
#231 = VERTEX_POINT ( 'NONE', #27 ) ;
#232 = PLANE ( 'NONE',  #111 ) ;
#233 = ORIENTED_EDGE ( 'NONE', *, *, #178, .F. ) ;
#234 = CARTESIAN_POINT ( 'NONE',  ( -0.04685309999999998087, 6.695946194592021721E-18, 0.1880000000000000282 ) ) ;
#235 = DIMENSIONAL_EXPONENTS ( 1.000000000000000000, 0.0000000000000000000, 0.0000000000000000000, 0.0000000000000000000, 0.0000000000000000000, 0.0000000000000000000, 0.0000000000000000000 ) ;
#236 = VERTEX_POINT ( 'NONE', #166 ) ;
#237 = CARTESIAN_POINT ( 'NONE',  ( 0.0000000000000000000, 0.0000000000000000000, 1.500000000000000222 ) ) ;
#238 = VECTOR ( 'NONE', #198, 39.37007874015747433 ) ;
#239 = DIRECTION ( 'NONE',  ( -1.000000000000000000, 0.0000000000000000000, 1.224646799147353454E-16 ) ) ;
#240 = COLOUR_RGB ( '',0.7921568627450980005, 0.8196078431372548767, 0.9333333333333333481 ) ;
#241 = DIRECTION ( 'NONE',  ( 0.0000000000000000000, 0.0000000000000000000, 1.000000000000000000 ) ) ;
#242 = MANIFOLD_SOLID_BREP ( 'Cut-Revolve1', #205 ) ;
#243 = FILL_AREA_STYLE ('',( #267 ) ) ;
#244 = PRODUCT ( 'Micro_SEM-093-03', 'Micro_SEM-093-03', '', ( #79 ) ) ;
#245 = ORIENTED_EDGE ( 'NONE', *, *, #187, .T. ) ;
#246 = CIRCLE ( 'NONE', #122, 0.04685310000000000169 ) ;
#247 = DIRECTION ( 'NONE',  ( 1.000000000000000000, 0.0000000000000000000, -0.0000000000000000000 ) ) ;
#248 = ORIENTED_EDGE ( 'NONE', *, *, #178, .T. ) ;
#249 = CARTESIAN_POINT ( 'NONE',  ( 0.06250000000000000000, 7.654042494670956004E-18, 1.485000000000000764 ) ) ;
#250 = ORIENTED_EDGE ( 'NONE', *, *, #286, .T. ) ;
#251 = DIRECTION ( 'NONE',  ( -1.224646799147353454E-16, -0.0000000000000000000, -1.000000000000000000 ) ) ;
#252 = ORIENTED_EDGE ( 'NONE', *, *, #52, .T. ) ;
#253 = DIMENSIONAL_EXPONENTS ( 1.000000000000000000, 0.0000000000000000000, 0.0000000000000000000, 0.0000000000000000000, 0.0000000000000000000, 0.0000000000000000000, 0.0000000000000000000 ) ;
#254 = AXIS2_PLACEMENT_3D ( 'NONE', #255, #43, #188 ) ;
#255 = CARTESIAN_POINT ( 'NONE',  ( 0.0000000000000000000, 0.0000000000000000000, 1.500000000000000222 ) ) ;
#256 = CARTESIAN_POINT ( 'NONE',  ( 0.0000000000000000000, 0.0000000000000000000, 0.0000000000000000000 ) ) ;
#257 = LENGTH_MEASURE_WITH_UNIT ( LENGTH_MEASURE( 0.02539999999999999897 ), #131 );
#258 = VECTOR ( 'NONE', #97, 39.37007874015748143 ) ;
#259 =( CONVERSION_BASED_UNIT ( 'INCH', #218 ) LENGTH_UNIT ( ) NAMED_UNIT ( #253 ) );
#260 = FACE_OUTER_BOUND ( 'NONE', #223, .T. ) ;
#261 = CARTESIAN_POINT ( 'NONE',  ( 0.0000000000000000000, 0.0000000000000000000, 1.485000000000000764 ) ) ;
#262 = AXIS2_PLACEMENT_3D ( 'NONE', #137, #21, #120 ) ;
#263 = AXIS2_PLACEMENT_3D ( 'NONE', #168, #50, #98 ) ;
#264 =( CONVERSION_BASED_UNIT ( 'INCH', #257 ) LENGTH_UNIT ( ) NAMED_UNIT ( #235 ) );
#265 = CIRCLE ( 'NONE', #281, 0.06250000000000000000 ) ;
#266 = DIRECTION ( 'NONE',  ( -1.224646799147353454E-16, -0.0000000000000000000, -1.000000000000000000 ) ) ;
#267 = FILL_AREA_STYLE_COLOUR ( '', #240 ) ;
#268 = EDGE_CURVE ( 'NONE', #236, #142, #61, .T. ) ;
#269 = ORIENTED_EDGE ( 'NONE', *, *, #295, .F. ) ;
#270 = FACE_OUTER_BOUND ( 'NONE', #210, .T. ) ;
#271 = ORIENTED_EDGE ( 'NONE', *, *, #14, .T. ) ;
#272 = CARTESIAN_POINT ( 'NONE',  ( 3.389062808013151311E-17, 0.0000000000000000000, 0.2767379795033758083 ) ) ;
#273 = PRESENTATION_LAYER_ASSIGNMENT (  '', '', ( #147 ) ) ;
#274 = EDGE_LOOP ( 'NONE', ( #63, #250, #115, #41 ) ) ;
#275 = CARTESIAN_POINT ( 'NONE',  ( 0.04685310000000002945, 0.0000000000000000000, 0.1880000000000000282 ) ) ;
#276 = DIRECTION ( 'NONE',  ( 1.000000000000000000, 0.0000000000000000000, 0.0000000000000000000 ) ) ;
#277 = FACE_OUTER_BOUND ( 'NONE', #16, .T. ) ;
#278 = CIRCLE ( 'NONE', #263, 0.06250000000000000000 ) ;
#279 = CARTESIAN_POINT ( 'NONE',  ( -0.06249999999999996531, 0.0000000000000000000, 0.2767379795033758083 ) ) ;
#280 = EDGE_CURVE ( 'NONE', #92, #212, #222, .T. ) ;
#281 = AXIS2_PLACEMENT_3D ( 'NONE', #175, #266, #207 ) ;
#282 = CARTESIAN_POINT ( 'NONE',  ( 0.06250000000000000000, 7.654042494670956004E-18, 1.500000000000000222 ) ) ;
#283 = AXIS2_PLACEMENT_3D ( 'NONE', #65, #67, #276 ) ;
#284 = SURFACE_SIDE_STYLE ('',( #11 ) ) ;
#285 = SURFACE_STYLE_USAGE ( .BOTH. , #284 ) ;
#286 = EDGE_CURVE ( 'NONE', #109, #190, #126, .T. ) ;
#287 = CONICAL_SURFACE ( 'NONE', #180, 0.04750000000000064587, 0.7853981633974457255 ) ;
#288 = APPLICATION_PROTOCOL_DEFINITION ( 'draft international standard', 'automotive_design', 1998, #125 ) ;
#289 = FACE_OUTER_BOUND ( 'NONE', #38, .T. ) ;
#290 = ORIENTED_EDGE ( 'NONE', *, *, #19, .F. ) ;
#291 = CARTESIAN_POINT ( 'NONE',  ( 0.0000000000000000000, 0.0000000000000000000, 1.500000000000000222 ) ) ;
#292 = ORIENTED_EDGE ( 'NONE', *, *, #73, .F. ) ;
#293 = LINE ( 'NONE', #164, #58 ) ;
#294 = VERTEX_POINT ( 'NONE', #145 ) ;
#295 = EDGE_CURVE ( 'NONE', #157, #182, #3, .T. ) ;
#296 = UNCERTAINTY_MEASURE_WITH_UNIT (LENGTH_MEASURE( 1.000000000000000082E-05 ), #259, 'distance_accuracy_value', 'NONE');
#297 = DIRECTION ( 'NONE',  ( -1.000000000000000000, 0.0000000000000000000, 1.224646799147353454E-16 ) ) ;
#298 = AXIS2_PLACEMENT_3D ( 'NONE', #28, #241, #7 ) ;
#299 = FACE_OUTER_BOUND ( 'NONE', #66, .T. ) ;
ENDSEC;
END-ISO-10303-21;
