ISO-10303-21;
HEADER;
FILE_DESCRIPTION (( 'STEP AP214' ),
    '1' );
FILE_NAME ('Micro_GEM-281-2.STEP',
    '2021-09-01T20:21:55',
    ( '' ),
    ( '' ),
    'SwSTEP 2.0',
    'SolidWorks 2020',
    '' );
FILE_SCHEMA (( 'AUTOMOTIVE_DESIGN' ));
ENDSEC;

DATA;
#1 = CARTESIAN_POINT ( 'NONE',  ( -0.1404593999999999288, 1.816821084934658389E-17, 0.7500000000000001110 ) ) ;
#2 = EDGE_CURVE ( 'NONE', #98, #285, #12, .T. ) ;
#3 = CARTESIAN_POINT ( 'NONE',  ( 9.184850993605150903E-17, 0.0000000000000000000, 0.7500000000000001110 ) ) ;
#4 = DIRECTION ( 'NONE',  ( -1.000000000000000000, 0.0000000000000000000, 0.0000000000000000000 ) ) ;
#5 = EDGE_CURVE ( 'NONE', #208, #30, #261, .T. ) ;
#6 = ORIENTED_EDGE ( 'NONE', *, *, #116, .T. ) ;
#7 = ORIENTED_EDGE ( 'NONE', *, *, #209, .T. ) ;
#8 = DIRECTION ( 'NONE',  ( 0.0000000000000000000, 0.0000000000000000000, 1.000000000000000000 ) ) ;
#9 = ORIENTED_EDGE ( 'NONE', *, *, #64, .T. ) ;
#10 = PRODUCT_DEFINITION ( 'UNKNOWN', '', #256, #82 ) ;
#11 =( NAMED_UNIT ( * ) PLANE_ANGLE_UNIT ( ) SI_UNIT ( $, .RADIAN. ) );
#12 = LINE ( 'NONE', #179, #197 ) ;
#13 =( NAMED_UNIT ( * ) SI_UNIT ( $, .STERADIAN. ) SOLID_ANGLE_UNIT ( ) );
#14 = DIRECTION ( 'NONE',  ( 1.000000000000000000, 0.0000000000000000000, 0.0000000000000000000 ) ) ;
#15 = SURFACE_SIDE_STYLE ('',( #211 ) ) ;
#16 = ADVANCED_FACE ( 'NONE', ( #228 ), #143, .T. ) ;
#17 = DIRECTION ( 'NONE',  ( -1.000000000000000000, 0.0000000000000000000, 1.224646799147353207E-16 ) ) ;
#18 = CARTESIAN_POINT ( 'NONE',  ( 2.106553592168149428E-33, 0.0000000000000000000, 1.720131546201577623E-17 ) ) ;
#19 = VECTOR ( 'NONE', #192, 39.37007874015748854 ) ;
#20 = APPLICATION_CONTEXT ( 'automotive_design' ) ;
#21 = FILL_AREA_STYLE ('',( #237 ) ) ;
#22 = AXIS2_PLACEMENT_3D ( 'NONE', #199, #196, #52 ) ;
#23 = UNCERTAINTY_MEASURE_WITH_UNIT (LENGTH_MEASURE( 1.000000000000000082E-05 ), #146, 'distance_accuracy_value', 'NONE');
#24 = PLANE ( 'NONE',  #60 ) ;
#25 = LINE ( 'NONE', #219, #269 ) ;
#26 = PRESENTATION_LAYER_ASSIGNMENT (  '', '', ( #168 ) ) ;
#27 = FACE_OUTER_BOUND ( 'NONE', #104, .T. ) ;
#28 =( GEOMETRIC_REPRESENTATION_CONTEXT ( 3 ) GLOBAL_UNCERTAINTY_ASSIGNED_CONTEXT ( ( #23 ) ) GLOBAL_UNIT_ASSIGNED_CONTEXT ( ( #146, #138, #114 ) ) REPRESENTATION_CONTEXT ( 'NONE', 'WORKASPACE' ) );
#29 = ADVANCED_FACE ( 'NONE', ( #41 ), #296, .F. ) ;
#30 = VERTEX_POINT ( 'NONE', #141 ) ;
#31 = ORIENTED_EDGE ( 'NONE', *, *, #124, .T. ) ;
#32 = ADVANCED_FACE ( 'NONE', ( #236 ), #63, .T. ) ;
#33 = ORIENTED_EDGE ( 'NONE', *, *, #154, .F. ) ;
#34 = AXIS2_PLACEMENT_3D ( 'NONE', #91, #89, #294 ) ;
#35 = ORIENTED_EDGE ( 'NONE', *, *, #5, .T. ) ;
#36 = EDGE_LOOP ( 'NONE', ( #176, #7, #85, #156 ) ) ;
#37 = DIRECTION ( 'NONE',  ( 0.0000000000000000000, 0.0000000000000000000, -1.000000000000000000 ) ) ;
#38 = EDGE_CURVE ( 'NONE', #87, #128, #130, .T. ) ;
#39 = AXIS2_PLACEMENT_3D ( 'NONE', #164, #270, #92 ) ;
#40 = CARTESIAN_POINT ( 'NONE',  ( 0.0000000000000000000, 0.0000000000000000000, 0.0000000000000000000 ) ) ;
#41 = FACE_OUTER_BOUND ( 'NONE', #262, .T. ) ;
#42 = DIRECTION ( 'NONE',  ( -1.000000000000000000, 0.0000000000000000000, 1.224646799147353207E-16 ) ) ;
#43 = EDGE_CURVE ( 'NONE', #204, #282, #67, .T. ) ;
#44 = AXIS2_PLACEMENT_3D ( 'NONE', #185, #140, #189 ) ;
#45 = CARTESIAN_POINT ( 'NONE',  ( 0.0000000000000000000, 0.0000000000000000000, 0.0000000000000000000 ) ) ;
#46 = EDGE_CURVE ( 'NONE', #285, #87, #253, .T. ) ;
#47 = CARTESIAN_POINT ( 'NONE',  ( 0.1404594000000000953, 0.0000000000000000000, 0.7500000000000001110 ) ) ;
#48 = DIMENSIONAL_EXPONENTS ( 1.000000000000000000, 0.0000000000000000000, 0.0000000000000000000, 0.0000000000000000000, 0.0000000000000000000, 0.0000000000000000000, 0.0000000000000000000 ) ;
#49 = PRESENTATION_LAYER_ASSIGNMENT (  '', '', ( #118 ) ) ;
#50 = CIRCLE ( 'NONE', #96, 0.1404594000000000120 ) ;
#51 = CARTESIAN_POINT ( 'NONE',  ( -0.1412499999999994871, 0.0000000000000000000, 2.500000000000000000 ) ) ;
#52 = DIRECTION ( 'NONE',  ( 1.000000000000000000, 0.0000000000000000000, 0.0000000000000000000 ) ) ;
#53 = ORIENTED_EDGE ( 'NONE', *, *, #139, .T. ) ;
#54 = EDGE_LOOP ( 'NONE', ( #288, #31, #206, #33 ) ) ;
#55 = EDGE_CURVE ( 'NONE', #285, #203, #121, .T. ) ;
#56 =( CONVERSION_BASED_UNIT ( 'INCH', #84 ) LENGTH_UNIT ( ) NAMED_UNIT ( #77 ) );
#57 = ORIENTED_EDGE ( 'NONE', *, *, #38, .F. ) ;
#58 = ORIENTED_EDGE ( 'NONE', *, *, #76, .T. ) ;
#59 = AXIS2_PLACEMENT_3D ( 'NONE', #40, #137, #17 ) ;
#60 = AXIS2_PLACEMENT_3D ( 'NONE', #299, #166, #249 ) ;
#61 = ORIENTED_EDGE ( 'NONE', *, *, #102, .T. ) ;
#62 = APPLICATION_CONTEXT ( 'automotive_design' ) ;
#63 = CYLINDRICAL_SURFACE ( 'NONE', #221, 0.1562500000000000000 ) ;
#64 = EDGE_CURVE ( 'NONE', #289, #203, #71, .T. ) ;
#65 = DIRECTION ( 'NONE',  ( -1.224646799147353207E-16, -0.0000000000000000000, -1.000000000000000000 ) ) ;
#66 = DIRECTION ( 'NONE',  ( -1.224646799147353207E-16, -0.0000000000000000000, -1.000000000000000000 ) ) ;
#67 = CIRCLE ( 'NONE', #39, 0.1404594000000000120 ) ;
#68 = MECHANICAL_DESIGN_GEOMETRIC_PRESENTATION_REPRESENTATION (  '', ( #168 ), #75 ) ;
#69 = CARTESIAN_POINT ( 'NONE',  ( 0.0000000000000000000, 0.0000000000000000000, 2.484999999999999432 ) ) ;
#70 = EDGE_CURVE ( 'NONE', #128, #87, #103, .T. ) ;
#71 = LINE ( 'NONE', #251, #19 ) ;
#72 = CARTESIAN_POINT ( 'NONE',  ( 0.0000000000000000000, 0.0000000000000000000, 0.0000000000000000000 ) ) ;
#73 = FACE_OUTER_BOUND ( 'NONE', #133, .T. ) ;
#74 = CARTESIAN_POINT ( 'NONE',  ( 0.1404594000000000953, 0.0000000000000000000, 0.7500000000000001110 ) ) ;
#75 =( GEOMETRIC_REPRESENTATION_CONTEXT ( 3 ) GLOBAL_UNCERTAINTY_ASSIGNED_CONTEXT ( ( #274 ) ) GLOBAL_UNIT_ASSIGNED_CONTEXT ( ( #181, #163, #132 ) ) REPRESENTATION_CONTEXT ( 'NONE', 'WORKASPACE' ) );
#76 = EDGE_CURVE ( 'NONE', #289, #98, #268, .T. ) ;
#77 = DIMENSIONAL_EXPONENTS ( 1.000000000000000000, 0.0000000000000000000, 0.0000000000000000000, 0.0000000000000000000, 0.0000000000000000000, 0.0000000000000000000, 0.0000000000000000000 ) ;
#78 = ADVANCED_FACE ( 'NONE', ( #264 ), #263, .T. ) ;
#79 = DIRECTION ( 'NONE',  ( 1.224646799147353207E-16, 0.0000000000000000000, 1.000000000000000000 ) ) ;
#80 = ORIENTED_EDGE ( 'NONE', *, *, #229, .T. ) ;
#81 = ORIENTED_EDGE ( 'NONE', *, *, #266, .F. ) ;
#82 = PRODUCT_DEFINITION_CONTEXT ( 'detailed design', #62, 'design' ) ;
#83 = EDGE_LOOP ( 'NONE', ( #123, #81, #80, #225 ) ) ;
#84 = LENGTH_MEASURE_WITH_UNIT ( LENGTH_MEASURE( 0.02539999999999999897 ), #200 );
#85 = ORIENTED_EDGE ( 'NONE', *, *, #70, .T. ) ;
#86 =( LENGTH_UNIT ( ) NAMED_UNIT ( * ) SI_UNIT ( $, .METRE. ) );
#87 = VERTEX_POINT ( 'NONE', #165 ) ;
#88 = DIRECTION ( 'NONE',  ( 1.000000000000000000, 0.0000000000000000000, -0.0000000000000000000 ) ) ;
#89 = DIRECTION ( 'NONE',  ( 0.0000000000000000000, 0.0000000000000000000, -1.000000000000000000 ) ) ;
#90 = DIRECTION ( 'NONE',  ( -0.0000000000000000000, -0.0000000000000000000, -1.000000000000000000 ) ) ;
#91 = CARTESIAN_POINT ( 'NONE',  ( 0.0000000000000000000, 0.0000000000000000000, 2.484999999999999432 ) ) ;
#92 = DIRECTION ( 'NONE',  ( -1.000000000000000000, 0.0000000000000000000, 0.0000000000000000000 ) ) ;
#93 = DIRECTION ( 'NONE',  ( -0.1736481776669311083, 2.126576849575782084E-17, 0.9848077530122080203 ) ) ;
#94 = DIRECTION ( 'NONE',  ( 1.000000000000000000, 0.0000000000000000000, 0.0000000000000000000 ) ) ;
#95 = VECTOR ( 'NONE', #65, 39.37007874015748143 ) ;
#96 = AXIS2_PLACEMENT_3D ( 'NONE', #254, #173, #145 ) ;
#97 = LINE ( 'NONE', #279, #194 ) ;
#98 = VERTEX_POINT ( 'NONE', #235 ) ;
#99 = SURFACE_SIDE_STYLE ('',( #155 ) ) ;
#100 = ORIENTED_EDGE ( 'NONE', *, *, #55, .F. ) ;
#101 = ORIENTED_EDGE ( 'NONE', *, *, #46, .F. ) ;
#102 = EDGE_CURVE ( 'NONE', #203, #285, #291, .T. ) ;
#103 = CIRCLE ( 'NONE', #220, 0.1562500000000000000 ) ;
#104 = EDGE_LOOP ( 'NONE', ( #257, #258, #260, #243 ) ) ;
#105 = ORIENTED_EDGE ( 'NONE', *, *, #266, .T. ) ;
#106 = APPLICATION_PROTOCOL_DEFINITION ( 'draft international standard', 'automotive_design', 1998, #20 ) ;
#107 = FACE_OUTER_BOUND ( 'NONE', #54, .T. ) ;
#108 = CIRCLE ( 'NONE', #22, 0.1412499999999994871 ) ;
#109 = ADVANCED_BREP_SHAPE_REPRESENTATION ( 'Micro_GEM-281-2', ( #120, #215 ), #122 ) ;
#110 = PRESENTATION_STYLE_ASSIGNMENT (( #216 ) ) ;
#111 = DIRECTION ( 'NONE',  ( 1.224646799147353207E-16, 0.0000000000000000000, 1.000000000000000000 ) ) ;
#112 = ADVANCED_FACE ( 'NONE', ( #107 ), #248, .T. ) ;
#113 = DIRECTION ( 'NONE',  ( -0.0000000000000000000, -0.0000000000000000000, -1.000000000000000000 ) ) ;
#114 =( NAMED_UNIT ( * ) SI_UNIT ( $, .STERADIAN. ) SOLID_ANGLE_UNIT ( ) );
#115 = LENGTH_MEASURE_WITH_UNIT ( LENGTH_MEASURE( 0.02539999999999999897 ), #169 );
#116 = EDGE_CURVE ( 'NONE', #30, #208, #250, .T. ) ;
#117 = CARTESIAN_POINT ( 'NONE',  ( 0.0000000000000000000, 0.0000000000000000000, 2.500000000000000000 ) ) ;
#118 = STYLED_ITEM ( 'NONE', ( #110 ), #120 ) ;
#119 = DIMENSIONAL_EXPONENTS ( 1.000000000000000000, 0.0000000000000000000, 0.0000000000000000000, 0.0000000000000000000, 0.0000000000000000000, 0.0000000000000000000, 0.0000000000000000000 ) ;
#120 = MANIFOLD_SOLID_BREP ( 'Cut-Revolve1', #157 ) ;
#121 = CIRCLE ( 'NONE', #34, 0.1562500000000000000 ) ;
#122 =( GEOMETRIC_REPRESENTATION_CONTEXT ( 3 ) GLOBAL_UNCERTAINTY_ASSIGNED_CONTEXT ( ( #125 ) ) GLOBAL_UNIT_ASSIGNED_CONTEXT ( ( #56, #11, #13 ) ) REPRESENTATION_CONTEXT ( 'NONE', 'WORKASPACE' ) );
#123 = ORIENTED_EDGE ( 'NONE', *, *, #209, .F. ) ;
#124 = EDGE_CURVE ( 'NONE', #282, #30, #142, .T. ) ;
#125 = UNCERTAINTY_MEASURE_WITH_UNIT (LENGTH_MEASURE( 1.000000000000000082E-05 ), #56, 'distance_accuracy_value', 'NONE');
#126 = ORIENTED_EDGE ( 'NONE', *, *, #55, .T. ) ;
#127 = LENGTH_MEASURE_WITH_UNIT ( LENGTH_MEASURE( 0.02539999999999999897 ), #86 );
#128 = VERTEX_POINT ( 'NONE', #193 ) ;
#129 = ADVANCED_FACE ( 'NONE', ( #217 ), #277, .T. ) ;
#130 = CIRCLE ( 'NONE', #255, 0.1562500000000000000 ) ;
#131 = CONICAL_SURFACE ( 'NONE', #287, 0.1404594000000000120, 0.1745329251994338082 ) ;
#132 =( NAMED_UNIT ( * ) SI_UNIT ( $, .STERADIAN. ) SOLID_ANGLE_UNIT ( ) );
#133 = EDGE_LOOP ( 'NONE', ( #58, #158 ) ) ;
#134 = PRODUCT_RELATED_PRODUCT_CATEGORY ( 'part', '', ( #195 ) ) ;
#135 = DIRECTION ( 'NONE',  ( 1.000000000000000000, 0.0000000000000000000, 0.0000000000000000000 ) ) ;
#136 = EDGE_LOOP ( 'NONE', ( #231, #162, #9, #100 ) ) ;
#137 = DIRECTION ( 'NONE',  ( -1.224646799147353207E-16, -0.0000000000000000000, -1.000000000000000000 ) ) ;
#138 =( NAMED_UNIT ( * ) PLANE_ANGLE_UNIT ( ) SI_UNIT ( $, .RADIAN. ) );
#139 = EDGE_CURVE ( 'NONE', #203, #128, #97, .T. ) ;
#140 = DIRECTION ( 'NONE',  ( 0.0000000000000000000, 0.0000000000000000000, 1.000000000000000000 ) ) ;
#141 = CARTESIAN_POINT ( 'NONE',  ( 0.1404594000000000120, 1.720131546201577623E-17, 0.0000000000000000000 ) ) ;
#142 = LINE ( 'NONE', #187, #238 ) ;
#143 = CONICAL_SURFACE ( 'NONE', #295, 0.1404594000000000120, 0.1745329251994338082 ) ;
#144 = CARTESIAN_POINT ( 'NONE',  ( 0.0000000000000000000, 0.0000000000000000000, 2.500000000000000000 ) ) ;
#145 = DIRECTION ( 'NONE',  ( -1.000000000000000000, 0.0000000000000000000, 0.0000000000000000000 ) ) ;
#146 =( CONVERSION_BASED_UNIT ( 'INCH', #115 ) LENGTH_UNIT ( ) NAMED_UNIT ( #48 ) );
#147 = CARTESIAN_POINT ( 'NONE',  ( 0.0000000000000000000, 0.0000000000000000000, 2.500000000000000000 ) ) ;
#148 = FACE_OUTER_BOUND ( 'NONE', #36, .T. ) ;
#149 = DIRECTION ( 'NONE',  ( 0.0000000000000000000, 0.0000000000000000000, -1.000000000000000000 ) ) ;
#150 = CARTESIAN_POINT ( 'NONE',  ( -0.1404594000000000120, 0.0000000000000000000, 3.440263092403155245E-17 ) ) ;
#151 = AXIS2_PLACEMENT_3D ( 'NONE', #117, #149, #223 ) ;
#152 = ORIENTED_EDGE ( 'NONE', *, *, #46, .T. ) ;
#153 = ORIENTED_EDGE ( 'NONE', *, *, #124, .F. ) ;
#154 = EDGE_CURVE ( 'NONE', #204, #208, #275, .T. ) ;
#155 = SURFACE_STYLE_FILL_AREA ( #207 ) ;
#156 = ORIENTED_EDGE ( 'NONE', *, *, #229, .F. ) ;
#157 = CLOSED_SHELL ( 'NONE', ( #112, #276, #272, #167, #32, #212, #129, #16, #78, #29 ) ) ;
#158 = ORIENTED_EDGE ( 'NONE', *, *, #205, .T. ) ;
#159 = DIRECTION ( 'NONE',  ( -1.000000000000000000, 0.0000000000000000000, 0.0000000000000000000 ) ) ;
#160 = AXIS2_PLACEMENT_3D ( 'NONE', #45, #66, #171 ) ;
#161 = FILL_AREA_STYLE_COLOUR ( '', #222 ) ;
#162 = ORIENTED_EDGE ( 'NONE', *, *, #76, .F. ) ;
#163 =( NAMED_UNIT ( * ) PLANE_ANGLE_UNIT ( ) SI_UNIT ( $, .RADIAN. ) );
#164 = CARTESIAN_POINT ( 'NONE',  ( 9.184850993605150903E-17, 0.0000000000000000000, 0.7500000000000001110 ) ) ;
#165 = CARTESIAN_POINT ( 'NONE',  ( 0.1562500000000001110, 1.913510623667740388E-17, 0.8395529427008548984 ) ) ;
#166 = DIRECTION ( 'NONE',  ( 0.0000000000000000000, 0.0000000000000000000, 1.000000000000000000 ) ) ;
#167 = ADVANCED_FACE ( 'NONE', ( #271 ), #188, .T. ) ;
#168 = STYLED_ITEM ( 'NONE', ( #177 ), #109 ) ;
#169 =( LENGTH_UNIT ( ) NAMED_UNIT ( * ) SI_UNIT ( $, .METRE. ) );
#170 = DIRECTION ( 'NONE',  ( -1.224646799147353207E-16, -0.0000000000000000000, -1.000000000000000000 ) ) ;
#171 = DIRECTION ( 'NONE',  ( -1.000000000000000000, 0.0000000000000000000, 1.224646799147353207E-16 ) ) ;
#172 = LINE ( 'NONE', #74, #174 ) ;
#173 = DIRECTION ( 'NONE',  ( -1.224646799147353207E-16, -0.0000000000000000000, -1.000000000000000000 ) ) ;
#174 = VECTOR ( 'NONE', #239, 39.37007874015748143 ) ;
#175 = CARTESIAN_POINT ( 'NONE',  ( 0.1562500000000000000, 1.913510623667739463E-17, 2.484999999999999432 ) ) ;
#176 = ORIENTED_EDGE ( 'NONE', *, *, #43, .F. ) ;
#177 = PRESENTATION_STYLE_ASSIGNMENT (( #184 ) ) ;
#178 = CARTESIAN_POINT ( 'NONE',  ( 2.106553592168149428E-33, 0.0000000000000000000, 1.720131546201577623E-17 ) ) ;
#179 = CARTESIAN_POINT ( 'NONE',  ( 0.1412499999999994871, 1.729813603795630110E-17, 2.500000000000000000 ) ) ;
#180 = DIRECTION ( 'NONE',  ( -1.224646799147353207E-16, -0.0000000000000000000, -1.000000000000000000 ) ) ;
#181 =( CONVERSION_BASED_UNIT ( 'INCH', #127 ) LENGTH_UNIT ( ) NAMED_UNIT ( #119 ) );
#182 = ORIENTED_EDGE ( 'NONE', *, *, #154, .T. ) ;
#183 = COLOUR_RGB ( '',0.7921568627450980005, 0.8196078431372548767, 0.9333333333333333481 ) ;
#184 = SURFACE_STYLE_USAGE ( .BOTH. , #99 ) ;
#185 = CARTESIAN_POINT ( 'NONE',  ( 0.0000000000000000000, 0.0000000000000000000, 2.500000000000000000 ) ) ;
#186 = DIRECTION ( 'NONE',  ( -1.224646799147353207E-16, -0.0000000000000000000, -1.000000000000000000 ) ) ;
#187 = CARTESIAN_POINT ( 'NONE',  ( 0.1404594000000000120, 1.720131546201577623E-17, -1.720131546201577623E-17 ) ) ;
#188 = CYLINDRICAL_SURFACE ( 'NONE', #198, 0.1562500000000000000 ) ;
#189 = DIRECTION ( 'NONE',  ( 1.000000000000000000, 0.0000000000000000000, 0.0000000000000000000 ) ) ;
#190 = AXIS2_PLACEMENT_3D ( 'NONE', #18, #234, #42 ) ;
#191 = CARTESIAN_POINT ( 'NONE',  ( 1.028155823993343290E-16, 0.0000000000000000000, 0.8395529427008548984 ) ) ;
#192 = DIRECTION ( 'NONE',  ( -0.7071067811865410224, 0.0000000000000000000, -0.7071067811865539010 ) ) ;
#193 = CARTESIAN_POINT ( 'NONE',  ( -0.1562499999999999167, 0.0000000000000000000, 0.8395529427008548984 ) ) ;
#194 = VECTOR ( 'NONE', #283, 39.37007874015748143 ) ;
#195 = PRODUCT ( 'Micro_GEM-281-2', 'Micro_GEM-281-2', '', ( #202 ) ) ;
#196 = DIRECTION ( 'NONE',  ( 0.0000000000000000000, 0.0000000000000000000, 1.000000000000000000 ) ) ;
#197 = VECTOR ( 'NONE', #290, 39.37007874015748854 ) ;
#198 = AXIS2_PLACEMENT_3D ( 'NONE', #232, #90, #159 ) ;
#199 = CARTESIAN_POINT ( 'NONE',  ( 0.0000000000000000000, 0.0000000000000000000, 2.500000000000000000 ) ) ;
#200 =( LENGTH_UNIT ( ) NAMED_UNIT ( * ) SI_UNIT ( $, .METRE. ) );
#201 = EDGE_LOOP ( 'NONE', ( #153, #105, #182, #246 ) ) ;
#202 = PRODUCT_CONTEXT ( 'NONE', #20, 'mechanical' ) ;
#203 = VERTEX_POINT ( 'NONE', #265 ) ;
#204 = VERTEX_POINT ( 'NONE', #1 ) ;
#205 = EDGE_CURVE ( 'NONE', #98, #289, #108, .T. ) ;
#206 = ORIENTED_EDGE ( 'NONE', *, *, #5, .F. ) ;
#207 = FILL_AREA_STYLE ('',( #161 ) ) ;
#208 = VERTEX_POINT ( 'NONE', #150 ) ;
#209 = EDGE_CURVE ( 'NONE', #204, #128, #25, .T. ) ;
#210 = DIRECTION ( 'NONE',  ( 0.0000000000000000000, 0.0000000000000000000, 1.000000000000000000 ) ) ;
#211 = SURFACE_STYLE_FILL_AREA ( #21 ) ;
#212 = ADVANCED_FACE ( 'NONE', ( #73 ), #24, .T. ) ;
#213 = DIRECTION ( 'NONE',  ( -0.0000000000000000000, -0.0000000000000000000, -1.000000000000000000 ) ) ;
#214 = PRODUCT_DEFINITION_SHAPE ( 'NONE', 'NONE',  #10 ) ;
#215 = AXIS2_PLACEMENT_3D ( 'NONE', #233, #8, #135 ) ;
#216 = SURFACE_STYLE_USAGE ( .BOTH. , #15 ) ;
#217 = FACE_OUTER_BOUND ( 'NONE', #136, .T. ) ;
#218 = CARTESIAN_POINT ( 'NONE',  ( -0.1404594000000000120, 0.0000000000000000000, 1.720131546201577623E-17 ) ) ;
#219 = CARTESIAN_POINT ( 'NONE',  ( -0.1404593999999999288, 1.720131546201577623E-17, 0.7500000000000001110 ) ) ;
#220 = AXIS2_PLACEMENT_3D ( 'NONE', #247, #170, #273 ) ;
#221 = AXIS2_PLACEMENT_3D ( 'NONE', #144, #213, #292 ) ;
#222 = COLOUR_RGB ( '',0.7921568627450980005, 0.8196078431372548767, 0.9333333333333333481 ) ;
#223 = DIRECTION ( 'NONE',  ( -1.000000000000000000, 0.0000000000000000000, 0.0000000000000000000 ) ) ;
#224 = EDGE_LOOP ( 'NONE', ( #61, #152, #242, #259 ) ) ;
#225 = ORIENTED_EDGE ( 'NONE', *, *, #38, .T. ) ;
#226 = MECHANICAL_DESIGN_GEOMETRIC_PRESENTATION_REPRESENTATION (  '', ( #118 ), #28 ) ;
#227 = EDGE_LOOP ( 'NONE', ( #101, #126, #53, #57 ) ) ;
#228 = FACE_OUTER_BOUND ( 'NONE', #83, .T. ) ;
#229 = EDGE_CURVE ( 'NONE', #282, #87, #172, .T. ) ;
#230 = APPLICATION_PROTOCOL_DEFINITION ( 'draft international standard', 'automotive_design', 1998, #62 ) ;
#231 = ORIENTED_EDGE ( 'NONE', *, *, #2, .F. ) ;
#232 = CARTESIAN_POINT ( 'NONE',  ( 0.0000000000000000000, 0.0000000000000000000, 2.500000000000000000 ) ) ;
#233 = CARTESIAN_POINT ( 'NONE',  ( 0.0000000000000000000, 0.0000000000000000000, 0.0000000000000000000 ) ) ;
#234 = DIRECTION ( 'NONE',  ( -1.224646799147353207E-16, -0.0000000000000000000, -1.000000000000000000 ) ) ;
#235 = CARTESIAN_POINT ( 'NONE',  ( 0.1412499999999994871, 1.821662113731684786E-17, 2.500000000000000000 ) ) ;
#236 = FACE_OUTER_BOUND ( 'NONE', #227, .T. ) ;
#237 = FILL_AREA_STYLE_COLOUR ( '', #183 ) ;
#238 = VECTOR ( 'NONE', #298, 39.37007874015748143 ) ;
#239 = DIRECTION ( 'NONE',  ( 0.1736481776669313026, 0.0000000000000000000, 0.9848077530122077983 ) ) ;
#240 = AXIS2_PLACEMENT_3D ( 'NONE', #178, #180, #245 ) ;
#241 = DIRECTION ( 'NONE',  ( 0.0000000000000000000, 0.0000000000000000000, -1.000000000000000000 ) ) ;
#242 = ORIENTED_EDGE ( 'NONE', *, *, #70, .F. ) ;
#243 = ORIENTED_EDGE ( 'NONE', *, *, #64, .F. ) ;
#244 = VECTOR ( 'NONE', #113, 39.37007874015748143 ) ;
#245 = DIRECTION ( 'NONE',  ( -1.000000000000000000, 0.0000000000000000000, 1.224646799147353207E-16 ) ) ;
#246 = ORIENTED_EDGE ( 'NONE', *, *, #116, .F. ) ;
#247 = CARTESIAN_POINT ( 'NONE',  ( 1.028155823993343290E-16, 0.0000000000000000000, 0.8395529427008548984 ) ) ;
#248 = CYLINDRICAL_SURFACE ( 'NONE', #59, 0.1404594000000000120 ) ;
#249 = DIRECTION ( 'NONE',  ( 1.000000000000000000, 0.0000000000000000000, -0.0000000000000000000 ) ) ;
#250 = CIRCLE ( 'NONE', #190, 0.1404594000000000120 ) ;
#251 = CARTESIAN_POINT ( 'NONE',  ( -0.1412499999999994871, 0.0000000000000000000, 2.500000000000000000 ) ) ;
#252 = CARTESIAN_POINT ( 'NONE',  ( 9.184850993605150903E-17, 0.0000000000000000000, 0.7500000000000001110 ) ) ;
#253 = LINE ( 'NONE', #293, #244 ) ;
#254 = CARTESIAN_POINT ( 'NONE',  ( 9.184850993605150903E-17, 0.0000000000000000000, 0.7500000000000001110 ) ) ;
#255 = AXIS2_PLACEMENT_3D ( 'NONE', #191, #186, #297 ) ;
#256 = PRODUCT_DEFINITION_FORMATION_WITH_SPECIFIED_SOURCE ( 'ANY', '', #195, .NOT_KNOWN. ) ;
#257 = ORIENTED_EDGE ( 'NONE', *, *, #205, .F. ) ;
#258 = ORIENTED_EDGE ( 'NONE', *, *, #2, .T. ) ;
#259 = ORIENTED_EDGE ( 'NONE', *, *, #139, .F. ) ;
#260 = ORIENTED_EDGE ( 'NONE', *, *, #102, .F. ) ;
#261 = CIRCLE ( 'NONE', #240, 0.1404594000000000120 ) ;
#262 = EDGE_LOOP ( 'NONE', ( #35, #6 ) ) ;
#263 = CYLINDRICAL_SURFACE ( 'NONE', #160, 0.1404594000000000120 ) ;
#264 = FACE_OUTER_BOUND ( 'NONE', #201, .T. ) ;
#265 = CARTESIAN_POINT ( 'NONE',  ( -0.1562500000000000000, 0.0000000000000000000, 2.484999999999999432 ) ) ;
#266 = EDGE_CURVE ( 'NONE', #282, #204, #50, .T. ) ;
#267 = DIRECTION ( 'NONE',  ( 1.000000000000000000, 0.0000000000000000000, 0.0000000000000000000 ) ) ;
#268 = CIRCLE ( 'NONE', #44, 0.1412499999999994871 ) ;
#269 = VECTOR ( 'NONE', #93, 39.37007874015747433 ) ;
#270 = DIRECTION ( 'NONE',  ( -1.224646799147353207E-16, -0.0000000000000000000, -1.000000000000000000 ) ) ;
#271 = FACE_OUTER_BOUND ( 'NONE', #224, .T. ) ;
#272 = ADVANCED_FACE ( 'NONE', ( #27 ), #278, .T. ) ;
#273 = DIRECTION ( 'NONE',  ( 1.000000000000000000, 0.0000000000000000000, 0.0000000000000000000 ) ) ;
#274 = UNCERTAINTY_MEASURE_WITH_UNIT (LENGTH_MEASURE( 1.000000000000000082E-05 ), #181, 'distance_accuracy_value', 'NONE');
#275 = LINE ( 'NONE', #218, #95 ) ;
#276 = ADVANCED_FACE ( 'NONE', ( #148 ), #131, .T. ) ;
#277 = CONICAL_SURFACE ( 'NONE', #151, 0.1412499999999994871, 0.7853981633974391752 ) ;
#278 = CONICAL_SURFACE ( 'NONE', #281, 0.1412499999999994871, 0.7853981633974391752 ) ;
#279 = CARTESIAN_POINT ( 'NONE',  ( -0.1562500000000000000, 0.0000000000000000000, 2.500000000000000000 ) ) ;
#280 = AXIS2_PLACEMENT_3D ( 'NONE', #72, #210, #88 ) ;
#281 = AXIS2_PLACEMENT_3D ( 'NONE', #147, #241, #4 ) ;
#282 = VERTEX_POINT ( 'NONE', #47 ) ;
#283 = DIRECTION ( 'NONE',  ( -0.0000000000000000000, -0.0000000000000000000, -1.000000000000000000 ) ) ;
#284 = SHAPE_DEFINITION_REPRESENTATION ( #214, #109 ) ;
#285 = VERTEX_POINT ( 'NONE', #175 ) ;
#286 = AXIS2_PLACEMENT_3D ( 'NONE', #69, #37, #14 ) ;
#287 = AXIS2_PLACEMENT_3D ( 'NONE', #3, #79, #94 ) ;
#288 = ORIENTED_EDGE ( 'NONE', *, *, #43, .T. ) ;
#289 = VERTEX_POINT ( 'NONE', #51 ) ;
#290 = DIRECTION ( 'NONE',  ( 0.7071067811865410224, 8.659560562354852739E-17, -0.7071067811865539010 ) ) ;
#291 = CIRCLE ( 'NONE', #286, 0.1562500000000000000 ) ;
#292 = DIRECTION ( 'NONE',  ( -1.000000000000000000, 0.0000000000000000000, 0.0000000000000000000 ) ) ;
#293 = CARTESIAN_POINT ( 'NONE',  ( 0.1562500000000000000, 1.913510623667739463E-17, 2.500000000000000000 ) ) ;
#294 = DIRECTION ( 'NONE',  ( 1.000000000000000000, 0.0000000000000000000, 0.0000000000000000000 ) ) ;
#295 = AXIS2_PLACEMENT_3D ( 'NONE', #252, #111, #267 ) ;
#296 = PLANE ( 'NONE',  #280 ) ;
#297 = DIRECTION ( 'NONE',  ( 1.000000000000000000, 0.0000000000000000000, 0.0000000000000000000 ) ) ;
#298 = DIRECTION ( 'NONE',  ( -1.224646799147353207E-16, -0.0000000000000000000, -1.000000000000000000 ) ) ;
#299 = CARTESIAN_POINT ( 'NONE',  ( 0.0000000000000000000, 0.0000000000000000000, 2.500000000000000000 ) ) ;
ENDSEC;
END-ISO-10303-21;
