ISO-10303-21;
HEADER;
FILE_DESCRIPTION (( 'STEP AP214' ),
    '1' );
FILE_NAME ('01302.STEP',
    '2023-06-22T14:26:24',
    ( '' ),
    ( '' ),
    'SwSTEP 2.0',
    'SolidWorks 2023',
    '' );
FILE_SCHEMA (( 'AUTOMOTIVE_DESIGN' ));
ENDSEC;

DATA;
#1 = CARTESIAN_POINT ( 'NONE',  ( 0.000000000000000000, 2.125000000000000000, 0.000000000000000000 ) ) ;
#2 =( LENGTH_UNIT ( ) NAMED_UNIT ( * ) SI_UNIT ( $, .METRE. ) );
#3 = STYLED_ITEM ( 'NONE', ( #44 ), #138 ) ;
#4 = EDGE_LOOP ( 'NONE', ( #216, #9 ) ) ;
#5 = DIRECTION ( 'NONE',  ( 0.000000000000000000, 0.000000000000000000, -1.000000000000000000 ) ) ;
#6 = SURFACE_STYLE_FILL_AREA ( #10 ) ;
#7 = FACE_OUTER_BOUND ( 'NONE', #50, .T. ) ;
#8 = MECHANICAL_DESIGN_GEOMETRIC_PRESENTATION_REPRESENTATION (  '', ( #214 ), #131 ) ;
#9 = ORIENTED_EDGE ( 'NONE', *, *, #35, .T. ) ;
#10 = FILL_AREA_STYLE ('',( #66 ) ) ;
#11 = SURFACE_STYLE_USAGE ( .BOTH. , #280 ) ;
#12 = VECTOR ( 'NONE', #118, 39.37007874015748143 ) ;
#13 = SURFACE_STYLE_FILL_AREA ( #165 ) ;
#14 = DIRECTION ( 'NONE',  ( -0.000000000000000000, -1.000000000000000000, -0.000000000000000000 ) ) ;
#15 = DIMENSIONAL_EXPONENTS ( 1.000000000000000000, 0.000000000000000000, 0.000000000000000000, 0.000000000000000000, 0.000000000000000000, 0.000000000000000000, 0.000000000000000000 ) ;
#16 = DIRECTION ( 'NONE',  ( -0.000000000000000000, -1.000000000000000000, -0.000000000000000000 ) ) ;
#17 = EDGE_LOOP ( 'NONE', ( #107, #128, #65, #181 ) ) ;
#18 =( CONVERSION_BASED_UNIT ( 'INCH', #308 ) LENGTH_UNIT ( ) NAMED_UNIT ( #48 ) );
#19 = PRESENTATION_STYLE_ASSIGNMENT (( #49 ) ) ;
#20 = PRODUCT_DEFINITION_SHAPE ( 'NONE', 'NONE',  #43 ) ;
#21 = LENGTH_MEASURE_WITH_UNIT ( LENGTH_MEASURE( 0.02539999999999999897 ), #239 );
#22 = PRESENTATION_LAYER_ASSIGNMENT (  '', '', ( #204 ) ) ;
#23 = AXIS2_PLACEMENT_3D ( 'NONE', #192, #57, #5 ) ;
#24 = EDGE_CURVE ( 'NONE', #203, #245, #148, .T. ) ;
#25 =( NAMED_UNIT ( * ) SI_UNIT ( $, .STERADIAN. ) SOLID_ANGLE_UNIT ( ) );
#26 = CYLINDRICAL_SURFACE ( 'NONE', #45, 0.1562500000000000000 ) ;
#27 = DIRECTION ( 'NONE',  ( -6.531449595452546658E-17, 1.000000000000000000, -0.000000000000000000 ) ) ;
#28 = EDGE_CURVE ( 'NONE', #261, #111, #29, .T. ) ;
#29 = CIRCLE ( 'NONE', #78, 0.1562500000000000000 ) ;
#30 = CARTESIAN_POINT ( 'NONE',  ( 0.1562500000000000000, 4.000000000000000000, 1.913510623667740388E-17 ) ) ;
#31 = AXIS2_PLACEMENT_3D ( 'NONE', #86, #248, #110 ) ;
#32 = COLOUR_RGB ( '',1.000000000000000000, 0.000000000000000000, 0.000000000000000000 ) ;
#33 = PLANE ( 'NONE',  #70 ) ;
#34 = DIRECTION ( 'NONE',  ( -0.000000000000000000, -1.000000000000000000, -0.000000000000000000 ) ) ;
#35 = EDGE_CURVE ( 'NONE', #68, #77, #210, .T. ) ;
#36 = FACE_OUTER_BOUND ( 'NONE', #90, .T. ) ;
#37 =( GEOMETRIC_REPRESENTATION_CONTEXT ( 3 ) GLOBAL_UNCERTAINTY_ASSIGNED_CONTEXT ( ( #253 ) ) GLOBAL_UNIT_ASSIGNED_CONTEXT ( ( #231, #306, #38 ) ) REPRESENTATION_CONTEXT ( 'NONE', 'WORKASPACE' ) );
#38 =( NAMED_UNIT ( * ) SI_UNIT ( $, .STERADIAN. ) SOLID_ANGLE_UNIT ( ) );
#39 = SHAPE_DEFINITION_REPRESENTATION ( #20, #137 ) ;
#40 = CARTESIAN_POINT ( 'NONE',  ( -0.1562500000000002220, 4.000000000000000000, 0.000000000000000000 ) ) ;
#41 = DIMENSIONAL_EXPONENTS ( 1.000000000000000000, 0.000000000000000000, 0.000000000000000000, 0.000000000000000000, 0.000000000000000000, 0.000000000000000000, 0.000000000000000000 ) ;
#42 = DIRECTION ( 'NONE',  ( 1.000000000000000000, 0.000000000000000000, 0.000000000000000000 ) ) ;
#43 = PRODUCT_DEFINITION ( 'UNKNOWN', '', #229, #230 ) ;
#44 = PRESENTATION_STYLE_ASSIGNMENT (( #211 ) ) ;
#45 = AXIS2_PLACEMENT_3D ( 'NONE', #279, #14, #184 ) ;
#46 = DIMENSIONAL_EXPONENTS ( 1.000000000000000000, 0.000000000000000000, 0.000000000000000000, 0.000000000000000000, 0.000000000000000000, 0.000000000000000000, 0.000000000000000000 ) ;
#47 = LENGTH_MEASURE_WITH_UNIT ( LENGTH_MEASURE( 0.02539999999999999897 ), #284 );
#48 = DIMENSIONAL_EXPONENTS ( 1.000000000000000000, 0.000000000000000000, 0.000000000000000000, 0.000000000000000000, 0.000000000000000000, 0.000000000000000000, 0.000000000000000000 ) ;
#49 = SURFACE_STYLE_USAGE ( .BOTH. , #260 ) ;
#50 = EDGE_LOOP ( 'NONE', ( #124, #159, #272, #178 ) ) ;
#51 = DIRECTION ( 'NONE',  ( -6.531449595452546658E-17, 1.000000000000000000, -0.000000000000000000 ) ) ;
#52 = UNCERTAINTY_MEASURE_WITH_UNIT (LENGTH_MEASURE( 1.000000000000000082E-05 ), #75, 'distance_accuracy_value', 'NONE');
#53 =( GEOMETRIC_REPRESENTATION_CONTEXT ( 3 ) GLOBAL_UNCERTAINTY_ASSIGNED_CONTEXT ( ( #72 ) ) GLOBAL_UNIT_ASSIGNED_CONTEXT ( ( #122, #268, #25 ) ) REPRESENTATION_CONTEXT ( 'NONE', 'WORKASPACE' ) );
#54 = PRESENTATION_STYLE_ASSIGNMENT (( #215 ) ) ;
#55 = CARTESIAN_POINT ( 'NONE',  ( -1.224646799147352714E-16, 4.000000000000000000, 0.000000000000000000 ) ) ;
#56 = SURFACE_STYLE_FILL_AREA ( #168 ) ;
#57 = DIRECTION ( 'NONE',  ( 0.000000000000000000, -1.000000000000000000, -0.000000000000000000 ) ) ;
#58 = ADVANCED_FACE ( 'NONE', ( #152 ), #33, .F. ) ;
#59 = CARTESIAN_POINT ( 'NONE',  ( 1.913510623667739463E-17, 2.125000000000000000, 0.1562500000000000000 ) ) ;
#60 = CARTESIAN_POINT ( 'NONE',  ( 0.000000000000000000, 2.125000000000000000, -0.1562500000000000000 ) ) ;
#61 = DIRECTION ( 'NONE',  ( -1.000000000000000000, 0.000000000000000000, 0.000000000000000000 ) ) ;
#62 = AXIS2_PLACEMENT_3D ( 'NONE', #55, #87, #256 ) ;
#63 = FILL_AREA_STYLE ('',( #149 ) ) ;
#64 = ORIENTED_EDGE ( 'NONE', *, *, #300, .F. ) ;
#65 = ORIENTED_EDGE ( 'NONE', *, *, #102, .T. ) ;
#66 = FILL_AREA_STYLE_COLOUR ( '', #135 ) ;
#67 =( GEOMETRIC_REPRESENTATION_CONTEXT ( 3 ) GLOBAL_UNCERTAINTY_ASSIGNED_CONTEXT ( ( #212 ) ) GLOBAL_UNIT_ASSIGNED_CONTEXT ( ( #104, #194, #175 ) ) REPRESENTATION_CONTEXT ( 'NONE', 'WORKASPACE' ) );
#68 = VERTEX_POINT ( 'NONE', #30 ) ;
#69 = DIRECTION ( 'NONE',  ( 0.000000000000000000, 0.000000000000000000, -1.000000000000000000 ) ) ;
#70 = AXIS2_PLACEMENT_3D ( 'NONE', #179, #226, #160 ) ;
#71 =( LENGTH_UNIT ( ) NAMED_UNIT ( * ) SI_UNIT ( $, .METRE. ) );
#72 = UNCERTAINTY_MEASURE_WITH_UNIT (LENGTH_MEASURE( 1.000000000000000082E-05 ), #122, 'distance_accuracy_value', 'NONE');
#73 = CARTESIAN_POINT ( 'NONE',  ( 0.000000000000000000, 2.125000000000000000, 0.000000000000000000 ) ) ;
#74 =( GEOMETRIC_REPRESENTATION_CONTEXT ( 3 ) GLOBAL_UNCERTAINTY_ASSIGNED_CONTEXT ( ( #304 ) ) GLOBAL_UNIT_ASSIGNED_CONTEXT ( ( #303, #96, #301 ) ) REPRESENTATION_CONTEXT ( 'NONE', 'WORKASPACE' ) );
#75 =( CONVERSION_BASED_UNIT ( 'INCH', #47 ) LENGTH_UNIT ( ) NAMED_UNIT ( #46 ) );
#76 = DIRECTION ( 'NONE',  ( -6.531449595452546658E-17, 1.000000000000000000, -0.000000000000000000 ) ) ;
#77 = VERTEX_POINT ( 'NONE', #242 ) ;
#78 = AXIS2_PLACEMENT_3D ( 'NONE', #201, #27, #125 ) ;
#79 = CARTESIAN_POINT ( 'NONE',  ( 0.000000000000000000, 0.000000000000000000, 0.000000000000000000 ) ) ;
#80 = AXIS2_PLACEMENT_3D ( 'NONE', #101, #167, #106 ) ;
#81 = CIRCLE ( 'NONE', #126, 0.1562500000000000000 ) ;
#82 = CYLINDRICAL_SURFACE ( 'NONE', #228, 0.1562500000000000833 ) ;
#83 =( NAMED_UNIT ( * ) SI_UNIT ( $, .STERADIAN. ) SOLID_ANGLE_UNIT ( ) );
#84 = EDGE_CURVE ( 'NONE', #245, #127, #108, .T. ) ;
#85 = DIRECTION ( 'NONE',  ( 6.531449595452546658E-17, -1.000000000000000000, 0.000000000000000000 ) ) ;
#86 = CARTESIAN_POINT ( 'NONE',  ( 0.000000000000000000, 2.125000000000000000, 0.000000000000000000 ) ) ;
#87 = DIRECTION ( 'NONE',  ( -6.531449595452546658E-17, 1.000000000000000000, -0.000000000000000000 ) ) ;
#88 = MECHANICAL_DESIGN_GEOMETRIC_PRESENTATION_REPRESENTATION (  '', ( #204 ), #37 ) ;
#89 = ORIENTED_EDGE ( 'NONE', *, *, #202, .T. ) ;
#90 = EDGE_LOOP ( 'NONE', ( #225, #91, #294, #240 ) ) ;
#91 = ORIENTED_EDGE ( 'NONE', *, *, #132, .T. ) ;
#92 = CARTESIAN_POINT ( 'NONE',  ( -1.224646799147352714E-16, 4.000000000000000000, 0.000000000000000000 ) ) ;
#93 = ADVANCED_FACE ( 'NONE', ( #7 ), #26, .T. ) ;
#94 = CARTESIAN_POINT ( 'NONE',  ( 0.000000000000000000, 2.125000000000000000, 0.000000000000000000 ) ) ;
#95 = CIRCLE ( 'NONE', #263, 0.1562500000000000000 ) ;
#96 =( NAMED_UNIT ( * ) PLANE_ANGLE_UNIT ( ) SI_UNIT ( $, .RADIAN. ) );
#97 = CYLINDRICAL_SURFACE ( 'NONE', #298, 0.1562500000000000000 ) ;
#98 = APPLICATION_CONTEXT ( 'automotive_design' ) ;
#99 = CARTESIAN_POINT ( 'NONE',  ( 0.000000000000000000, 0.000000000000000000, -0.1562500000000000000 ) ) ;
#100 =( NAMED_UNIT ( * ) PLANE_ANGLE_UNIT ( ) SI_UNIT ( $, .RADIAN. ) );
#101 = CARTESIAN_POINT ( 'NONE',  ( 0.000000000000000000, 0.000000000000000000, 0.000000000000000000 ) ) ;
#102 = EDGE_CURVE ( 'NONE', #111, #77, #134, .T. ) ;
#103 = CLOSED_SHELL ( 'NONE', ( #185, #58, #213, #180 ) ) ;
#104 =( CONVERSION_BASED_UNIT ( 'INCH', #218 ) LENGTH_UNIT ( ) NAMED_UNIT ( #145 ) );
#105 = CIRCLE ( 'NONE', #302, 0.1562500000000000000 ) ;
#106 = DIRECTION ( 'NONE',  ( 0.000000000000000000, 0.000000000000000000, -1.000000000000000000 ) ) ;
#107 = ORIENTED_EDGE ( 'NONE', *, *, #196, .F. ) ;
#108 = LINE ( 'NONE', #223, #150 ) ;
#109 = COLOUR_RGB ( '',1.000000000000000000, 0.000000000000000000, 0.000000000000000000 ) ;
#110 = DIRECTION ( 'NONE',  ( 0.000000000000000000, 0.000000000000000000, -1.000000000000000000 ) ) ;
#111 = VERTEX_POINT ( 'NONE', #277 ) ;
#112 = SURFACE_STYLE_USAGE ( .BOTH. , #200 ) ;
#113 = AXIS2_PLACEMENT_3D ( 'NONE', #94, #227, #183 ) ;
#114 = MECHANICAL_DESIGN_GEOMETRIC_PRESENTATION_REPRESENTATION (  '', ( #190 ), #241 ) ;
#115 = FACE_OUTER_BOUND ( 'NONE', #182, .T. ) ;
#116 = AXIS2_PLACEMENT_3D ( 'NONE', #92, #176, #61 ) ;
#117 = CARTESIAN_POINT ( 'NONE',  ( 0.000000000000000000, 0.000000000000000000, -0.1562500000000000000 ) ) ;
#118 = DIRECTION ( 'NONE',  ( -6.531449595452546658E-17, 1.000000000000000000, -0.000000000000000000 ) ) ;
#119 = STYLED_ITEM ( 'NONE', ( #250 ), #147 ) ;
#120 = FACE_OUTER_BOUND ( 'NONE', #155, .T. ) ;
#121 = CIRCLE ( 'NONE', #62, 0.1562500000000001388 ) ;
#122 =( CONVERSION_BASED_UNIT ( 'INCH', #21 ) LENGTH_UNIT ( ) NAMED_UNIT ( #259 ) );
#123 = PLANE ( 'NONE',  #23 ) ;
#124 = ORIENTED_EDGE ( 'NONE', *, *, #24, .T. ) ;
#125 = DIRECTION ( 'NONE',  ( -1.000000000000000000, 0.000000000000000000, 0.000000000000000000 ) ) ;
#126 = AXIS2_PLACEMENT_3D ( 'NONE', #73, #207, #69 ) ;
#127 = VERTEX_POINT ( 'NONE', #206 ) ;
#128 = ORIENTED_EDGE ( 'NONE', *, *, #28, .T. ) ;
#129 = CARTESIAN_POINT ( 'NONE',  ( 0.000000000000000000, 0.000000000000000000, 0.000000000000000000 ) ) ;
#130 = SURFACE_SIDE_STYLE ('',( #13 ) ) ;
#131 =( GEOMETRIC_REPRESENTATION_CONTEXT ( 3 ) GLOBAL_UNCERTAINTY_ASSIGNED_CONTEXT ( ( #52 ) ) GLOBAL_UNIT_ASSIGNED_CONTEXT ( ( #75, #100, #142 ) ) REPRESENTATION_CONTEXT ( 'NONE', 'WORKASPACE' ) );
#132 = EDGE_CURVE ( 'NONE', #245, #203, #81, .T. ) ;
#133 = PLANE ( 'NONE',  #113 ) ;
#134 = LINE ( 'NONE', #40, #157 ) ;
#135 = COLOUR_RGB ( '',1.000000000000000000, 0.000000000000000000, 0.000000000000000000 ) ;
#136 = DIRECTION ( 'NONE',  ( 0.000000000000000000, 0.000000000000000000, -1.000000000000000000 ) ) ;
#137 = ADVANCED_BREP_SHAPE_REPRESENTATION ( '01302', ( #198, #199, #205 ), #67 ) ;
#138 = ADVANCED_FACE ( 'NONE', ( #115 ), #133, .T. ) ;
#139 = APPLICATION_CONTEXT ( 'automotive_design' ) ;
#140 = DIRECTION ( 'NONE',  ( -0.000000000000000000, -1.000000000000000000, -0.000000000000000000 ) ) ;
#141 = CARTESIAN_POINT ( 'NONE',  ( -1.224646799147352714E-16, 4.000000000000000000, 0.000000000000000000 ) ) ;
#142 =( NAMED_UNIT ( * ) SI_UNIT ( $, .STERADIAN. ) SOLID_ANGLE_UNIT ( ) );
#143 = PRESENTATION_LAYER_ASSIGNMENT (  '', '', ( #119 ) ) ;
#144 = LINE ( 'NONE', #99, #282 ) ;
#145 = DIMENSIONAL_EXPONENTS ( 1.000000000000000000, 0.000000000000000000, 0.000000000000000000, 0.000000000000000000, 0.000000000000000000, 0.000000000000000000, 0.000000000000000000 ) ;
#146 =( NAMED_UNIT ( * ) PLANE_ANGLE_UNIT ( ) SI_UNIT ( $, .RADIAN. ) );
#147 = ADVANCED_FACE ( 'NONE', ( #36 ), #97, .T. ) ;
#148 = CIRCLE ( 'NONE', #31, 0.1562500000000000000 ) ;
#149 = FILL_AREA_STYLE_COLOUR ( '', #32 ) ;
#150 = VECTOR ( 'NONE', #34, 39.37007874015748143 ) ;
#151 = CYLINDRICAL_SURFACE ( 'NONE', #171, 0.1562500000000000833 ) ;
#152 = FACE_OUTER_BOUND ( 'NONE', #275, .T. ) ;
#153 = DIRECTION ( 'NONE',  ( -0.000000000000000000, -1.000000000000000000, -0.000000000000000000 ) ) ;
#154 = ORIENTED_EDGE ( 'NONE', *, *, #102, .F. ) ;
#155 = EDGE_LOOP ( 'NONE', ( #89, #291, #64, #154 ) ) ;
#156 = APPLICATION_PROTOCOL_DEFINITION ( 'draft international standard', 'automotive_design', 1998, #139 ) ;
#157 = VECTOR ( 'NONE', #281, 39.37007874015748143 ) ;
#158 = EDGE_CURVE ( 'NONE', #127, #273, #166, .T. ) ;
#159 = ORIENTED_EDGE ( 'NONE', *, *, #84, .T. ) ;
#160 = DIRECTION ( 'NONE',  ( -1.000000000000000000, -6.531449595452546658E-17, 0.000000000000000000 ) ) ;
#161 = FILL_AREA_STYLE ('',( #299 ) ) ;
#162 = FILL_AREA_STYLE_COLOUR ( '', #109 ) ;
#163 = MECHANICAL_DESIGN_GEOMETRIC_PRESENTATION_REPRESENTATION (  '', ( #177 ), #53 ) ;
#164 = LENGTH_MEASURE_WITH_UNIT ( LENGTH_MEASURE( 0.02539999999999999897 ), #297 );
#165 = FILL_AREA_STYLE ('',( #162 ) ) ;
#166 = CIRCLE ( 'NONE', #80, 0.1562500000000000000 ) ;
#167 = DIRECTION ( 'NONE',  ( -0.000000000000000000, -1.000000000000000000, -0.000000000000000000 ) ) ;
#168 = FILL_AREA_STYLE ('',( #265 ) ) ;
#169 = PRODUCT_RELATED_PRODUCT_CATEGORY ( 'part', '', ( #288 ) ) ;
#170 = CLOSED_SHELL ( 'NONE', ( #93, #138, #147, #296 ) ) ;
#171 = AXIS2_PLACEMENT_3D ( 'NONE', #141, #51, #271 ) ;
#172 = SURFACE_STYLE_USAGE ( .BOTH. , #221 ) ;
#173 = FILL_AREA_STYLE ('',( #236 ) ) ;
#174 = CARTESIAN_POINT ( 'NONE',  ( -1.224646799147352714E-16, 4.000000000000000000, 0.000000000000000000 ) ) ;
#175 =( NAMED_UNIT ( * ) SI_UNIT ( $, .STERADIAN. ) SOLID_ANGLE_UNIT ( ) );
#176 = DIRECTION ( 'NONE',  ( -6.531449595452546658E-17, 1.000000000000000000, -0.000000000000000000 ) ) ;
#177 = STYLED_ITEM ( 'NONE', ( #19 ), #199 ) ;
#178 = ORIENTED_EDGE ( 'NONE', *, *, #191, .F. ) ;
#179 = CARTESIAN_POINT ( 'NONE',  ( 3.332799517026346248E-34, 2.125000000000000000, 0.000000000000000000 ) ) ;
#180 = ADVANCED_FACE ( 'NONE', ( #287 ), #217, .F. ) ;
#181 = ORIENTED_EDGE ( 'NONE', *, *, #35, .F. ) ;
#182 = EDGE_LOOP ( 'NONE', ( #249, #197 ) ) ;
#183 = DIRECTION ( 'NONE',  ( 0.000000000000000000, -0.000000000000000000, 1.000000000000000000 ) ) ;
#184 = DIRECTION ( 'NONE',  ( 0.000000000000000000, 0.000000000000000000, -1.000000000000000000 ) ) ;
#185 = ADVANCED_FACE ( 'NONE', ( #120 ), #82, .T. ) ;
#186 = UNCERTAINTY_MEASURE_WITH_UNIT (LENGTH_MEASURE( 1.000000000000000082E-05 ), #18, 'distance_accuracy_value', 'NONE');
#187 =( LENGTH_UNIT ( ) NAMED_UNIT ( * ) SI_UNIT ( $, .METRE. ) );
#188 = SURFACE_STYLE_FILL_AREA ( #173 ) ;
#189 = COLOUR_RGB ( '',0.7921568627450980005, 0.8196078431372548767, 0.9333333333333333481 ) ;
#190 = STYLED_ITEM ( 'NONE', ( #243 ), #296 ) ;
#191 = EDGE_CURVE ( 'NONE', #203, #273, #144, .T. ) ;
#192 = CARTESIAN_POINT ( 'NONE',  ( 0.000000000000000000, 0.000000000000000000, 0.000000000000000000 ) ) ;
#193 = MECHANICAL_DESIGN_GEOMETRIC_PRESENTATION_REPRESENTATION (  '', ( #119 ), #220 ) ;
#194 =( NAMED_UNIT ( * ) PLANE_ANGLE_UNIT ( ) SI_UNIT ( $, .RADIAN. ) );
#195 = DIRECTION ( 'NONE',  ( 0.000000000000000000, 0.000000000000000000, -1.000000000000000000 ) ) ;
#196 = EDGE_CURVE ( 'NONE', #261, #68, #262, .T. ) ;
#197 = ORIENTED_EDGE ( 'NONE', *, *, #132, .F. ) ;
#198 = MANIFOLD_SOLID_BREP ( 'Revolve - Cutting Edge', #170 ) ;
#199 = MANIFOLD_SOLID_BREP ( 'Revolve - Tool Body (Straight Shanked)', #103 ) ;
#200 = SURFACE_SIDE_STYLE ('',( #6 ) ) ;
#201 = CARTESIAN_POINT ( 'NONE',  ( 0.000000000000000000, 2.125000000000000000, 0.000000000000000000 ) ) ;
#202 = EDGE_CURVE ( 'NONE', #111, #261, #95, .T. ) ;
#203 = VERTEX_POINT ( 'NONE', #60 ) ;
#204 = STYLED_ITEM ( 'NONE', ( #293 ), #93 ) ;
#205 = AXIS2_PLACEMENT_3D ( 'NONE', #129, #278, #42 ) ;
#206 = CARTESIAN_POINT ( 'NONE',  ( 1.913510623667739463E-17, 0.000000000000000000, 0.1562500000000000000 ) ) ;
#207 = DIRECTION ( 'NONE',  ( -0.000000000000000000, -1.000000000000000000, -0.000000000000000000 ) ) ;
#208 = PRODUCT_CONTEXT ( 'NONE', #139, 'mechanical' ) ;
#209 = LENGTH_MEASURE_WITH_UNIT ( LENGTH_MEASURE( 0.02539999999999999897 ), #71 );
#210 = CIRCLE ( 'NONE', #116, 0.1562500000000001388 ) ;
#211 = SURFACE_STYLE_USAGE ( .BOTH. , #130 ) ;
#212 = UNCERTAINTY_MEASURE_WITH_UNIT (LENGTH_MEASURE( 1.000000000000000082E-05 ), #104, 'distance_accuracy_value', 'NONE');
#213 = ADVANCED_FACE ( 'NONE', ( #222 ), #151, .T. ) ;
#214 = STYLED_ITEM ( 'NONE', ( #54 ), #198 ) ;
#215 = SURFACE_STYLE_USAGE ( .BOTH. , #258 ) ;
#216 = ORIENTED_EDGE ( 'NONE', *, *, #300, .T. ) ;
#217 = PLANE ( 'NONE',  #246 ) ;
#218 = LENGTH_MEASURE_WITH_UNIT ( LENGTH_MEASURE( 0.02539999999999999897 ), #292 );
#219 = CARTESIAN_POINT ( 'NONE',  ( 0.000000000000000000, 0.000000000000000000, 0.000000000000000000 ) ) ;
#220 =( GEOMETRIC_REPRESENTATION_CONTEXT ( 3 ) GLOBAL_UNCERTAINTY_ASSIGNED_CONTEXT ( ( #186 ) ) GLOBAL_UNIT_ASSIGNED_CONTEXT ( ( #18, #146, #286 ) ) REPRESENTATION_CONTEXT ( 'NONE', 'WORKASPACE' ) );
#221 = SURFACE_SIDE_STYLE ('',( #305 ) ) ;
#222 = FACE_OUTER_BOUND ( 'NONE', #17, .T. ) ;
#223 = CARTESIAN_POINT ( 'NONE',  ( 1.913510623667739463E-17, 0.000000000000000000, 0.1562500000000000000 ) ) ;
#224 = PRESENTATION_LAYER_ASSIGNMENT (  '', '', ( #3 ) ) ;
#225 = ORIENTED_EDGE ( 'NONE', *, *, #84, .F. ) ;
#226 = DIRECTION ( 'NONE',  ( -6.531449595452546658E-17, 1.000000000000000000, 0.000000000000000000 ) ) ;
#227 = DIRECTION ( 'NONE',  ( 0.000000000000000000, 1.000000000000000000, 0.000000000000000000 ) ) ;
#228 = AXIS2_PLACEMENT_3D ( 'NONE', #174, #266, #232 ) ;
#229 = PRODUCT_DEFINITION_FORMATION_WITH_SPECIFIED_SOURCE ( 'ANY', '', #288, .NOT_KNOWN. ) ;
#230 = PRODUCT_DEFINITION_CONTEXT ( 'detailed design', #98, 'design' ) ;
#231 =( CONVERSION_BASED_UNIT ( 'INCH', #164 ) LENGTH_UNIT ( ) NAMED_UNIT ( #15 ) );
#232 = DIRECTION ( 'NONE',  ( -1.000000000000000000, 0.000000000000000000, 0.000000000000000000 ) ) ;
#233 = DIRECTION ( 'NONE',  ( 1.000000000000000000, 6.531449595452546658E-17, 0.000000000000000000 ) ) ;
#234 = CARTESIAN_POINT ( 'NONE',  ( 0.1562499999999999445, 4.000000000000000000, 1.913510623667740080E-17 ) ) ;
#235 = PRESENTATION_LAYER_ASSIGNMENT (  '', '', ( #214 ) ) ;
#236 = FILL_AREA_STYLE_COLOUR ( '', #189 ) ;
#237 = CARTESIAN_POINT ( 'NONE',  ( 0.1562500000000000000, 4.000000000000000000, 0.000000000000000000 ) ) ;
#238 = CARTESIAN_POINT ( 'NONE',  ( 0.1562500000000000000, 2.125000000000000000, 1.913510623667740388E-17 ) ) ;
#239 =( LENGTH_UNIT ( ) NAMED_UNIT ( * ) SI_UNIT ( $, .METRE. ) );
#240 = ORIENTED_EDGE ( 'NONE', *, *, #158, .F. ) ;
#241 =( GEOMETRIC_REPRESENTATION_CONTEXT ( 3 ) GLOBAL_UNCERTAINTY_ASSIGNED_CONTEXT ( ( #255 ) ) GLOBAL_UNIT_ASSIGNED_CONTEXT ( ( #285, #264, #83 ) ) REPRESENTATION_CONTEXT ( 'NONE', 'WORKASPACE' ) );
#242 = CARTESIAN_POINT ( 'NONE',  ( -0.1562500000000002776, 4.000000000000000000, 0.000000000000000000 ) ) ;
#243 = PRESENTATION_STYLE_ASSIGNMENT (( #172 ) ) ;
#244 = EDGE_LOOP ( 'NONE', ( #283, #269 ) ) ;
#245 = VERTEX_POINT ( 'NONE', #59 ) ;
#246 = AXIS2_PLACEMENT_3D ( 'NONE', #237, #85, #233 ) ;
#247 = MECHANICAL_DESIGN_GEOMETRIC_PRESENTATION_REPRESENTATION (  '', ( #3 ), #74 ) ;
#248 = DIRECTION ( 'NONE',  ( -0.000000000000000000, -1.000000000000000000, -0.000000000000000000 ) ) ;
#249 = ORIENTED_EDGE ( 'NONE', *, *, #24, .F. ) ;
#250 = PRESENTATION_STYLE_ASSIGNMENT (( #11 ) ) ;
#251 = PRESENTATION_LAYER_ASSIGNMENT (  '', '', ( #177 ) ) ;
#252 = EDGE_CURVE ( 'NONE', #273, #127, #105, .T. ) ;
#253 = UNCERTAINTY_MEASURE_WITH_UNIT (LENGTH_MEASURE( 1.000000000000000082E-05 ), #231, 'distance_accuracy_value', 'NONE');
#254 = SURFACE_STYLE_FILL_AREA ( #161 ) ;
#255 = UNCERTAINTY_MEASURE_WITH_UNIT (LENGTH_MEASURE( 1.000000000000000082E-05 ), #285, 'distance_accuracy_value', 'NONE');
#256 = DIRECTION ( 'NONE',  ( -1.000000000000000000, 0.000000000000000000, 0.000000000000000000 ) ) ;
#257 = COLOUR_RGB ( '',1.000000000000000000, 0.000000000000000000, 0.000000000000000000 ) ;
#258 = SURFACE_SIDE_STYLE ('',( #188 ) ) ;
#259 = DIMENSIONAL_EXPONENTS ( 1.000000000000000000, 0.000000000000000000, 0.000000000000000000, 0.000000000000000000, 0.000000000000000000, 0.000000000000000000, 0.000000000000000000 ) ;
#260 = SURFACE_SIDE_STYLE ('',( #56 ) ) ;
#261 = VERTEX_POINT ( 'NONE', #238 ) ;
#262 = LINE ( 'NONE', #234, #12 ) ;
#263 = AXIS2_PLACEMENT_3D ( 'NONE', #1, #76, #290 ) ;
#264 =( NAMED_UNIT ( * ) PLANE_ANGLE_UNIT ( ) SI_UNIT ( $, .RADIAN. ) );
#265 = FILL_AREA_STYLE_COLOUR ( '', #309 ) ;
#266 = DIRECTION ( 'NONE',  ( -6.531449595452546658E-17, 1.000000000000000000, -0.000000000000000000 ) ) ;
#267 = FACE_OUTER_BOUND ( 'NONE', #244, .T. ) ;
#268 =( NAMED_UNIT ( * ) PLANE_ANGLE_UNIT ( ) SI_UNIT ( $, .RADIAN. ) );
#269 = ORIENTED_EDGE ( 'NONE', *, *, #158, .T. ) ;
#270 = PRESENTATION_LAYER_ASSIGNMENT (  '', '', ( #190 ) ) ;
#271 = DIRECTION ( 'NONE',  ( -1.000000000000000000, 0.000000000000000000, 0.000000000000000000 ) ) ;
#272 = ORIENTED_EDGE ( 'NONE', *, *, #252, .F. ) ;
#273 = VERTEX_POINT ( 'NONE', #117 ) ;
#274 = ORIENTED_EDGE ( 'NONE', *, *, #202, .F. ) ;
#275 = EDGE_LOOP ( 'NONE', ( #274, #295 ) ) ;
#276 = APPLICATION_PROTOCOL_DEFINITION ( 'draft international standard', 'automotive_design', 1998, #98 ) ;
#277 = CARTESIAN_POINT ( 'NONE',  ( -0.1562500000000000000, 2.125000000000000000, 0.000000000000000000 ) ) ;
#278 = DIRECTION ( 'NONE',  ( 0.000000000000000000, 0.000000000000000000, 1.000000000000000000 ) ) ;
#279 = CARTESIAN_POINT ( 'NONE',  ( 0.000000000000000000, 0.000000000000000000, 0.000000000000000000 ) ) ;
#280 = SURFACE_SIDE_STYLE ('',( #254 ) ) ;
#281 = DIRECTION ( 'NONE',  ( -6.531449595452546658E-17, 1.000000000000000000, -0.000000000000000000 ) ) ;
#282 = VECTOR ( 'NONE', #16, 39.37007874015748143 ) ;
#283 = ORIENTED_EDGE ( 'NONE', *, *, #252, .T. ) ;
#284 =( LENGTH_UNIT ( ) NAMED_UNIT ( * ) SI_UNIT ( $, .METRE. ) );
#285 =( CONVERSION_BASED_UNIT ( 'INCH', #289 ) LENGTH_UNIT ( ) NAMED_UNIT ( #307 ) );
#286 =( NAMED_UNIT ( * ) SI_UNIT ( $, .STERADIAN. ) SOLID_ANGLE_UNIT ( ) );
#287 = FACE_OUTER_BOUND ( 'NONE', #4, .T. ) ;
#288 = PRODUCT ( '01302', '01302', '', ( #208 ) ) ;
#289 = LENGTH_MEASURE_WITH_UNIT ( LENGTH_MEASURE( 0.02539999999999999897 ), #2 );
#290 = DIRECTION ( 'NONE',  ( -1.000000000000000000, 0.000000000000000000, 0.000000000000000000 ) ) ;
#291 = ORIENTED_EDGE ( 'NONE', *, *, #196, .T. ) ;
#292 =( LENGTH_UNIT ( ) NAMED_UNIT ( * ) SI_UNIT ( $, .METRE. ) );
#293 = PRESENTATION_STYLE_ASSIGNMENT (( #112 ) ) ;
#294 = ORIENTED_EDGE ( 'NONE', *, *, #191, .T. ) ;
#295 = ORIENTED_EDGE ( 'NONE', *, *, #28, .F. ) ;
#296 = ADVANCED_FACE ( 'NONE', ( #267 ), #123, .T. ) ;
#297 =( LENGTH_UNIT ( ) NAMED_UNIT ( * ) SI_UNIT ( $, .METRE. ) );
#298 = AXIS2_PLACEMENT_3D ( 'NONE', #219, #140, #136 ) ;
#299 = FILL_AREA_STYLE_COLOUR ( '', #257 ) ;
#300 = EDGE_CURVE ( 'NONE', #77, #68, #121, .T. ) ;
#301 =( NAMED_UNIT ( * ) SI_UNIT ( $, .STERADIAN. ) SOLID_ANGLE_UNIT ( ) );
#302 = AXIS2_PLACEMENT_3D ( 'NONE', #79, #153, #195 ) ;
#303 =( CONVERSION_BASED_UNIT ( 'INCH', #209 ) LENGTH_UNIT ( ) NAMED_UNIT ( #41 ) );
#304 = UNCERTAINTY_MEASURE_WITH_UNIT (LENGTH_MEASURE( 1.000000000000000082E-05 ), #303, 'distance_accuracy_value', 'NONE');
#305 = SURFACE_STYLE_FILL_AREA ( #63 ) ;
#306 =( NAMED_UNIT ( * ) PLANE_ANGLE_UNIT ( ) SI_UNIT ( $, .RADIAN. ) );
#307 = DIMENSIONAL_EXPONENTS ( 1.000000000000000000, 0.000000000000000000, 0.000000000000000000, 0.000000000000000000, 0.000000000000000000, 0.000000000000000000, 0.000000000000000000 ) ;
#308 = LENGTH_MEASURE_WITH_UNIT ( LENGTH_MEASURE( 0.02539999999999999897 ), #187 );
#309 = COLOUR_RGB ( '',0.7921568627450980005, 0.8196078431372548767, 0.9333333333333333481 ) ;
ENDSEC;
END-ISO-10303-21;
