ISO-10303-21;
HEADER;
FILE_DESCRIPTION (( 'STEP AP214' ),
    '1' );
FILE_NAME ('56337.STEP',
    '2023-06-30T22:08:00',
    ( '' ),
    ( '' ),
    'SwSTEP 2.0',
    'SolidWorks 2023',
    '' );
FILE_SCHEMA (( 'AUTOMOTIVE_DESIGN' ));
ENDSEC;

DATA;
#1 = CARTESIAN_POINT ( 'NONE',  ( 2.296212748401286493E-17, 1.000000000000000000, 0.1874999999999999167 ) ) ;
#2 = EDGE_LOOP ( 'NONE', ( #217, #306, #367, #304 ) ) ;
#3 = EDGE_CURVE ( 'NONE', #245, #249, #53, .T. ) ;
#4 = FACE_OUTER_BOUND ( 'NONE', #195, .T. ) ;
#5 = VERTEX_POINT ( 'NONE', #194 ) ;
#6 = STYLED_ITEM ( 'NONE', ( #211 ), #257 ) ;
#7 = PRODUCT_CONTEXT ( 'NONE', #332, 'mechanical' ) ;
#8 =( NAMED_UNIT ( * ) PLANE_ANGLE_UNIT ( ) SI_UNIT ( $, .RADIAN. ) );
#9 = FACE_OUTER_BOUND ( 'NONE', #23, .T. ) ;
#10 = EDGE_CURVE ( 'NONE', #251, #56, #100, .T. ) ;
#11 = DIRECTION ( 'NONE',  ( 1.000000000000000000, 0.000000000000000000, 0.000000000000000000 ) ) ;
#12 = AXIS2_PLACEMENT_3D ( 'NONE', #21, #283, #150 ) ;
#13 = AXIS2_PLACEMENT_3D ( 'NONE', #20, #182, #363 ) ;
#14 = PLANE ( 'NONE',  #310 ) ;
#15 = FILL_AREA_STYLE ('',( #129 ) ) ;
#16 =( NAMED_UNIT ( * ) PLANE_ANGLE_UNIT ( ) SI_UNIT ( $, .RADIAN. ) );
#17 = MANIFOLD_SOLID_BREP ( 'Revolve - Cutting Edge', #134 ) ;
#18 = LENGTH_MEASURE_WITH_UNIT ( LENGTH_MEASURE( 0.02539999999999999897 ), #262 );
#19 = CIRCLE ( 'NONE', #13, 0.1874999999999999167 ) ;
#20 = CARTESIAN_POINT ( 'NONE',  ( 0.000000000000000000, 1.000000000000000000, 0.000000000000000000 ) ) ;
#21 = CARTESIAN_POINT ( 'NONE',  ( -2.296212748401287726E-17, 0.1875000000000000278, 0.000000000000000000 ) ) ;
#22 =( NAMED_UNIT ( * ) PLANE_ANGLE_UNIT ( ) SI_UNIT ( $, .RADIAN. ) );
#23 = EDGE_LOOP ( 'NONE', ( #335, #308, #148, #142, #314 ) ) ;
#24 = DIRECTION ( 'NONE',  ( -1.836970198721030674E-16, 1.000000000000000000, -0.000000000000000000 ) ) ;
#25 = ORIENTED_EDGE ( 'NONE', *, *, #38, .F. ) ;
#26 = DIMENSIONAL_EXPONENTS ( 1.000000000000000000, 0.000000000000000000, 0.000000000000000000, 0.000000000000000000, 0.000000000000000000, 0.000000000000000000, 0.000000000000000000 ) ;
#27 = DIRECTION ( 'NONE',  ( -1.836970198721030427E-16, 1.000000000000000000, -0.000000000000000000 ) ) ;
#28 = ORIENTED_EDGE ( 'NONE', *, *, #43, .T. ) ;
#29 = MECHANICAL_DESIGN_GEOMETRIC_PRESENTATION_REPRESENTATION (  '', ( #192 ), #270 ) ;
#30 = EDGE_CURVE ( 'NONE', #58, #338, #234, .T. ) ;
#31 = EDGE_LOOP ( 'NONE', ( #61, #115, #90, #28 ) ) ;
#32 = DIRECTION ( 'NONE',  ( 0.000000000000000000, 0.000000000000000000, -1.000000000000000000 ) ) ;
#33 = SURFACE_STYLE_USAGE ( .BOTH. , #68 ) ;
#34 = STYLED_ITEM ( 'NONE', ( #352 ), #170 ) ;
#35 = MECHANICAL_DESIGN_GEOMETRIC_PRESENTATION_REPRESENTATION (  '', ( #83 ), #54 ) ;
#36 =( CONVERSION_BASED_UNIT ( 'INCH', #73 ) LENGTH_UNIT ( ) NAMED_UNIT ( #361 ) );
#37 =( LENGTH_UNIT ( ) NAMED_UNIT ( * ) SI_UNIT ( $, .METRE. ) );
#38 = EDGE_CURVE ( 'NONE', #338, #5, #63, .T. ) ;
#39 = CARTESIAN_POINT ( 'NONE',  ( 2.296212748401286801E-17, 0.1875000000000000555, 0.1874999999999999722 ) ) ;
#40 = SURFACE_SIDE_STYLE ('',( #230 ) ) ;
#41 = DIRECTION ( 'NONE',  ( -0.000000000000000000, -1.000000000000000000, -0.000000000000000000 ) ) ;
#42 = AXIS2_PLACEMENT_3D ( 'NONE', #233, #291, #11 ) ;
#43 = EDGE_CURVE ( 'NONE', #151, #284, #255, .T. ) ;
#44 =( LENGTH_UNIT ( ) NAMED_UNIT ( * ) SI_UNIT ( $, .METRE. ) );
#45 = DIRECTION ( 'NONE',  ( 1.224646799147353207E-16, -0.000000000000000000, 1.000000000000000000 ) ) ;
#46 = DIRECTION ( 'NONE',  ( -0.000000000000000000, -1.000000000000000000, -0.000000000000000000 ) ) ;
#47 = DIRECTION ( 'NONE',  ( 1.000000000000000000, 0.000000000000000000, -1.224646799147353207E-16 ) ) ;
#48 = AXIS2_PLACEMENT_3D ( 'NONE', #188, #171, #32 ) ;
#49 = CARTESIAN_POINT ( 'NONE',  ( 0.000000000000000000, 0.1875000000000000555, 0.000000000000000000 ) ) ;
#50 = STYLED_ITEM ( 'NONE', ( #76 ), #362 ) ;
#51 = DIRECTION ( 'NONE',  ( -0.000000000000000000, -1.000000000000000000, -0.000000000000000000 ) ) ;
#52 = DIRECTION ( 'NONE',  ( 0.000000000000000000, 0.000000000000000000, -1.000000000000000000 ) ) ;
#53 = CIRCLE ( 'NONE', #218, 0.1874999999999996669 ) ;
#54 =( GEOMETRIC_REPRESENTATION_CONTEXT ( 3 ) GLOBAL_UNCERTAINTY_ASSIGNED_CONTEXT ( ( #181 ) ) GLOBAL_UNIT_ASSIGNED_CONTEXT ( ( #65, #99, #254 ) ) REPRESENTATION_CONTEXT ( 'NONE', 'WORKASPACE' ) );
#55 = DIRECTION ( 'NONE',  ( -1.000000000000000000, 0.000000000000000000, 0.000000000000000000 ) ) ;
#56 = VERTEX_POINT ( 'NONE', #311 ) ;
#57 = SHAPE_DEFINITION_REPRESENTATION ( #369, #297 ) ;
#58 = VERTEX_POINT ( 'NONE', #1 ) ;
#59 = ADVANCED_FACE ( 'NONE', ( #216 ), #334, .T. ) ;
#60 = CARTESIAN_POINT ( 'NONE',  ( -0.1875000000000001943, 3.000000000000000444, 0.000000000000000000 ) ) ;
#61 = ORIENTED_EDGE ( 'NONE', *, *, #265, .F. ) ;
#62 = CIRCLE ( 'NONE', #48, 0.1874999999999999722 ) ;
#63 = CIRCLE ( 'NONE', #267, 0.1874999999999999722 ) ;
#64 = DIRECTION ( 'NONE',  ( -1.836970198721030674E-16, 1.000000000000000000, -0.000000000000000000 ) ) ;
#65 =( CONVERSION_BASED_UNIT ( 'INCH', #313 ) LENGTH_UNIT ( ) NAMED_UNIT ( #87 ) );
#66 = EDGE_LOOP ( 'NONE', ( #88, #247, #173, #221, #25 ) ) ;
#67 = CYLINDRICAL_SURFACE ( 'NONE', #193, 0.1874999999999999445 ) ;
#68 = SURFACE_SIDE_STYLE ('',( #178 ) ) ;
#69 = STYLED_ITEM ( 'NONE', ( #239 ), #17 ) ;
#70 = STYLED_ITEM ( 'NONE', ( #350 ), #235 ) ;
#71 = SURFACE_STYLE_USAGE ( .BOTH. , #317 ) ;
#72 = FILL_AREA_STYLE_COLOUR ( '', #162 ) ;
#73 = LENGTH_MEASURE_WITH_UNIT ( LENGTH_MEASURE( 0.02539999999999999897 ), #344 );
#74 = SURFACE_STYLE_FILL_AREA ( #130 ) ;
#75 = UNCERTAINTY_MEASURE_WITH_UNIT (LENGTH_MEASURE( 1.000000000000000082E-05 ), #237, 'distance_accuracy_value', 'NONE');
#76 = PRESENTATION_STYLE_ASSIGNMENT (( #33 ) ) ;
#77 = PRESENTATION_LAYER_ASSIGNMENT (  '', '', ( #192 ) ) ;
#78 = CARTESIAN_POINT ( 'NONE',  ( -1.224646799147353700E-16, 3.000000000000000444, 0.000000000000000000 ) ) ;
#79 = AXIS2_PLACEMENT_3D ( 'NONE', #294, #273, #138 ) ;
#80 = CARTESIAN_POINT ( 'NONE',  ( -2.296212748401287726E-17, 0.1875000000000000278, 0.000000000000000000 ) ) ;
#81 = CARTESIAN_POINT ( 'NONE',  ( 2.296212748401286493E-17, 0.000000000000000000, 0.1874999999999999445 ) ) ;
#82 = FILL_AREA_STYLE_COLOUR ( '', #293 ) ;
#83 = STYLED_ITEM ( 'NONE', ( #105 ), #214 ) ;
#84 = LENGTH_MEASURE_WITH_UNIT ( LENGTH_MEASURE( 0.02539999999999999897 ), #331 );
#85 = EDGE_CURVE ( 'NONE', #5, #56, #62, .T. ) ;
#86 = FILL_AREA_STYLE_COLOUR ( '', #364 ) ;
#87 = DIMENSIONAL_EXPONENTS ( 1.000000000000000000, 0.000000000000000000, 0.000000000000000000, 0.000000000000000000, 0.000000000000000000, 0.000000000000000000, 0.000000000000000000 ) ;
#88 = ORIENTED_EDGE ( 'NONE', *, *, #30, .F. ) ;
#89 = DIRECTION ( 'NONE',  ( -0.000000000000000000, -1.000000000000000000, -0.000000000000000000 ) ) ;
#90 = ORIENTED_EDGE ( 'NONE', *, *, #152, .T. ) ;
#91 = EDGE_CURVE ( 'NONE', #251, #58, #292, .T. ) ;
#92 = FILL_AREA_STYLE_COLOUR ( '', #327 ) ;
#93 = EDGE_LOOP ( 'NONE', ( #165, #277 ) ) ;
#94 =( LENGTH_UNIT ( ) NAMED_UNIT ( * ) SI_UNIT ( $, .METRE. ) );
#95 = UNCERTAINTY_MEASURE_WITH_UNIT (LENGTH_MEASURE( 1.000000000000000082E-05 ), #183, 'distance_accuracy_value', 'NONE');
#96 = DIRECTION ( 'NONE',  ( -1.000000000000000000, 0.000000000000000000, 0.000000000000000000 ) ) ;
#97 = ORIENTED_EDGE ( 'NONE', *, *, #354, .T. ) ;
#98 = CARTESIAN_POINT ( 'NONE',  ( 2.449293598294706907E-16, 1.000000000000000000, 0.000000000000000000 ) ) ;
#99 =( NAMED_UNIT ( * ) PLANE_ANGLE_UNIT ( ) SI_UNIT ( $, .RADIAN. ) );
#100 = LINE ( 'NONE', #202, #309 ) ;
#101 = COLOUR_RGB ( '',0.7921568627450980005, 0.8196078431372548767, 0.9333333333333333481 ) ;
#102 = COLOUR_RGB ( '',1.000000000000000000, 0.000000000000000000, 0.000000000000000000 ) ;
#103 = EDGE_CURVE ( 'NONE', #151, #338, #266, .T. ) ;
#104 =( NAMED_UNIT ( * ) SI_UNIT ( $, .STERADIAN. ) SOLID_ANGLE_UNIT ( ) );
#105 = PRESENTATION_STYLE_ASSIGNMENT (( #264 ) ) ;
#106 = PRESENTATION_LAYER_ASSIGNMENT (  '', '', ( #34 ) ) ;
#107 = FILL_AREA_STYLE ('',( #82 ) ) ;
#108 =( GEOMETRIC_REPRESENTATION_CONTEXT ( 3 ) GLOBAL_UNCERTAINTY_ASSIGNED_CONTEXT ( ( #125 ) ) GLOBAL_UNIT_ASSIGNED_CONTEXT ( ( #236, #8, #104 ) ) REPRESENTATION_CONTEXT ( 'NONE', 'WORKASPACE' ) );
#109 =( CONVERSION_BASED_UNIT ( 'INCH', #18 ) LENGTH_UNIT ( ) NAMED_UNIT ( #330 ) );
#110 = DIMENSIONAL_EXPONENTS ( 1.000000000000000000, 0.000000000000000000, 0.000000000000000000, 0.000000000000000000, 0.000000000000000000, 0.000000000000000000, 0.000000000000000000 ) ;
#111 = AXIS2_PLACEMENT_3D ( 'NONE', #250, #89, #52 ) ;
#112 = AXIS2_PLACEMENT_3D ( 'NONE', #136, #159, #360 ) ;
#113 = ADVANCED_FACE ( 'NONE', ( #4 ), #119, .T. ) ;
#114 = SURFACE_SIDE_STYLE ('',( #368 ) ) ;
#115 = ORIENTED_EDGE ( 'NONE', *, *, #85, .T. ) ;
#116 = CARTESIAN_POINT ( 'NONE',  ( 0.000000000000000000, 0.1875000000000000555, 0.000000000000000000 ) ) ;
#117 = AXIS2_PLACEMENT_3D ( 'NONE', #122, #341, #190 ) ;
#118 = ORIENTED_EDGE ( 'NONE', *, *, #43, .F. ) ;
#119 = CYLINDRICAL_SURFACE ( 'NONE', #117, 0.1874999999999998335 ) ;
#120 = VERTEX_POINT ( 'NONE', #60 ) ;
#121 = CARTESIAN_POINT ( 'NONE',  ( -1.224646799147353700E-16, 3.000000000000000444, 0.000000000000000000 ) ) ;
#122 = CARTESIAN_POINT ( 'NONE',  ( -1.224646799147353700E-16, 3.000000000000000444, 0.000000000000000000 ) ) ;
#123 = VECTOR ( 'NONE', #27, 39.37007874015748143 ) ;
#124 = DIRECTION ( 'NONE',  ( 0.000000000000000000, 0.000000000000000000, -1.000000000000000000 ) ) ;
#125 = UNCERTAINTY_MEASURE_WITH_UNIT (LENGTH_MEASURE( 1.000000000000000082E-05 ), #236, 'distance_accuracy_value', 'NONE');
#126 = CARTESIAN_POINT ( 'NONE',  ( -2.296212748401287726E-17, 0.1875000000000000278, 0.000000000000000000 ) ) ;
#127 = CLOSED_SHELL ( 'NONE', ( #113, #290, #59, #329 ) ) ;
#128 = MECHANICAL_DESIGN_GEOMETRIC_PRESENTATION_REPRESENTATION (  '', ( #70 ), #212 ) ;
#129 = FILL_AREA_STYLE_COLOUR ( '', #102 ) ;
#130 = FILL_AREA_STYLE ('',( #92 ) ) ;
#131 = PLANE ( 'NONE',  #219 ) ;
#132 = FACE_OUTER_BOUND ( 'NONE', #169, .T. ) ;
#133 = ADVANCED_FACE ( 'NONE', ( #246 ), #164, .T. ) ;
#134 = CLOSED_SHELL ( 'NONE', ( #362, #235, #133, #214, #170 ) ) ;
#135 =( NAMED_UNIT ( * ) SI_UNIT ( $, .STERADIAN. ) SOLID_ANGLE_UNIT ( ) );
#136 = CARTESIAN_POINT ( 'NONE',  ( 2.449293598294708386E-16, 1.000000000000000000, 0.000000000000000000 ) ) ;
#137 =( NAMED_UNIT ( * ) PLANE_ANGLE_UNIT ( ) SI_UNIT ( $, .RADIAN. ) );
#138 = DIRECTION ( 'NONE',  ( 1.000000000000000000, 0.000000000000000000, 0.000000000000000000 ) ) ;
#139 = AXIS2_PLACEMENT_3D ( 'NONE', #372, #303, #276 ) ;
#140 = AXIS2_PLACEMENT_3D ( 'NONE', #78, #295, #269 ) ;
#141 =( NAMED_UNIT ( * ) SI_UNIT ( $, .STERADIAN. ) SOLID_ANGLE_UNIT ( ) );
#142 = ORIENTED_EDGE ( 'NONE', *, *, #152, .F. ) ;
#143 = CARTESIAN_POINT ( 'NONE',  ( 0.1874999999999999722, 0.1875000000000000555, 0.000000000000000000 ) ) ;
#144 = EDGE_LOOP ( 'NONE', ( #282, #342, #118, #226 ) ) ;
#145 = EDGE_CURVE ( 'NONE', #120, #373, #356, .T. ) ;
#146 = DIRECTION ( 'NONE',  ( 0.000000000000000000, 0.000000000000000000, -1.000000000000000000 ) ) ;
#147 = ORIENTED_EDGE ( 'NONE', *, *, #3, .T. ) ;
#148 = ORIENTED_EDGE ( 'NONE', *, *, #103, .F. ) ;
#149 = APPLICATION_CONTEXT ( 'automotive_design' ) ;
#150 = DIRECTION ( 'NONE',  ( -1.000000000000000000, 0.000000000000000000, 0.000000000000000000 ) ) ;
#151 = VERTEX_POINT ( 'NONE', #143 ) ;
#152 = EDGE_CURVE ( 'NONE', #56, #151, #275, .T. ) ;
#153 = CIRCLE ( 'NONE', #112, 0.1874999999999996669 ) ;
#154 = DIRECTION ( 'NONE',  ( 1.000000000000000000, 1.836970198721030427E-16, 0.000000000000000000 ) ) ;
#155 = DIRECTION ( 'NONE',  ( -0.000000000000000000, -1.000000000000000000, -0.000000000000000000 ) ) ;
#156 =( NAMED_UNIT ( * ) SI_UNIT ( $, .STERADIAN. ) SOLID_ANGLE_UNIT ( ) );
#157 = MECHANICAL_DESIGN_GEOMETRIC_PRESENTATION_REPRESENTATION (  '', ( #6 ), #186 ) ;
#158 = FACE_OUTER_BOUND ( 'NONE', #144, .T. ) ;
#159 = DIRECTION ( 'NONE',  ( -1.836970198721030674E-16, 1.000000000000000000, -0.000000000000000000 ) ) ;
#160 = SURFACE_STYLE_USAGE ( .BOTH. , #359 ) ;
#161 = EDGE_CURVE ( 'NONE', #245, #120, #337, .T. ) ;
#162 = COLOUR_RGB ( '',1.000000000000000000, 0.000000000000000000, 0.000000000000000000 ) ;
#163 = DIMENSIONAL_EXPONENTS ( 1.000000000000000000, 0.000000000000000000, 0.000000000000000000, 0.000000000000000000, 0.000000000000000000, 0.000000000000000000, 0.000000000000000000 ) ;
#164 = PLANE ( 'NONE',  #139 ) ;
#165 = ORIENTED_EDGE ( 'NONE', *, *, #91, .F. ) ;
#166 = PRODUCT_RELATED_PRODUCT_CATEGORY ( 'part', '', ( #325 ) ) ;
#167 = CARTESIAN_POINT ( 'NONE',  ( 2.449293598294708386E-16, 1.000000000000000000, 0.000000000000000000 ) ) ;
#168 = SURFACE_STYLE_USAGE ( .BOTH. , #114 ) ;
#169 = EDGE_LOOP ( 'NONE', ( #346, #172 ) ) ;
#170 = ADVANCED_FACE ( 'NONE', ( #222 ), #179, .T. ) ;
#171 = DIRECTION ( 'NONE',  ( -0.000000000000000000, -1.000000000000000000, -0.000000000000000000 ) ) ;
#172 = ORIENTED_EDGE ( 'NONE', *, *, #274, .F. ) ;
#173 = ORIENTED_EDGE ( 'NONE', *, *, #10, .T. ) ;
#174 = DIRECTION ( 'NONE',  ( 1.836970198721030427E-16, -1.000000000000000000, 0.000000000000000000 ) ) ;
#175 = FILL_AREA_STYLE_COLOUR ( '', #232 ) ;
#176 =( GEOMETRIC_REPRESENTATION_CONTEXT ( 3 ) GLOBAL_UNCERTAINTY_ASSIGNED_CONTEXT ( ( #95 ) ) GLOBAL_UNIT_ASSIGNED_CONTEXT ( ( #183, #296, #241 ) ) REPRESENTATION_CONTEXT ( 'NONE', 'WORKASPACE' ) );
#177 = SPHERICAL_SURFACE ( 'NONE', #180, 0.1875000000000000278 ) ;
#178 = SURFACE_STYLE_FILL_AREA ( #196 ) ;
#179 = SPHERICAL_SURFACE ( 'NONE', #42, 0.1875000000000000278 ) ;
#180 = AXIS2_PLACEMENT_3D ( 'NONE', #126, #263, #315 ) ;
#181 = UNCERTAINTY_MEASURE_WITH_UNIT (LENGTH_MEASURE( 1.000000000000000082E-05 ), #65, 'distance_accuracy_value', 'NONE');
#182 = DIRECTION ( 'NONE',  ( -0.000000000000000000, -1.000000000000000000, -0.000000000000000000 ) ) ;
#183 =( CONVERSION_BASED_UNIT ( 'INCH', #84 ) LENGTH_UNIT ( ) NAMED_UNIT ( #26 ) );
#184 =( LENGTH_UNIT ( ) NAMED_UNIT ( * ) SI_UNIT ( $, .METRE. ) );
#185 = DIRECTION ( 'NONE',  ( 0.000000000000000000, 0.000000000000000000, -1.000000000000000000 ) ) ;
#186 =( GEOMETRIC_REPRESENTATION_CONTEXT ( 3 ) GLOBAL_UNCERTAINTY_ASSIGNED_CONTEXT ( ( #75 ) ) GLOBAL_UNIT_ASSIGNED_CONTEXT ( ( #237, #16, #206 ) ) REPRESENTATION_CONTEXT ( 'NONE', 'WORKASPACE' ) );
#187 = PRESENTATION_STYLE_ASSIGNMENT (( #168 ) ) ;
#188 = CARTESIAN_POINT ( 'NONE',  ( 0.000000000000000000, 0.1875000000000000555, 0.000000000000000000 ) ) ;
#189 = ORIENTED_EDGE ( 'NONE', *, *, #161, .F. ) ;
#190 = DIRECTION ( 'NONE',  ( -1.000000000000000000, 0.000000000000000000, 0.000000000000000000 ) ) ;
#191 = LENGTH_MEASURE_WITH_UNIT ( LENGTH_MEASURE( 0.02539999999999999897 ), #94 );
#192 = STYLED_ITEM ( 'NONE', ( #187 ), #133 ) ;
#193 = AXIS2_PLACEMENT_3D ( 'NONE', #240, #51, #185 ) ;
#194 = CARTESIAN_POINT ( 'NONE',  ( -0.1875000000000000278, 0.1875000000000000555, 2.296212748401287109E-17 ) ) ;
#195 = EDGE_LOOP ( 'NONE', ( #147, #97, #340, #189 ) ) ;
#196 = FILL_AREA_STYLE ('',( #72 ) ) ;
#197 = FACE_OUTER_BOUND ( 'NONE', #253, .T. ) ;
#198 = CARTESIAN_POINT ( 'NONE',  ( 0.000000000000000000, 0.000000000000000000, 0.000000000000000000 ) ) ;
#199 = VECTOR ( 'NONE', #316, 39.37007874015748143 ) ;
#200 = CARTESIAN_POINT ( 'NONE',  ( 0.1874999999999999167, 3.000000000000000444, 0.000000000000000000 ) ) ;
#201 = SURFACE_SIDE_STYLE ('',( #74 ) ) ;
#202 = CARTESIAN_POINT ( 'NONE',  ( 0.000000000000000000, 0.000000000000000000, -0.1874999999999999445 ) ) ;
#203 =( NAMED_UNIT ( * ) SI_UNIT ( $, .STERADIAN. ) SOLID_ANGLE_UNIT ( ) );
#204 = DIRECTION ( 'NONE',  ( -1.836970198721030427E-16, 1.000000000000000000, 0.000000000000000000 ) ) ;
#205 = PRODUCT_DEFINITION ( 'UNKNOWN', '', #328, #321 ) ;
#206 =( NAMED_UNIT ( * ) SI_UNIT ( $, .STERADIAN. ) SOLID_ANGLE_UNIT ( ) );
#207 = AXIS2_PLACEMENT_3D ( 'NONE', #116, #220, #305 ) ;
#208 = SURFACE_STYLE_USAGE ( .BOTH. , #300 ) ;
#209 = SURFACE_STYLE_FILL_AREA ( #243 ) ;
#210 = CARTESIAN_POINT ( 'NONE',  ( 0.000000000000000000, 1.000000000000000000, -0.1874999999999999167 ) ) ;
#211 = PRESENTATION_STYLE_ASSIGNMENT (( #208 ) ) ;
#212 =( GEOMETRIC_REPRESENTATION_CONTEXT ( 3 ) GLOBAL_UNCERTAINTY_ASSIGNED_CONTEXT ( ( #345 ) ) GLOBAL_UNIT_ASSIGNED_CONTEXT ( ( #109, #137, #135 ) ) REPRESENTATION_CONTEXT ( 'NONE', 'WORKASPACE' ) );
#213 = DIRECTION ( 'NONE',  ( -0.000000000000000000, -1.000000000000000000, -0.000000000000000000 ) ) ;
#214 = ADVANCED_FACE ( 'NONE', ( #339 ), #289, .T. ) ;
#215 = APPLICATION_PROTOCOL_DEFINITION ( 'draft international standard', 'automotive_design', 1998, #149 ) ;
#216 = FACE_OUTER_BOUND ( 'NONE', #2, .T. ) ;
#217 = ORIENTED_EDGE ( 'NONE', *, *, #354, .F. ) ;
#218 = AXIS2_PLACEMENT_3D ( 'NONE', #167, #279, #96 ) ;
#219 = AXIS2_PLACEMENT_3D ( 'NONE', #98, #204, #322 ) ;
#220 = DIRECTION ( 'NONE',  ( -0.000000000000000000, -1.000000000000000000, -0.000000000000000000 ) ) ;
#221 = ORIENTED_EDGE ( 'NONE', *, *, #85, .F. ) ;
#222 = FACE_OUTER_BOUND ( 'NONE', #31, .T. ) ;
#223 = ORIENTED_EDGE ( 'NONE', *, *, #145, .T. ) ;
#224 = DIRECTION ( 'NONE',  ( -1.000000000000000000, 0.000000000000000000, 0.000000000000000000 ) ) ;
#225 = UNCERTAINTY_MEASURE_WITH_UNIT (LENGTH_MEASURE( 1.000000000000000082E-05 ), #36, 'distance_accuracy_value', 'NONE');
#226 = ORIENTED_EDGE ( 'NONE', *, *, #103, .T. ) ;
#227 = CARTESIAN_POINT ( 'NONE',  ( -1.224646799147353700E-16, 3.000000000000000444, 0.000000000000000000 ) ) ;
#228 = PRESENTATION_LAYER_ASSIGNMENT (  '', '', ( #69 ) ) ;
#229 =( GEOMETRIC_REPRESENTATION_CONTEXT ( 3 ) GLOBAL_UNCERTAINTY_ASSIGNED_CONTEXT ( ( #260 ) ) GLOBAL_UNIT_ASSIGNED_CONTEXT ( ( #349, #319, #203 ) ) REPRESENTATION_CONTEXT ( 'NONE', 'WORKASPACE' ) );
#230 = SURFACE_STYLE_FILL_AREA ( #15 ) ;
#231 = SURFACE_STYLE_FILL_AREA ( #287 ) ;
#232 = COLOUR_RGB ( '',1.000000000000000000, 0.000000000000000000, 0.000000000000000000 ) ;
#233 = CARTESIAN_POINT ( 'NONE',  ( -2.296212748401287726E-17, 0.1875000000000000278, 0.000000000000000000 ) ) ;
#234 = LINE ( 'NONE', #81, #370 ) ;
#235 = ADVANCED_FACE ( 'NONE', ( #9 ), #67, .T. ) ;
#236 =( CONVERSION_BASED_UNIT ( 'INCH', #258 ) LENGTH_UNIT ( ) NAMED_UNIT ( #357 ) );
#237 =( CONVERSION_BASED_UNIT ( 'INCH', #272 ) LENGTH_UNIT ( ) NAMED_UNIT ( #366 ) );
#238 = UNCERTAINTY_MEASURE_WITH_UNIT (LENGTH_MEASURE( 1.000000000000000082E-05 ), #248, 'distance_accuracy_value', 'NONE');
#239 = PRESENTATION_STYLE_ASSIGNMENT (( #160 ) ) ;
#240 = CARTESIAN_POINT ( 'NONE',  ( 0.000000000000000000, 0.000000000000000000, 0.000000000000000000 ) ) ;
#241 =( NAMED_UNIT ( * ) SI_UNIT ( $, .STERADIAN. ) SOLID_ANGLE_UNIT ( ) );
#242 = CARTESIAN_POINT ( 'NONE',  ( -0.1874999999999994449, 1.000000000000000000, 0.000000000000000000 ) ) ;
#243 = FILL_AREA_STYLE ('',( #301 ) ) ;
#244 = PRESENTATION_LAYER_ASSIGNMENT (  '', '', ( #70 ) ) ;
#245 = VERTEX_POINT ( 'NONE', #242 ) ;
#246 = FACE_OUTER_BOUND ( 'NONE', #93, .T. ) ;
#247 = ORIENTED_EDGE ( 'NONE', *, *, #259, .T. ) ;
#248 =( CONVERSION_BASED_UNIT ( 'INCH', #191 ) LENGTH_UNIT ( ) NAMED_UNIT ( #110 ) );
#249 = VERTEX_POINT ( 'NONE', #355 ) ;
#250 = CARTESIAN_POINT ( 'NONE',  ( 0.000000000000000000, 0.1875000000000000555, 0.000000000000000000 ) ) ;
#251 = VERTEX_POINT ( 'NONE', #210 ) ;
#252 = CARTESIAN_POINT ( 'NONE',  ( 0.000000000000000000, 1.000000000000000000, 0.000000000000000000 ) ) ;
#253 = EDGE_LOOP ( 'NONE', ( #223, #312 ) ) ;
#254 =( NAMED_UNIT ( * ) SI_UNIT ( $, .STERADIAN. ) SOLID_ANGLE_UNIT ( ) );
#255 = CIRCLE ( 'NONE', #12, 0.1875000000000000278 ) ;
#256 = PRESENTATION_LAYER_ASSIGNMENT (  '', '', ( #6 ) ) ;
#257 = MANIFOLD_SOLID_BREP ( 'Revolve - Tool Body (Straight Shanked)', #127 ) ;
#258 = LENGTH_MEASURE_WITH_UNIT ( LENGTH_MEASURE( 0.02539999999999999897 ), #44 );
#259 = EDGE_CURVE ( 'NONE', #58, #251, #19, .T. ) ;
#260 = UNCERTAINTY_MEASURE_WITH_UNIT (LENGTH_MEASURE( 1.000000000000000082E-05 ), #349, 'distance_accuracy_value', 'NONE');
#261 = LINE ( 'NONE', #286, #199 ) ;
#262 =( LENGTH_UNIT ( ) NAMED_UNIT ( * ) SI_UNIT ( $, .METRE. ) );
#263 = DIRECTION ( 'NONE',  ( 0.000000000000000000, 0.000000000000000000, 1.000000000000000000 ) ) ;
#264 = SURFACE_STYLE_USAGE ( .BOTH. , #40 ) ;
#265 = EDGE_CURVE ( 'NONE', #5, #284, #268, .T. ) ;
#266 = CIRCLE ( 'NONE', #111, 0.1874999999999999722 ) ;
#267 = AXIS2_PLACEMENT_3D ( 'NONE', #49, #46, #333 ) ;
#268 = CIRCLE ( 'NONE', #299, 0.1875000000000000278 ) ;
#269 = DIRECTION ( 'NONE',  ( -1.000000000000000000, 0.000000000000000000, 0.000000000000000000 ) ) ;
#270 =( GEOMETRIC_REPRESENTATION_CONTEXT ( 3 ) GLOBAL_UNCERTAINTY_ASSIGNED_CONTEXT ( ( #238 ) ) GLOBAL_UNIT_ASSIGNED_CONTEXT ( ( #248, #22, #141 ) ) REPRESENTATION_CONTEXT ( 'NONE', 'WORKASPACE' ) );
#271 = CIRCLE ( 'NONE', #140, 0.1875000000000000555 ) ;
#272 = LENGTH_MEASURE_WITH_UNIT ( LENGTH_MEASURE( 0.02539999999999999897 ), #184 );
#273 = DIRECTION ( 'NONE',  ( 0.000000000000000000, 0.000000000000000000, 1.000000000000000000 ) ) ;
#274 = EDGE_CURVE ( 'NONE', #249, #245, #153, .T. ) ;
#275 = CIRCLE ( 'NONE', #207, 0.1874999999999999722 ) ;
#276 = DIRECTION ( 'NONE',  ( 0.000000000000000000, -0.000000000000000000, 1.000000000000000000 ) ) ;
#277 = ORIENTED_EDGE ( 'NONE', *, *, #259, .F. ) ;
#278 = CARTESIAN_POINT ( 'NONE',  ( -0.1874999999999999722, 3.000000000000000444, 0.000000000000000000 ) ) ;
#279 = DIRECTION ( 'NONE',  ( -1.836970198721030674E-16, 1.000000000000000000, -0.000000000000000000 ) ) ;
#280 = MECHANICAL_DESIGN_GEOMETRIC_PRESENTATION_REPRESENTATION (  '', ( #50 ), #108 ) ;
#281 = DIRECTION ( 'NONE',  ( -0.000000000000000000, -1.000000000000000000, -0.000000000000000000 ) ) ;
#282 = ORIENTED_EDGE ( 'NONE', *, *, #38, .T. ) ;
#283 = DIRECTION ( 'NONE',  ( 0.000000000000000000, 0.000000000000000000, -1.000000000000000000 ) ) ;
#284 = VERTEX_POINT ( 'NONE', #326 ) ;
#285 = EDGE_CURVE ( 'NONE', #373, #120, #271, .T. ) ;
#286 = CARTESIAN_POINT ( 'NONE',  ( 0.1874999999999996947, 3.000000000000000444, 2.296212748401285260E-17 ) ) ;
#287 = FILL_AREA_STYLE ('',( #175 ) ) ;
#288 = MECHANICAL_DESIGN_GEOMETRIC_PRESENTATION_REPRESENTATION (  '', ( #69 ), #176 ) ;
#289 = CYLINDRICAL_SURFACE ( 'NONE', #371, 0.1874999999999999445 ) ;
#290 = ADVANCED_FACE ( 'NONE', ( #132 ), #131, .F. ) ;
#291 = DIRECTION ( 'NONE',  ( 0.000000000000000000, 0.000000000000000000, 1.000000000000000000 ) ) ;
#292 = CIRCLE ( 'NONE', #298, 0.1874999999999999167 ) ;
#293 = COLOUR_RGB ( '',0.7921568627450980005, 0.8196078431372548767, 0.9333333333333333481 ) ;
#294 = CARTESIAN_POINT ( 'NONE',  ( 0.000000000000000000, 0.000000000000000000, 0.000000000000000000 ) ) ;
#295 = DIRECTION ( 'NONE',  ( -1.836970198721030674E-16, 1.000000000000000000, -0.000000000000000000 ) ) ;
#296 =( NAMED_UNIT ( * ) PLANE_ANGLE_UNIT ( ) SI_UNIT ( $, .RADIAN. ) );
#297 = ADVANCED_BREP_SHAPE_REPRESENTATION ( '56337', ( #17, #257, #79 ), #229 ) ;
#298 = AXIS2_PLACEMENT_3D ( 'NONE', #252, #281, #146 ) ;
#299 = AXIS2_PLACEMENT_3D ( 'NONE', #80, #45, #47 ) ;
#300 = SURFACE_SIDE_STYLE ('',( #358 ) ) ;
#301 = FILL_AREA_STYLE_COLOUR ( '', #101 ) ;
#302 = MECHANICAL_DESIGN_GEOMETRIC_PRESENTATION_REPRESENTATION (  '', ( #34 ), #365 ) ;
#303 = DIRECTION ( 'NONE',  ( 0.000000000000000000, 1.000000000000000000, 0.000000000000000000 ) ) ;
#304 = ORIENTED_EDGE ( 'NONE', *, *, #285, .F. ) ;
#305 = DIRECTION ( 'NONE',  ( 0.000000000000000000, 0.000000000000000000, -1.000000000000000000 ) ) ;
#306 = ORIENTED_EDGE ( 'NONE', *, *, #274, .T. ) ;
#307 = FILL_AREA_STYLE ('',( #86 ) ) ;
#308 = ORIENTED_EDGE ( 'NONE', *, *, #30, .T. ) ;
#309 = VECTOR ( 'NONE', #41, 39.37007874015748143 ) ;
#310 = AXIS2_PLACEMENT_3D ( 'NONE', #200, #174, #154 ) ;
#311 = CARTESIAN_POINT ( 'NONE',  ( 0.000000000000000000, 0.1875000000000000555, -0.1874999999999999722 ) ) ;
#312 = ORIENTED_EDGE ( 'NONE', *, *, #285, .T. ) ;
#313 = LENGTH_MEASURE_WITH_UNIT ( LENGTH_MEASURE( 0.02539999999999999897 ), #323 );
#314 = ORIENTED_EDGE ( 'NONE', *, *, #10, .F. ) ;
#315 = DIRECTION ( 'NONE',  ( 1.000000000000000000, 0.000000000000000000, 0.000000000000000000 ) ) ;
#316 = DIRECTION ( 'NONE',  ( -1.836970198721030427E-16, 1.000000000000000000, -0.000000000000000000 ) ) ;
#317 = SURFACE_SIDE_STYLE ('',( #231 ) ) ;
#318 = AXIS2_PLACEMENT_3D ( 'NONE', #121, #64, #224 ) ;
#319 =( NAMED_UNIT ( * ) PLANE_ANGLE_UNIT ( ) SI_UNIT ( $, .RADIAN. ) );
#320 =( NAMED_UNIT ( * ) PLANE_ANGLE_UNIT ( ) SI_UNIT ( $, .RADIAN. ) );
#321 = PRODUCT_DEFINITION_CONTEXT ( 'detailed design', #149, 'design' ) ;
#322 = DIRECTION ( 'NONE',  ( -1.000000000000000000, -1.836970198721030427E-16, 0.000000000000000000 ) ) ;
#323 =( LENGTH_UNIT ( ) NAMED_UNIT ( * ) SI_UNIT ( $, .METRE. ) );
#324 = APPLICATION_PROTOCOL_DEFINITION ( 'draft international standard', 'automotive_design', 1998, #332 ) ;
#325 = PRODUCT ( '56337', '56337', '', ( #7 ) ) ;
#326 = CARTESIAN_POINT ( 'NONE',  ( -1.148106374200643863E-17, 0.000000000000000000, 0.000000000000000000 ) ) ;
#327 = COLOUR_RGB ( '',1.000000000000000000, 0.000000000000000000, 0.000000000000000000 ) ;
#328 = PRODUCT_DEFINITION_FORMATION_WITH_SPECIFIED_SOURCE ( 'ANY', '', #325, .NOT_KNOWN. ) ;
#329 = ADVANCED_FACE ( 'NONE', ( #197 ), #14, .F. ) ;
#330 = DIMENSIONAL_EXPONENTS ( 1.000000000000000000, 0.000000000000000000, 0.000000000000000000, 0.000000000000000000, 0.000000000000000000, 0.000000000000000000, 0.000000000000000000 ) ;
#331 =( LENGTH_UNIT ( ) NAMED_UNIT ( * ) SI_UNIT ( $, .METRE. ) );
#332 = APPLICATION_CONTEXT ( 'automotive_design' ) ;
#333 = DIRECTION ( 'NONE',  ( 0.000000000000000000, 0.000000000000000000, -1.000000000000000000 ) ) ;
#334 = CYLINDRICAL_SURFACE ( 'NONE', #318, 0.1874999999999998335 ) ;
#335 = ORIENTED_EDGE ( 'NONE', *, *, #91, .T. ) ;
#336 = PRESENTATION_LAYER_ASSIGNMENT (  '', '', ( #83 ) ) ;
#337 = LINE ( 'NONE', #278, #123 ) ;
#338 = VERTEX_POINT ( 'NONE', #39 ) ;
#339 = FACE_OUTER_BOUND ( 'NONE', #66, .T. ) ;
#340 = ORIENTED_EDGE ( 'NONE', *, *, #145, .F. ) ;
#341 = DIRECTION ( 'NONE',  ( -1.836970198721030674E-16, 1.000000000000000000, -0.000000000000000000 ) ) ;
#342 = ORIENTED_EDGE ( 'NONE', *, *, #265, .T. ) ;
#343 = AXIS2_PLACEMENT_3D ( 'NONE', #227, #24, #55 ) ;
#344 =( LENGTH_UNIT ( ) NAMED_UNIT ( * ) SI_UNIT ( $, .METRE. ) );
#345 = UNCERTAINTY_MEASURE_WITH_UNIT (LENGTH_MEASURE( 1.000000000000000082E-05 ), #109, 'distance_accuracy_value', 'NONE');
#346 = ORIENTED_EDGE ( 'NONE', *, *, #3, .F. ) ;
#347 = CARTESIAN_POINT ( 'NONE',  ( 0.1874999999999998890, 3.000000000000000444, 2.296212748401286493E-17 ) ) ;
#348 = SURFACE_STYLE_USAGE ( .BOTH. , #201 ) ;
#349 =( CONVERSION_BASED_UNIT ( 'INCH', #353 ) LENGTH_UNIT ( ) NAMED_UNIT ( #163 ) );
#350 = PRESENTATION_STYLE_ASSIGNMENT (( #71 ) ) ;
#351 = PRESENTATION_LAYER_ASSIGNMENT (  '', '', ( #50 ) ) ;
#352 = PRESENTATION_STYLE_ASSIGNMENT (( #348 ) ) ;
#353 = LENGTH_MEASURE_WITH_UNIT ( LENGTH_MEASURE( 0.02539999999999999897 ), #37 );
#354 = EDGE_CURVE ( 'NONE', #249, #373, #261, .T. ) ;
#355 = CARTESIAN_POINT ( 'NONE',  ( 0.1874999999999998890, 1.000000000000000000, 2.296212748401286493E-17 ) ) ;
#356 = CIRCLE ( 'NONE', #343, 0.1875000000000000555 ) ;
#357 = DIMENSIONAL_EXPONENTS ( 1.000000000000000000, 0.000000000000000000, 0.000000000000000000, 0.000000000000000000, 0.000000000000000000, 0.000000000000000000, 0.000000000000000000 ) ;
#358 = SURFACE_STYLE_FILL_AREA ( #107 ) ;
#359 = SURFACE_SIDE_STYLE ('',( #209 ) ) ;
#360 = DIRECTION ( 'NONE',  ( -1.000000000000000000, 0.000000000000000000, 0.000000000000000000 ) ) ;
#361 = DIMENSIONAL_EXPONENTS ( 1.000000000000000000, 0.000000000000000000, 0.000000000000000000, 0.000000000000000000, 0.000000000000000000, 0.000000000000000000, 0.000000000000000000 ) ;
#362 = ADVANCED_FACE ( 'NONE', ( #158 ), #177, .T. ) ;
#363 = DIRECTION ( 'NONE',  ( 0.000000000000000000, 0.000000000000000000, -1.000000000000000000 ) ) ;
#364 = COLOUR_RGB ( '',1.000000000000000000, 0.000000000000000000, 0.000000000000000000 ) ;
#365 =( GEOMETRIC_REPRESENTATION_CONTEXT ( 3 ) GLOBAL_UNCERTAINTY_ASSIGNED_CONTEXT ( ( #225 ) ) GLOBAL_UNIT_ASSIGNED_CONTEXT ( ( #36, #320, #156 ) ) REPRESENTATION_CONTEXT ( 'NONE', 'WORKASPACE' ) );
#366 = DIMENSIONAL_EXPONENTS ( 1.000000000000000000, 0.000000000000000000, 0.000000000000000000, 0.000000000000000000, 0.000000000000000000, 0.000000000000000000, 0.000000000000000000 ) ;
#367 = ORIENTED_EDGE ( 'NONE', *, *, #161, .T. ) ;
#368 = SURFACE_STYLE_FILL_AREA ( #307 ) ;
#369 = PRODUCT_DEFINITION_SHAPE ( 'NONE', 'NONE',  #205 ) ;
#370 = VECTOR ( 'NONE', #213, 39.37007874015748143 ) ;
#371 = AXIS2_PLACEMENT_3D ( 'NONE', #198, #155, #124 ) ;
#372 = CARTESIAN_POINT ( 'NONE',  ( 0.000000000000000000, 1.000000000000000000, 0.000000000000000000 ) ) ;
#373 = VERTEX_POINT ( 'NONE', #347 ) ;
ENDSEC;
END-ISO-10303-21;
