ISO-10303-21;
HEADER;
FILE_DESCRIPTION (( 'STEP AP214' ),
    '1' );
FILE_NAME ('59277.STEP',
    '2023-06-22T22:50:23',
    ( '' ),
    ( '' ),
    'SwSTEP 2.0',
    'SolidWorks 2023',
    '' );
FILE_SCHEMA (( 'AUTOMOTIVE_DESIGN' ));
ENDSEC;

DATA;
#1 =( LENGTH_UNIT ( ) NAMED_UNIT ( * ) SI_UNIT ( $, .METRE. ) );
#2 = LENGTH_MEASURE_WITH_UNIT ( LENGTH_MEASURE( 0.02539999999999999897 ), #164 );
#3 =( NAMED_UNIT ( * ) PLANE_ANGLE_UNIT ( ) SI_UNIT ( $, .RADIAN. ) );
#4 = DIRECTION ( 'NONE',  ( -0.000000000000000000, -1.000000000000000000, -0.000000000000000000 ) ) ;
#5 =( CONVERSION_BASED_UNIT ( 'INCH', #76 ) LENGTH_UNIT ( ) NAMED_UNIT ( #51 ) );
#6 = DIRECTION ( 'NONE',  ( -1.000000000000000000, 7.347880794884121462E-17, 0.000000000000000000 ) ) ;
#7 = DIRECTION ( 'NONE',  ( -1.000000000000000000, 0.000000000000000000, 0.000000000000000000 ) ) ;
#8 = ORIENTED_EDGE ( 'NONE', *, *, #158, .F. ) ;
#9 =( LENGTH_UNIT ( ) NAMED_UNIT ( * ) SI_UNIT ( $, .METRE. ) );
#10 = CARTESIAN_POINT ( 'NONE',  ( 1.836970198721030427E-16, 4.500000000000000000, 0.000000000000000000 ) ) ;
#11 = FILL_AREA_STYLE ('',( #39 ) ) ;
#12 = PRODUCT_DEFINITION ( 'UNKNOWN', '', #170, #29 ) ;
#13 = STYLED_ITEM ( 'NONE', ( #45 ), #185 ) ;
#14 = DIRECTION ( 'NONE',  ( 7.347880794884121462E-17, 1.000000000000000000, -0.000000000000000000 ) ) ;
#15 = ORIENTED_EDGE ( 'NONE', *, *, #89, .F. ) ;
#16 = CARTESIAN_POINT ( 'NONE',  ( 0.000000000000000000, 2.000000000000000000, 0.000000000000000000 ) ) ;
#17 = EDGE_LOOP ( 'NONE', ( #266, #99 ) ) ;
#18 = CARTESIAN_POINT ( 'NONE',  ( 0.5000000000000001110, 4.500000000000000000, 6.123233995736764803E-17 ) ) ;
#19 = PRODUCT_DEFINITION_SHAPE ( 'NONE', 'NONE',  #12 ) ;
#20 = COLOUR_RGB ( '',1.000000000000000000, 0.000000000000000000, 0.000000000000000000 ) ;
#21 = DIMENSIONAL_EXPONENTS ( 1.000000000000000000, 0.000000000000000000, 0.000000000000000000, 0.000000000000000000, 0.000000000000000000, 0.000000000000000000, 0.000000000000000000 ) ;
#22 =( LENGTH_UNIT ( ) NAMED_UNIT ( * ) SI_UNIT ( $, .METRE. ) );
#23 = UNCERTAINTY_MEASURE_WITH_UNIT (LENGTH_MEASURE( 1.000000000000000082E-05 ), #264, 'distance_accuracy_value', 'NONE');
#24 = CARTESIAN_POINT ( 'NONE',  ( -0.4999999999999996114, 4.500000000000000000, 0.000000000000000000 ) ) ;
#25 = PRESENTATION_LAYER_ASSIGNMENT (  '', '', ( #137 ) ) ;
#26 = VERTEX_POINT ( 'NONE', #305 ) ;
#27 = FACE_OUTER_BOUND ( 'NONE', #130, .T. ) ;
#28 = CARTESIAN_POINT ( 'NONE',  ( 0.000000000000000000, 0.000000000000000000, 0.000000000000000000 ) ) ;
#29 = PRODUCT_DEFINITION_CONTEXT ( 'detailed design', #226, 'design' ) ;
#30 = LINE ( 'NONE', #103, #212 ) ;
#31 = CARTESIAN_POINT ( 'NONE',  ( 1.836970198721030427E-16, 4.500000000000000000, 0.000000000000000000 ) ) ;
#32 = ADVANCED_FACE ( 'NONE', ( #80 ), #122, .T. ) ;
#33 = PRESENTATION_STYLE_ASSIGNMENT (( #61 ) ) ;
#34 = SURFACE_SIDE_STYLE ('',( #98 ) ) ;
#35 = UNCERTAINTY_MEASURE_WITH_UNIT (LENGTH_MEASURE( 1.000000000000000082E-05 ), #5, 'distance_accuracy_value', 'NONE');
#36 = CIRCLE ( 'NONE', #241, 0.5000000000000000000 ) ;
#37 =( NAMED_UNIT ( * ) PLANE_ANGLE_UNIT ( ) SI_UNIT ( $, .RADIAN. ) );
#38 = LENGTH_MEASURE_WITH_UNIT ( LENGTH_MEASURE( 0.02539999999999999897 ), #86 );
#39 = FILL_AREA_STYLE_COLOUR ( '', #20 ) ;
#40 = MECHANICAL_DESIGN_GEOMETRIC_PRESENTATION_REPRESENTATION (  '', ( #133 ), #77 ) ;
#41 = CARTESIAN_POINT ( 'NONE',  ( 6.123233995736766036E-17, 0.000000000000000000, 0.5000000000000000000 ) ) ;
#42 = CIRCLE ( 'NONE', #114, 0.5000000000000000000 ) ;
#43 = CARTESIAN_POINT ( 'NONE',  ( -0.4999999999999996669, 4.500000000000000000, 0.000000000000000000 ) ) ;
#44 = ORIENTED_EDGE ( 'NONE', *, *, #232, .F. ) ;
#45 = PRESENTATION_STYLE_ASSIGNMENT (( #257 ) ) ;
#46 = EDGE_CURVE ( 'NONE', #230, #88, #42, .T. ) ;
#47 = ORIENTED_EDGE ( 'NONE', *, *, #269, .F. ) ;
#48 = MANIFOLD_SOLID_BREP ( 'Revolve - Tool Body (Straight Shanked)', #72 ) ;
#49 =( GEOMETRIC_REPRESENTATION_CONTEXT ( 3 ) GLOBAL_UNCERTAINTY_ASSIGNED_CONTEXT ( ( #50 ) ) GLOBAL_UNIT_ASSIGNED_CONTEXT ( ( #145, #129, #124 ) ) REPRESENTATION_CONTEXT ( 'NONE', 'WORKASPACE' ) );
#50 = UNCERTAINTY_MEASURE_WITH_UNIT (LENGTH_MEASURE( 1.000000000000000082E-05 ), #145, 'distance_accuracy_value', 'NONE');
#51 = DIMENSIONAL_EXPONENTS ( 1.000000000000000000, 0.000000000000000000, 0.000000000000000000, 0.000000000000000000, 0.000000000000000000, 0.000000000000000000, 0.000000000000000000 ) ;
#52 = PRESENTATION_LAYER_ASSIGNMENT (  '', '', ( #186 ) ) ;
#53 =( NAMED_UNIT ( * ) SI_UNIT ( $, .STERADIAN. ) SOLID_ANGLE_UNIT ( ) );
#54 = APPLICATION_PROTOCOL_DEFINITION ( 'draft international standard', 'automotive_design', 1998, #255 ) ;
#55 = DIRECTION ( 'NONE',  ( -1.000000000000000000, 0.000000000000000000, 0.000000000000000000 ) ) ;
#56 = SURFACE_SIDE_STYLE ('',( #268 ) ) ;
#57 = SURFACE_STYLE_USAGE ( .BOTH. , #270 ) ;
#58 = CARTESIAN_POINT ( 'NONE',  ( 0.5000000000000001110, 4.500000000000000000, 6.123233995736766036E-17 ) ) ;
#59 = CIRCLE ( 'NONE', #111, 0.5000000000000000000 ) ;
#60 = ORIENTED_EDGE ( 'NONE', *, *, #217, .F. ) ;
#61 = SURFACE_STYLE_USAGE ( .BOTH. , #165 ) ;
#62 = DIRECTION ( 'NONE',  ( -0.000000000000000000, -1.000000000000000000, -0.000000000000000000 ) ) ;
#63 = SURFACE_SIDE_STYLE ('',( #276 ) ) ;
#64 = FACE_OUTER_BOUND ( 'NONE', #282, .T. ) ;
#65 = AXIS2_PLACEMENT_3D ( 'NONE', #146, #107, #134 ) ;
#66 = ORIENTED_EDGE ( 'NONE', *, *, #229, .F. ) ;
#67 = PRODUCT_RELATED_PRODUCT_CATEGORY ( 'part', '', ( #208 ) ) ;
#68 = ORIENTED_EDGE ( 'NONE', *, *, #269, .T. ) ;
#69 = LINE ( 'NONE', #18, #225 ) ;
#70 = ORIENTED_EDGE ( 'NONE', *, *, #46, .F. ) ;
#71 = DIRECTION ( 'NONE',  ( 7.347880794884121462E-17, 1.000000000000000000, -0.000000000000000000 ) ) ;
#72 = CLOSED_SHELL ( 'NONE', ( #96, #297, #156, #125 ) ) ;
#73 =( GEOMETRIC_REPRESENTATION_CONTEXT ( 3 ) GLOBAL_UNCERTAINTY_ASSIGNED_CONTEXT ( ( #307 ) ) GLOBAL_UNIT_ASSIGNED_CONTEXT ( ( #139, #207, #234 ) ) REPRESENTATION_CONTEXT ( 'NONE', 'WORKASPACE' ) );
#74 = AXIS2_PLACEMENT_3D ( 'NONE', #28, #62, #127 ) ;
#75 = CARTESIAN_POINT ( 'NONE',  ( 1.836970198721030427E-16, 4.500000000000000000, 0.000000000000000000 ) ) ;
#76 = LENGTH_MEASURE_WITH_UNIT ( LENGTH_MEASURE( 0.02539999999999999897 ), #9 );
#77 =( GEOMETRIC_REPRESENTATION_CONTEXT ( 3 ) GLOBAL_UNCERTAINTY_ASSIGNED_CONTEXT ( ( #304 ) ) GLOBAL_UNIT_ASSIGNED_CONTEXT ( ( #78, #245, #118 ) ) REPRESENTATION_CONTEXT ( 'NONE', 'WORKASPACE' ) );
#78 =( CONVERSION_BASED_UNIT ( 'INCH', #193 ) LENGTH_UNIT ( ) NAMED_UNIT ( #302 ) );
#79 = FILL_AREA_STYLE ('',( #242 ) ) ;
#80 = FACE_OUTER_BOUND ( 'NONE', #299, .T. ) ;
#81 = FACE_OUTER_BOUND ( 'NONE', #17, .T. ) ;
#82 = ORIENTED_EDGE ( 'NONE', *, *, #261, .F. ) ;
#83 = DIRECTION ( 'NONE',  ( 7.347880794884121462E-17, 1.000000000000000000, -0.000000000000000000 ) ) ;
#84 = MECHANICAL_DESIGN_GEOMETRIC_PRESENTATION_REPRESENTATION (  '', ( #308 ), #93 ) ;
#85 = CYLINDRICAL_SURFACE ( 'NONE', #74, 0.5000000000000000000 ) ;
#86 =( LENGTH_UNIT ( ) NAMED_UNIT ( * ) SI_UNIT ( $, .METRE. ) );
#87 = PRESENTATION_LAYER_ASSIGNMENT (  '', '', ( #13 ) ) ;
#88 = VERTEX_POINT ( 'NONE', #197 ) ;
#89 = EDGE_CURVE ( 'NONE', #26, #88, #153, .T. ) ;
#90 = CIRCLE ( 'NONE', #263, 0.5000000000000000000 ) ;
#91 = AXIS2_PLACEMENT_3D ( 'NONE', #126, #294, #6 ) ;
#92 = CLOSED_SHELL ( 'NONE', ( #32, #185, #108, #166 ) ) ;
#93 =( GEOMETRIC_REPRESENTATION_CONTEXT ( 3 ) GLOBAL_UNCERTAINTY_ASSIGNED_CONTEXT ( ( #35 ) ) GLOBAL_UNIT_ASSIGNED_CONTEXT ( ( #5, #3, #288 ) ) REPRESENTATION_CONTEXT ( 'NONE', 'WORKASPACE' ) );
#94 = PLANE ( 'NONE',  #285 ) ;
#95 = CARTESIAN_POINT ( 'NONE',  ( 1.836970198721030427E-16, 4.500000000000000000, 0.000000000000000000 ) ) ;
#96 = ADVANCED_FACE ( 'NONE', ( #277 ), #200, .T. ) ;
#97 =( CONVERSION_BASED_UNIT ( 'INCH', #2 ) LENGTH_UNIT ( ) NAMED_UNIT ( #183 ) );
#98 = SURFACE_STYLE_FILL_AREA ( #11 ) ;
#99 = ORIENTED_EDGE ( 'NONE', *, *, #284, .T. ) ;
#100 =( LENGTH_UNIT ( ) NAMED_UNIT ( * ) SI_UNIT ( $, .METRE. ) );
#101 = PRESENTATION_STYLE_ASSIGNMENT (( #244 ) ) ;
#102 = CARTESIAN_POINT ( 'NONE',  ( -0.5000000000000000000, 2.000000000000000000, 0.000000000000000000 ) ) ;
#103 = CARTESIAN_POINT ( 'NONE',  ( 0.000000000000000000, 0.000000000000000000, -0.5000000000000000000 ) ) ;
#104 = DIRECTION ( 'NONE',  ( -1.000000000000000000, 0.000000000000000000, 0.000000000000000000 ) ) ;
#105 = COLOUR_RGB ( '',1.000000000000000000, 0.000000000000000000, 0.000000000000000000 ) ;
#106 = PRESENTATION_STYLE_ASSIGNMENT (( #131 ) ) ;
#107 = DIRECTION ( 'NONE',  ( -0.000000000000000000, -1.000000000000000000, -0.000000000000000000 ) ) ;
#108 = ADVANCED_FACE ( 'NONE', ( #64 ), #85, .T. ) ;
#109 = ORIENTED_EDGE ( 'NONE', *, *, #232, .T. ) ;
#110 = AXIS2_PLACEMENT_3D ( 'NONE', #250, #144, #218 ) ;
#111 = AXIS2_PLACEMENT_3D ( 'NONE', #287, #292, #271 ) ;
#112 = ORIENTED_EDGE ( 'NONE', *, *, #229, .T. ) ;
#113 = DIRECTION ( 'NONE',  ( -0.000000000000000000, -1.000000000000000000, -0.000000000000000000 ) ) ;
#114 = AXIS2_PLACEMENT_3D ( 'NONE', #227, #253, #150 ) ;
#115 = SURFACE_STYLE_FILL_AREA ( #237 ) ;
#116 = EDGE_CURVE ( 'NONE', #233, #243, #239, .T. ) ;
#117 = VECTOR ( 'NONE', #252, 39.37007874015748143 ) ;
#118 =( NAMED_UNIT ( * ) SI_UNIT ( $, .STERADIAN. ) SOLID_ANGLE_UNIT ( ) );
#119 = FILL_AREA_STYLE_COLOUR ( '', #272 ) ;
#120 = SURFACE_STYLE_FILL_AREA ( #196 ) ;
#121 = SURFACE_STYLE_USAGE ( .BOTH. , #56 ) ;
#122 = CYLINDRICAL_SURFACE ( 'NONE', #65, 0.5000000000000000000 ) ;
#123 = DIRECTION ( 'NONE',  ( 7.347880794884121462E-17, 1.000000000000000000, -0.000000000000000000 ) ) ;
#124 =( NAMED_UNIT ( * ) SI_UNIT ( $, .STERADIAN. ) SOLID_ANGLE_UNIT ( ) );
#125 = ADVANCED_FACE ( 'NONE', ( #275 ), #191, .F. ) ;
#126 = CARTESIAN_POINT ( 'NONE',  ( 1.349783804395672634E-33, 2.000000000000000000, 0.000000000000000000 ) ) ;
#127 = DIRECTION ( 'NONE',  ( 0.000000000000000000, 0.000000000000000000, -1.000000000000000000 ) ) ;
#128 = COLOUR_RGB ( '',1.000000000000000000, 0.000000000000000000, 0.000000000000000000 ) ;
#129 =( NAMED_UNIT ( * ) PLANE_ANGLE_UNIT ( ) SI_UNIT ( $, .RADIAN. ) );
#130 = EDGE_LOOP ( 'NONE', ( #8, #154 ) ) ;
#131 = SURFACE_STYLE_USAGE ( .BOTH. , #63 ) ;
#132 = DIRECTION ( 'NONE',  ( 0.000000000000000000, 0.000000000000000000, 1.000000000000000000 ) ) ;
#133 = STYLED_ITEM ( 'NONE', ( #33 ), #251 ) ;
#134 = DIRECTION ( 'NONE',  ( 0.000000000000000000, 0.000000000000000000, -1.000000000000000000 ) ) ;
#135 = VERTEX_POINT ( 'NONE', #102 ) ;
#136 = PRESENTATION_LAYER_ASSIGNMENT (  '', '', ( #180 ) ) ;
#137 = STYLED_ITEM ( 'NONE', ( #106 ), #48 ) ;
#138 = UNCERTAINTY_MEASURE_WITH_UNIT (LENGTH_MEASURE( 1.000000000000000082E-05 ), #97, 'distance_accuracy_value', 'NONE');
#139 =( CONVERSION_BASED_UNIT ( 'INCH', #182 ) LENGTH_UNIT ( ) NAMED_UNIT ( #260 ) );
#140 = EDGE_LOOP ( 'NONE', ( #68, #256 ) ) ;
#141 = DIRECTION ( 'NONE',  ( 0.000000000000000000, -0.000000000000000000, 1.000000000000000000 ) ) ;
#142 = EDGE_LOOP ( 'NONE', ( #66, #179, #184, #195 ) ) ;
#143 = AXIS2_PLACEMENT_3D ( 'NONE', #172, #280, #205 ) ;
#144 = DIRECTION ( 'NONE',  ( -7.347880794884121462E-17, -1.000000000000000000, 0.000000000000000000 ) ) ;
#145 =( CONVERSION_BASED_UNIT ( 'INCH', #262 ) LENGTH_UNIT ( ) NAMED_UNIT ( #258 ) );
#146 = CARTESIAN_POINT ( 'NONE',  ( 0.000000000000000000, 0.000000000000000000, 0.000000000000000000 ) ) ;
#147 = DIRECTION ( 'NONE',  ( -0.000000000000000000, -1.000000000000000000, -0.000000000000000000 ) ) ;
#148 = PRESENTATION_STYLE_ASSIGNMENT (( #121 ) ) ;
#149 = UNCERTAINTY_MEASURE_WITH_UNIT (LENGTH_MEASURE( 1.000000000000000082E-05 ), #199, 'distance_accuracy_value', 'NONE');
#150 = DIRECTION ( 'NONE',  ( 0.000000000000000000, 0.000000000000000000, -1.000000000000000000 ) ) ;
#151 = LINE ( 'NONE', #43, #117 ) ;
#152 = AXIS2_PLACEMENT_3D ( 'NONE', #167, #265, #55 ) ;
#153 = LINE ( 'NONE', #41, #220 ) ;
#154 = ORIENTED_EDGE ( 'NONE', *, *, #301, .F. ) ;
#155 = CARTESIAN_POINT ( 'NONE',  ( 0.000000000000000000, 0.000000000000000000, -0.5000000000000000000 ) ) ;
#156 = ADVANCED_FACE ( 'NONE', ( #291 ), #194, .T. ) ;
#157 = MECHANICAL_DESIGN_GEOMETRIC_PRESENTATION_REPRESENTATION (  '', ( #13 ), #73 ) ;
#158 = EDGE_CURVE ( 'NONE', #135, #192, #290, .T. ) ;
#159 = DIRECTION ( 'NONE',  ( 0.000000000000000000, 1.000000000000000000, 0.000000000000000000 ) ) ;
#160 = FILL_AREA_STYLE ('',( #119 ) ) ;
#161 = PLANE ( 'NONE',  #143 ) ;
#162 = ADVANCED_BREP_SHAPE_REPRESENTATION ( '59277', ( #251, #48, #204 ), #177 ) ;
#163 = COLOUR_RGB ( '',0.7921568627450980005, 0.8196078431372548767, 0.9333333333333333481 ) ;
#164 =( LENGTH_UNIT ( ) NAMED_UNIT ( * ) SI_UNIT ( $, .METRE. ) );
#165 = SURFACE_SIDE_STYLE ('',( #120 ) ) ;
#166 = ADVANCED_FACE ( 'NONE', ( #81 ), #161, .T. ) ;
#167 = CARTESIAN_POINT ( 'NONE',  ( 0.000000000000000000, 2.000000000000000000, 0.000000000000000000 ) ) ;
#168 =( NAMED_UNIT ( * ) SI_UNIT ( $, .STERADIAN. ) SOLID_ANGLE_UNIT ( ) );
#169 = AXIS2_PLACEMENT_3D ( 'NONE', #16, #113, #206 ) ;
#170 = PRODUCT_DEFINITION_FORMATION_WITH_SPECIFIED_SOURCE ( 'ANY', '', #208, .NOT_KNOWN. ) ;
#171 =( NAMED_UNIT ( * ) PLANE_ANGLE_UNIT ( ) SI_UNIT ( $, .RADIAN. ) );
#172 = CARTESIAN_POINT ( 'NONE',  ( 0.000000000000000000, 0.000000000000000000, 0.000000000000000000 ) ) ;
#173 = DIRECTION ( 'NONE',  ( -0.000000000000000000, -1.000000000000000000, -0.000000000000000000 ) ) ;
#174 = CARTESIAN_POINT ( 'NONE',  ( 0.000000000000000000, 0.000000000000000000, 0.000000000000000000 ) ) ;
#175 = EDGE_CURVE ( 'NONE', #135, #243, #151, .T. ) ;
#176 =( GEOMETRIC_REPRESENTATION_CONTEXT ( 3 ) GLOBAL_UNCERTAINTY_ASSIGNED_CONTEXT ( ( #23 ) ) GLOBAL_UNIT_ASSIGNED_CONTEXT ( ( #264, #188, #53 ) ) REPRESENTATION_CONTEXT ( 'NONE', 'WORKASPACE' ) );
#177 =( GEOMETRIC_REPRESENTATION_CONTEXT ( 3 ) GLOBAL_UNCERTAINTY_ASSIGNED_CONTEXT ( ( #138 ) ) GLOBAL_UNIT_ASSIGNED_CONTEXT ( ( #97, #37, #168 ) ) REPRESENTATION_CONTEXT ( 'NONE', 'WORKASPACE' ) );
#178 = ORIENTED_EDGE ( 'NONE', *, *, #217, .T. ) ;
#179 = ORIENTED_EDGE ( 'NONE', *, *, #301, .T. ) ;
#180 = STYLED_ITEM ( 'NONE', ( #214 ), #32 ) ;
#181 = VERTEX_POINT ( 'NONE', #278 ) ;
#182 = LENGTH_MEASURE_WITH_UNIT ( LENGTH_MEASURE( 0.02539999999999999897 ), #22 );
#183 = DIMENSIONAL_EXPONENTS ( 1.000000000000000000, 0.000000000000000000, 0.000000000000000000, 0.000000000000000000, 0.000000000000000000, 0.000000000000000000, 0.000000000000000000 ) ;
#184 = ORIENTED_EDGE ( 'NONE', *, *, #175, .T. ) ;
#185 = ADVANCED_FACE ( 'NONE', ( #259 ), #94, .T. ) ;
#186 = STYLED_ITEM ( 'NONE', ( #148 ), #166 ) ;
#187 = PLANE ( 'NONE',  #91 ) ;
#188 =( NAMED_UNIT ( * ) PLANE_ANGLE_UNIT ( ) SI_UNIT ( $, .RADIAN. ) );
#189 = DIRECTION ( 'NONE',  ( 0.000000000000000000, 0.000000000000000000, -1.000000000000000000 ) ) ;
#190 = CIRCLE ( 'NONE', #309, 0.4999999999999997780 ) ;
#191 = PLANE ( 'NONE',  #110 ) ;
#192 = VERTEX_POINT ( 'NONE', #306 ) ;
#193 = LENGTH_MEASURE_WITH_UNIT ( LENGTH_MEASURE( 0.02539999999999999897 ), #100 );
#194 = CYLINDRICAL_SURFACE ( 'NONE', #254, 0.4999999999999998335 ) ;
#195 = ORIENTED_EDGE ( 'NONE', *, *, #116, .F. ) ;
#196 = FILL_AREA_STYLE ('',( #221 ) ) ;
#197 = CARTESIAN_POINT ( 'NONE',  ( 6.123233995736766036E-17, 0.000000000000000000, 0.5000000000000000000 ) ) ;
#198 = PRESENTATION_LAYER_ASSIGNMENT (  '', '', ( #308 ) ) ;
#199 =( CONVERSION_BASED_UNIT ( 'INCH', #38 ) LENGTH_UNIT ( ) NAMED_UNIT ( #21 ) );
#200 = CYLINDRICAL_SURFACE ( 'NONE', #236, 0.4999999999999998335 ) ;
#201 = PRODUCT_CONTEXT ( 'NONE', #255, 'mechanical' ) ;
#202 = ORIENTED_EDGE ( 'NONE', *, *, #158, .T. ) ;
#203 =( GEOMETRIC_REPRESENTATION_CONTEXT ( 3 ) GLOBAL_UNCERTAINTY_ASSIGNED_CONTEXT ( ( #149 ) ) GLOBAL_UNIT_ASSIGNED_CONTEXT ( ( #199, #171, #224 ) ) REPRESENTATION_CONTEXT ( 'NONE', 'WORKASPACE' ) );
#204 = AXIS2_PLACEMENT_3D ( 'NONE', #174, #132, #231 ) ;
#205 = DIRECTION ( 'NONE',  ( 0.000000000000000000, 0.000000000000000000, -1.000000000000000000 ) ) ;
#206 = DIRECTION ( 'NONE',  ( 0.000000000000000000, 0.000000000000000000, -1.000000000000000000 ) ) ;
#207 =( NAMED_UNIT ( * ) PLANE_ANGLE_UNIT ( ) SI_UNIT ( $, .RADIAN. ) );
#208 = PRODUCT ( '59277', '59277', '', ( #201 ) ) ;
#209 = SURFACE_SIDE_STYLE ('',( #115 ) ) ;
#210 = MECHANICAL_DESIGN_GEOMETRIC_PRESENTATION_REPRESENTATION (  '', ( #180 ), #176 ) ;
#211 = MECHANICAL_DESIGN_GEOMETRIC_PRESENTATION_REPRESENTATION (  '', ( #137 ), #203 ) ;
#212 = VECTOR ( 'NONE', #215, 39.37007874015748143 ) ;
#213 = DIRECTION ( 'NONE',  ( -1.000000000000000000, 0.000000000000000000, 0.000000000000000000 ) ) ;
#214 = PRESENTATION_STYLE_ASSIGNMENT (( #57 ) ) ;
#215 = DIRECTION ( 'NONE',  ( -0.000000000000000000, -1.000000000000000000, -0.000000000000000000 ) ) ;
#216 = ORIENTED_EDGE ( 'NONE', *, *, #261, .T. ) ;
#217 = EDGE_CURVE ( 'NONE', #26, #181, #273, .T. ) ;
#218 = DIRECTION ( 'NONE',  ( 1.000000000000000000, -7.347880794884121462E-17, 0.000000000000000000 ) ) ;
#219 = ORIENTED_EDGE ( 'NONE', *, *, #175, .F. ) ;
#220 = VECTOR ( 'NONE', #173, 39.37007874015748143 ) ;
#221 = FILL_AREA_STYLE_COLOUR ( '', #247 ) ;
#222 = EDGE_LOOP ( 'NONE', ( #202, #112, #47, #219 ) ) ;
#223 = CARTESIAN_POINT ( 'NONE',  ( 0.000000000000000000, 0.000000000000000000, 0.000000000000000000 ) ) ;
#224 =( NAMED_UNIT ( * ) SI_UNIT ( $, .STERADIAN. ) SOLID_ANGLE_UNIT ( ) );
#225 = VECTOR ( 'NONE', #71, 39.37007874015748143 ) ;
#226 = APPLICATION_CONTEXT ( 'automotive_design' ) ;
#227 = CARTESIAN_POINT ( 'NONE',  ( 0.000000000000000000, 0.000000000000000000, 0.000000000000000000 ) ) ;
#228 = FILL_AREA_STYLE ('',( #296 ) ) ;
#229 = EDGE_CURVE ( 'NONE', #192, #233, #69, .T. ) ;
#230 = VERTEX_POINT ( 'NONE', #155 ) ;
#231 = DIRECTION ( 'NONE',  ( 1.000000000000000000, 0.000000000000000000, 0.000000000000000000 ) ) ;
#232 = EDGE_CURVE ( 'NONE', #181, #26, #90, .T. ) ;
#233 = VERTEX_POINT ( 'NONE', #58 ) ;
#234 =( NAMED_UNIT ( * ) SI_UNIT ( $, .STERADIAN. ) SOLID_ANGLE_UNIT ( ) );
#235 = EDGE_LOOP ( 'NONE', ( #44, #60 ) ) ;
#236 = AXIS2_PLACEMENT_3D ( 'NONE', #10, #14, #104 ) ;
#237 = FILL_AREA_STYLE ('',( #283 ) ) ;
#238 = DIMENSIONAL_EXPONENTS ( 1.000000000000000000, 0.000000000000000000, 0.000000000000000000, 0.000000000000000000, 0.000000000000000000, 0.000000000000000000, 0.000000000000000000 ) ;
#239 = CIRCLE ( 'NONE', #281, 0.4999999999999997780 ) ;
#240 = SURFACE_STYLE_FILL_AREA ( #160 ) ;
#241 = AXIS2_PLACEMENT_3D ( 'NONE', #223, #147, #267 ) ;
#242 = FILL_AREA_STYLE_COLOUR ( '', #128 ) ;
#243 = VERTEX_POINT ( 'NONE', #24 ) ;
#244 = SURFACE_STYLE_USAGE ( .BOTH. , #34 ) ;
#245 =( NAMED_UNIT ( * ) PLANE_ANGLE_UNIT ( ) SI_UNIT ( $, .RADIAN. ) );
#246 = DIRECTION ( 'NONE',  ( -1.000000000000000000, 0.000000000000000000, 0.000000000000000000 ) ) ;
#247 = COLOUR_RGB ( '',0.7921568627450980005, 0.8196078431372548767, 0.9333333333333333481 ) ;
#248 = ORIENTED_EDGE ( 'NONE', *, *, #284, .F. ) ;
#249 = SHAPE_DEFINITION_REPRESENTATION ( #19, #162 ) ;
#250 = CARTESIAN_POINT ( 'NONE',  ( 0.5000000000000000000, 4.500000000000000000, 0.000000000000000000 ) ) ;
#251 = MANIFOLD_SOLID_BREP ( 'Revolve - Cutting Edge', #92 ) ;
#252 = DIRECTION ( 'NONE',  ( 7.347880794884121462E-17, 1.000000000000000000, -0.000000000000000000 ) ) ;
#253 = DIRECTION ( 'NONE',  ( -0.000000000000000000, -1.000000000000000000, -0.000000000000000000 ) ) ;
#254 = AXIS2_PLACEMENT_3D ( 'NONE', #31, #293, #246 ) ;
#255 = APPLICATION_CONTEXT ( 'automotive_design' ) ;
#256 = ORIENTED_EDGE ( 'NONE', *, *, #116, .T. ) ;
#257 = SURFACE_STYLE_USAGE ( .BOTH. , #209 ) ;
#258 = DIMENSIONAL_EXPONENTS ( 1.000000000000000000, 0.000000000000000000, 0.000000000000000000, 0.000000000000000000, 0.000000000000000000, 0.000000000000000000, 0.000000000000000000 ) ;
#259 = FACE_OUTER_BOUND ( 'NONE', #235, .T. ) ;
#260 = DIMENSIONAL_EXPONENTS ( 1.000000000000000000, 0.000000000000000000, 0.000000000000000000, 0.000000000000000000, 0.000000000000000000, 0.000000000000000000, 0.000000000000000000 ) ;
#261 = EDGE_CURVE ( 'NONE', #181, #230, #30, .T. ) ;
#262 = LENGTH_MEASURE_WITH_UNIT ( LENGTH_MEASURE( 0.02539999999999999897 ), #295 );
#263 = AXIS2_PLACEMENT_3D ( 'NONE', #274, #4, #189 ) ;
#264 =( CONVERSION_BASED_UNIT ( 'INCH', #289 ) LENGTH_UNIT ( ) NAMED_UNIT ( #238 ) );
#265 = DIRECTION ( 'NONE',  ( 7.347880794884121462E-17, 1.000000000000000000, -0.000000000000000000 ) ) ;
#266 = ORIENTED_EDGE ( 'NONE', *, *, #46, .T. ) ;
#267 = DIRECTION ( 'NONE',  ( 0.000000000000000000, 0.000000000000000000, -1.000000000000000000 ) ) ;
#268 = SURFACE_STYLE_FILL_AREA ( #79 ) ;
#269 = EDGE_CURVE ( 'NONE', #243, #233, #190, .T. ) ;
#270 = SURFACE_SIDE_STYLE ('',( #240 ) ) ;
#271 = DIRECTION ( 'NONE',  ( -1.000000000000000000, 0.000000000000000000, 0.000000000000000000 ) ) ;
#272 = COLOUR_RGB ( '',1.000000000000000000, 0.000000000000000000, 0.000000000000000000 ) ;
#273 = CIRCLE ( 'NONE', #169, 0.5000000000000000000 ) ;
#274 = CARTESIAN_POINT ( 'NONE',  ( 0.000000000000000000, 2.000000000000000000, 0.000000000000000000 ) ) ;
#275 = FACE_OUTER_BOUND ( 'NONE', #140, .T. ) ;
#276 = SURFACE_STYLE_FILL_AREA ( #228 ) ;
#277 = FACE_OUTER_BOUND ( 'NONE', #222, .T. ) ;
#278 = CARTESIAN_POINT ( 'NONE',  ( 0.000000000000000000, 2.000000000000000000, -0.5000000000000000000 ) ) ;
#279 = ORIENTED_EDGE ( 'NONE', *, *, #89, .T. ) ;
#280 = DIRECTION ( 'NONE',  ( 0.000000000000000000, -1.000000000000000000, -0.000000000000000000 ) ) ;
#281 = AXIS2_PLACEMENT_3D ( 'NONE', #75, #83, #7 ) ;
#282 = EDGE_LOOP ( 'NONE', ( #15, #178, #216, #248 ) ) ;
#283 = FILL_AREA_STYLE_COLOUR ( '', #105 ) ;
#284 = EDGE_CURVE ( 'NONE', #88, #230, #36, .T. ) ;
#285 = AXIS2_PLACEMENT_3D ( 'NONE', #286, #159, #141 ) ;
#286 = CARTESIAN_POINT ( 'NONE',  ( 0.000000000000000000, 2.000000000000000000, 0.000000000000000000 ) ) ;
#287 = CARTESIAN_POINT ( 'NONE',  ( 0.000000000000000000, 2.000000000000000000, 0.000000000000000000 ) ) ;
#288 =( NAMED_UNIT ( * ) SI_UNIT ( $, .STERADIAN. ) SOLID_ANGLE_UNIT ( ) );
#289 = LENGTH_MEASURE_WITH_UNIT ( LENGTH_MEASURE( 0.02539999999999999897 ), #1 );
#290 = CIRCLE ( 'NONE', #152, 0.5000000000000000000 ) ;
#291 = FACE_OUTER_BOUND ( 'NONE', #142, .T. ) ;
#292 = DIRECTION ( 'NONE',  ( 7.347880794884121462E-17, 1.000000000000000000, -0.000000000000000000 ) ) ;
#293 = DIRECTION ( 'NONE',  ( 7.347880794884121462E-17, 1.000000000000000000, -0.000000000000000000 ) ) ;
#294 = DIRECTION ( 'NONE',  ( 7.347880794884121462E-17, 1.000000000000000000, -0.000000000000000000 ) ) ;
#295 =( LENGTH_UNIT ( ) NAMED_UNIT ( * ) SI_UNIT ( $, .METRE. ) );
#296 = FILL_AREA_STYLE_COLOUR ( '', #163 ) ;
#297 = ADVANCED_FACE ( 'NONE', ( #27 ), #187, .F. ) ;
#298 = APPLICATION_PROTOCOL_DEFINITION ( 'draft international standard', 'automotive_design', 1998, #226 ) ;
#299 = EDGE_LOOP ( 'NONE', ( #109, #279, #70, #82 ) ) ;
#300 = MECHANICAL_DESIGN_GEOMETRIC_PRESENTATION_REPRESENTATION (  '', ( #186 ), #49 ) ;
#301 = EDGE_CURVE ( 'NONE', #192, #135, #59, .T. ) ;
#302 = DIMENSIONAL_EXPONENTS ( 1.000000000000000000, 0.000000000000000000, 0.000000000000000000, 0.000000000000000000, 0.000000000000000000, 0.000000000000000000, 0.000000000000000000 ) ;
#303 = PRESENTATION_LAYER_ASSIGNMENT (  '', '', ( #133 ) ) ;
#304 = UNCERTAINTY_MEASURE_WITH_UNIT (LENGTH_MEASURE( 1.000000000000000082E-05 ), #78, 'distance_accuracy_value', 'NONE');
#305 = CARTESIAN_POINT ( 'NONE',  ( 6.123233995736766036E-17, 2.000000000000000000, 0.5000000000000000000 ) ) ;
#306 = CARTESIAN_POINT ( 'NONE',  ( 0.5000000000000001110, 2.000000000000000000, 6.123233995736766036E-17 ) ) ;
#307 = UNCERTAINTY_MEASURE_WITH_UNIT (LENGTH_MEASURE( 1.000000000000000082E-05 ), #139, 'distance_accuracy_value', 'NONE');
#308 = STYLED_ITEM ( 'NONE', ( #101 ), #108 ) ;
#309 = AXIS2_PLACEMENT_3D ( 'NONE', #95, #123, #213 ) ;
ENDSEC;
END-ISO-10303-21;
