ISO-10303-21;
HEADER;
FILE_DESCRIPTION (( 'STEP AP214' ),
    '1' );
FILE_NAME ('48136.STEP',
    '2023-06-22T21:15:11',
    ( '' ),
    ( '' ),
    'SwSTEP 2.0',
    'SolidWorks 2023',
    '' );
FILE_SCHEMA (( 'AUTOMOTIVE_DESIGN' ));
ENDSEC;

DATA;
#1 = DIRECTION ( 'NONE',  ( 0.000000000000000000, 0.000000000000000000, -1.000000000000000000 ) ) ;
#2 = SHAPE_DEFINITION_REPRESENTATION ( #96, #163 ) ;
#3 = COLOUR_RGB ( '',1.000000000000000000, 0.000000000000000000, 0.000000000000000000 ) ;
#4 =( CONVERSION_BASED_UNIT ( 'INCH', #99 ) LENGTH_UNIT ( ) NAMED_UNIT ( #290 ) );
#5 = PRODUCT ( '48136', '48136', '', ( #25 ) ) ;
#6 = FILL_AREA_STYLE_COLOUR ( '', #45 ) ;
#7 = FACE_OUTER_BOUND ( 'NONE', #170, .T. ) ;
#8 =( LENGTH_UNIT ( ) NAMED_UNIT ( * ) SI_UNIT ( $, .METRE. ) );
#9 = ORIENTED_EDGE ( 'NONE', *, *, #200, .F. ) ;
#10 = EDGE_LOOP ( 'NONE', ( #298, #191 ) ) ;
#11 = DIRECTION ( 'NONE',  ( -0.000000000000000000, -1.000000000000000000, -0.000000000000000000 ) ) ;
#12 = COLOUR_RGB ( '',0.7921568627450980005, 0.8196078431372548767, 0.9333333333333333481 ) ;
#13 = ORIENTED_EDGE ( 'NONE', *, *, #70, .T. ) ;
#14 = UNCERTAINTY_MEASURE_WITH_UNIT (LENGTH_MEASURE( 1.000000000000000082E-05 ), #78, 'distance_accuracy_value', 'NONE');
#15 = CARTESIAN_POINT ( 'NONE',  ( 0.000000000000000000, 0.000000000000000000, 0.000000000000000000 ) ) ;
#16 = DIRECTION ( 'NONE',  ( 3.061616997868386099E-17, -1.000000000000000000, 0.000000000000000000 ) ) ;
#17 = FILL_AREA_STYLE ('',( #128 ) ) ;
#18 = AXIS2_PLACEMENT_3D ( 'NONE', #194, #182, #256 ) ;
#19 = DIRECTION ( 'NONE',  ( -3.061616997868386099E-17, 1.000000000000000000, -0.000000000000000000 ) ) ;
#20 = DIRECTION ( 'NONE',  ( -0.000000000000000000, -1.000000000000000000, -0.000000000000000000 ) ) ;
#21 = DIRECTION ( 'NONE',  ( -3.061616997868386099E-17, 1.000000000000000000, 0.000000000000000000 ) ) ;
#22 = UNCERTAINTY_MEASURE_WITH_UNIT (LENGTH_MEASURE( 1.000000000000000082E-05 ), #4, 'distance_accuracy_value', 'NONE');
#23 = PRESENTATION_LAYER_ASSIGNMENT (  '', '', ( #90 ) ) ;
#24 = SURFACE_STYLE_USAGE ( .BOTH. , #188 ) ;
#25 = PRODUCT_CONTEXT ( 'NONE', #88, 'mechanical' ) ;
#26 = DIRECTION ( 'NONE',  ( 0.000000000000000000, 0.000000000000000000, -1.000000000000000000 ) ) ;
#27 = AXIS2_PLACEMENT_3D ( 'NONE', #184, #140, #204 ) ;
#28 = DIMENSIONAL_EXPONENTS ( 1.000000000000000000, 0.000000000000000000, 0.000000000000000000, 0.000000000000000000, 0.000000000000000000, 0.000000000000000000, 0.000000000000000000 ) ;
#29 = ORIENTED_EDGE ( 'NONE', *, *, #211, .F. ) ;
#30 = EDGE_LOOP ( 'NONE', ( #137, #53 ) ) ;
#31 = VERTEX_POINT ( 'NONE', #223 ) ;
#32 = CIRCLE ( 'NONE', #41, 0.1250000000000000278 ) ;
#33 = DIRECTION ( 'NONE',  ( -1.000000000000000000, 0.000000000000000000, 0.000000000000000000 ) ) ;
#34 = DIRECTION ( 'NONE',  ( -0.000000000000000000, -1.000000000000000000, -0.000000000000000000 ) ) ;
#35 = PLANE ( 'NONE',  #36 ) ;
#36 = AXIS2_PLACEMENT_3D ( 'NONE', #86, #21, #181 ) ;
#37 = EDGE_CURVE ( 'NONE', #302, #105, #101, .T. ) ;
#38 = PLANE ( 'NONE',  #168 ) ;
#39 = VERTEX_POINT ( 'NONE', #130 ) ;
#40 =( GEOMETRIC_REPRESENTATION_CONTEXT ( 3 ) GLOBAL_UNCERTAINTY_ASSIGNED_CONTEXT ( ( #14 ) ) GLOBAL_UNIT_ASSIGNED_CONTEXT ( ( #78, #224, #243 ) ) REPRESENTATION_CONTEXT ( 'NONE', 'WORKASPACE' ) );
#41 = AXIS2_PLACEMENT_3D ( 'NONE', #205, #34, #85 ) ;
#42 =( LENGTH_UNIT ( ) NAMED_UNIT ( * ) SI_UNIT ( $, .METRE. ) );
#43 = FILL_AREA_STYLE ('',( #213 ) ) ;
#44 = SURFACE_STYLE_FILL_AREA ( #17 ) ;
#45 = COLOUR_RGB ( '',1.000000000000000000, 0.000000000000000000, 0.000000000000000000 ) ;
#46 = AXIS2_PLACEMENT_3D ( 'NONE', #273, #108, #48 ) ;
#47 = CARTESIAN_POINT ( 'NONE',  ( 0.000000000000000000, 0.000000000000000000, 0.000000000000000000 ) ) ;
#48 = DIRECTION ( 'NONE',  ( -1.000000000000000000, 0.000000000000000000, 0.000000000000000000 ) ) ;
#49 = EDGE_CURVE ( 'NONE', #296, #39, #303, .T. ) ;
#50 = CLOSED_SHELL ( 'NONE', ( #218, #277, #58, #109 ) ) ;
#51 = DIRECTION ( 'NONE',  ( -3.061616997868386099E-17, 1.000000000000000000, -0.000000000000000000 ) ) ;
#52 = AXIS2_PLACEMENT_3D ( 'NONE', #261, #257, #222 ) ;
#53 = ORIENTED_EDGE ( 'NONE', *, *, #127, .T. ) ;
#54 = ORIENTED_EDGE ( 'NONE', *, *, #62, .T. ) ;
#55 = FILL_AREA_STYLE ('',( #6 ) ) ;
#56 = FILL_AREA_STYLE ('',( #193 ) ) ;
#57 = ORIENTED_EDGE ( 'NONE', *, *, #230, .F. ) ;
#58 = ADVANCED_FACE ( 'NONE', ( #71 ), #295, .T. ) ;
#59 = EDGE_LOOP ( 'NONE', ( #57, #80 ) ) ;
#60 = CARTESIAN_POINT ( 'NONE',  ( 0.000000000000000000, 0.000000000000000000, -0.1250000000000000000 ) ) ;
#61 = CARTESIAN_POINT ( 'NONE',  ( -6.123233995736772199E-17, 3.000000000000000444, 0.000000000000000000 ) ) ;
#62 = EDGE_CURVE ( 'NONE', #31, #104, #266, .T. ) ;
#63 = FACE_OUTER_BOUND ( 'NONE', #59, .T. ) ;
#64 = DIRECTION ( 'NONE',  ( -0.000000000000000000, -1.000000000000000000, -0.000000000000000000 ) ) ;
#65 = MECHANICAL_DESIGN_GEOMETRIC_PRESENTATION_REPRESENTATION (  '', ( #217 ), #95 ) ;
#66 = MECHANICAL_DESIGN_GEOMETRIC_PRESENTATION_REPRESENTATION (  '', ( #165 ), #260 ) ;
#67 = DIRECTION ( 'NONE',  ( -0.000000000000000000, -1.000000000000000000, -0.000000000000000000 ) ) ;
#68 = SURFACE_STYLE_FILL_AREA ( #43 ) ;
#69 = MECHANICAL_DESIGN_GEOMETRIC_PRESENTATION_REPRESENTATION (  '', ( #308 ), #289 ) ;
#70 = EDGE_CURVE ( 'NONE', #157, #105, #174, .T. ) ;
#71 = FACE_OUTER_BOUND ( 'NONE', #196, .T. ) ;
#72 = PRESENTATION_STYLE_ASSIGNMENT (( #100 ) ) ;
#73 = ORIENTED_EDGE ( 'NONE', *, *, #211, .T. ) ;
#74 = UNCERTAINTY_MEASURE_WITH_UNIT (LENGTH_MEASURE( 1.000000000000000082E-05 ), #79, 'distance_accuracy_value', 'NONE');
#75 = CARTESIAN_POINT ( 'NONE',  ( -0.1250000000000001110, 3.000000000000000444, 0.000000000000000000 ) ) ;
#76 = AXIS2_PLACEMENT_3D ( 'NONE', #255, #19, #87 ) ;
#77 = ORIENTED_EDGE ( 'NONE', *, *, #49, .F. ) ;
#78 =( CONVERSION_BASED_UNIT ( 'INCH', #238 ) LENGTH_UNIT ( ) NAMED_UNIT ( #263 ) );
#79 =( CONVERSION_BASED_UNIT ( 'INCH', #274 ) LENGTH_UNIT ( ) NAMED_UNIT ( #28 ) );
#80 = ORIENTED_EDGE ( 'NONE', *, *, #139, .F. ) ;
#81 = SURFACE_STYLE_USAGE ( .BOTH. , #169 ) ;
#82 = DIRECTION ( 'NONE',  ( 0.000000000000000000, -0.000000000000000000, 1.000000000000000000 ) ) ;
#83 = AXIS2_PLACEMENT_3D ( 'NONE', #226, #16, #89 ) ;
#84 = PRESENTATION_STYLE_ASSIGNMENT (( #112 ) ) ;
#85 = DIRECTION ( 'NONE',  ( 0.000000000000000000, 0.000000000000000000, -1.000000000000000000 ) ) ;
#86 = CARTESIAN_POINT ( 'NONE',  ( 5.858436651022894110E-35, 1.000000000000000000, 0.000000000000000000 ) ) ;
#87 = DIRECTION ( 'NONE',  ( -1.000000000000000000, 0.000000000000000000, 0.000000000000000000 ) ) ;
#88 = APPLICATION_CONTEXT ( 'automotive_design' ) ;
#89 = DIRECTION ( 'NONE',  ( 1.000000000000000000, 3.061616997868386099E-17, 0.000000000000000000 ) ) ;
#90 = STYLED_ITEM ( 'NONE', ( #147 ), #115 ) ;
#91 = COLOUR_RGB ( '',1.000000000000000000, 0.000000000000000000, 0.000000000000000000 ) ;
#92 = FACE_OUTER_BOUND ( 'NONE', #30, .T. ) ;
#93 = UNCERTAINTY_MEASURE_WITH_UNIT (LENGTH_MEASURE( 1.000000000000000082E-05 ), #150, 'distance_accuracy_value', 'NONE');
#94 = ORIENTED_EDGE ( 'NONE', *, *, #233, .F. ) ;
#95 =( GEOMETRIC_REPRESENTATION_CONTEXT ( 3 ) GLOBAL_UNCERTAINTY_ASSIGNED_CONTEXT ( ( #22 ) ) GLOBAL_UNIT_ASSIGNED_CONTEXT ( ( #4, #133, #288 ) ) REPRESENTATION_CONTEXT ( 'NONE', 'WORKASPACE' ) );
#96 = PRODUCT_DEFINITION_SHAPE ( 'NONE', 'NONE',  #237 ) ;
#97 = FILL_AREA_STYLE ('',( #126 ) ) ;
#98 = CARTESIAN_POINT ( 'NONE',  ( 0.000000000000000000, 0.000000000000000000, 0.000000000000000000 ) ) ;
#99 = LENGTH_MEASURE_WITH_UNIT ( LENGTH_MEASURE( 0.02539999999999999897 ), #8 );
#100 = SURFACE_STYLE_USAGE ( .BOTH. , #152 ) ;
#101 = CIRCLE ( 'NONE', #186, 0.1250000000000000000 ) ;
#102 = SURFACE_STYLE_FILL_AREA ( #56 ) ;
#103 = UNCERTAINTY_MEASURE_WITH_UNIT (LENGTH_MEASURE( 1.000000000000000082E-05 ), #252, 'distance_accuracy_value', 'NONE');
#104 = VERTEX_POINT ( 'NONE', #270 ) ;
#105 = VERTEX_POINT ( 'NONE', #154 ) ;
#106 = DIRECTION ( 'NONE',  ( 0.000000000000000000, 0.000000000000000000, -1.000000000000000000 ) ) ;
#107 = VECTOR ( 'NONE', #291, 39.37007874015748143 ) ;
#108 = DIRECTION ( 'NONE',  ( -3.061616997868386099E-17, 1.000000000000000000, -0.000000000000000000 ) ) ;
#109 = ADVANCED_FACE ( 'NONE', ( #245 ), #212, .T. ) ;
#110 = DIRECTION ( 'NONE',  ( -1.000000000000000000, 0.000000000000000000, 0.000000000000000000 ) ) ;
#111 = ORIENTED_EDGE ( 'NONE', *, *, #49, .T. ) ;
#112 = SURFACE_STYLE_USAGE ( .BOTH. , #287 ) ;
#113 = CARTESIAN_POINT ( 'NONE',  ( 0.000000000000000000, 1.000000000000000000, -0.1250000000000000278 ) ) ;
#114 = CARTESIAN_POINT ( 'NONE',  ( 0.000000000000000000, 1.000000000000000000, 0.000000000000000000 ) ) ;
#115 = MANIFOLD_SOLID_BREP ( 'Revolve - Tool Body (Straight Shanked)', #307 ) ;
#116 = CARTESIAN_POINT ( 'NONE',  ( -6.123233995736772199E-17, 3.000000000000000444, 0.000000000000000000 ) ) ;
#117 = CIRCLE ( 'NONE', #27, 0.1250000000000000833 ) ;
#118 = MANIFOLD_SOLID_BREP ( 'Revolve - Cutting Edge', #50 ) ;
#119 = PRESENTATION_STYLE_ASSIGNMENT (( #160 ) ) ;
#120 = DIRECTION ( 'NONE',  ( -0.000000000000000000, -1.000000000000000000, -0.000000000000000000 ) ) ;
#121 = CARTESIAN_POINT ( 'NONE',  ( 0.000000000000000000, 1.000000000000000000, 0.000000000000000000 ) ) ;
#122 = COLOUR_RGB ( '',0.7921568627450980005, 0.8196078431372548767, 0.9333333333333333481 ) ;
#123 =( GEOMETRIC_REPRESENTATION_CONTEXT ( 3 ) GLOBAL_UNCERTAINTY_ASSIGNED_CONTEXT ( ( #74 ) ) GLOBAL_UNIT_ASSIGNED_CONTEXT ( ( #79, #206, #246 ) ) REPRESENTATION_CONTEXT ( 'NONE', 'WORKASPACE' ) );
#124 =( NAMED_UNIT ( * ) PLANE_ANGLE_UNIT ( ) SI_UNIT ( $, .RADIAN. ) );
#125 = STYLED_ITEM ( 'NONE', ( #155 ), #218 ) ;
#126 = FILL_AREA_STYLE_COLOUR ( '', #12 ) ;
#127 = EDGE_CURVE ( 'NONE', #104, #39, #240, .T. ) ;
#128 = FILL_AREA_STYLE_COLOUR ( '', #3 ) ;
#129 = DIMENSIONAL_EXPONENTS ( 1.000000000000000000, 0.000000000000000000, 0.000000000000000000, 0.000000000000000000, 0.000000000000000000, 0.000000000000000000, 0.000000000000000000 ) ;
#130 = CARTESIAN_POINT ( 'NONE',  ( -0.1250000000000001388, 3.000000000000000444, 0.000000000000000000 ) ) ;
#131 = AXIS2_PLACEMENT_3D ( 'NONE', #98, #283, #215 ) ;
#132 = VECTOR ( 'NONE', #20, 39.37007874015748143 ) ;
#133 =( NAMED_UNIT ( * ) PLANE_ANGLE_UNIT ( ) SI_UNIT ( $, .RADIAN. ) );
#134 =( LENGTH_UNIT ( ) NAMED_UNIT ( * ) SI_UNIT ( $, .METRE. ) );
#135 =( LENGTH_UNIT ( ) NAMED_UNIT ( * ) SI_UNIT ( $, .METRE. ) );
#136 = AXIS2_PLACEMENT_3D ( 'NONE', #282, #67, #159 ) ;
#137 = ORIENTED_EDGE ( 'NONE', *, *, #269, .T. ) ;
#138 = CARTESIAN_POINT ( 'NONE',  ( 0.000000000000000000, 0.000000000000000000, 0.000000000000000000 ) ) ;
#139 = EDGE_CURVE ( 'NONE', #157, #271, #267, .T. ) ;
#140 = DIRECTION ( 'NONE',  ( -3.061616997868386099E-17, 1.000000000000000000, -0.000000000000000000 ) ) ;
#141 = AXIS2_PLACEMENT_3D ( 'NONE', #114, #64, #228 ) ;
#142 =( NAMED_UNIT ( * ) SI_UNIT ( $, .STERADIAN. ) SOLID_ANGLE_UNIT ( ) );
#143 = CARTESIAN_POINT ( 'NONE',  ( 1.530808498934191817E-17, 1.000000000000000000, 0.1250000000000000278 ) ) ;
#144 = AXIS2_PLACEMENT_3D ( 'NONE', #61, #250, #110 ) ;
#145 =( NAMED_UNIT ( * ) PLANE_ANGLE_UNIT ( ) SI_UNIT ( $, .RADIAN. ) );
#146 =( CONVERSION_BASED_UNIT ( 'INCH', #259 ) LENGTH_UNIT ( ) NAMED_UNIT ( #190 ) );
#147 = PRESENTATION_STYLE_ASSIGNMENT (( #187 ) ) ;
#148 = MECHANICAL_DESIGN_GEOMETRIC_PRESENTATION_REPRESENTATION (  '', ( #90 ), #197 ) ;
#149 =( GEOMETRIC_REPRESENTATION_CONTEXT ( 3 ) GLOBAL_UNCERTAINTY_ASSIGNED_CONTEXT ( ( #93 ) ) GLOBAL_UNIT_ASSIGNED_CONTEXT ( ( #150, #202, #162 ) ) REPRESENTATION_CONTEXT ( 'NONE', 'WORKASPACE' ) );
#150 =( CONVERSION_BASED_UNIT ( 'INCH', #264 ) LENGTH_UNIT ( ) NAMED_UNIT ( #239 ) );
#151 = EDGE_LOOP ( 'NONE', ( #265, #244, #111, #175 ) ) ;
#152 = SURFACE_SIDE_STYLE ('',( #171 ) ) ;
#153 = ADVANCED_FACE ( 'NONE', ( #253 ), #35, .F. ) ;
#154 = CARTESIAN_POINT ( 'NONE',  ( 1.530808498934191509E-17, 0.000000000000000000, 0.1250000000000000000 ) ) ;
#155 = PRESENTATION_STYLE_ASSIGNMENT (( #81 ) ) ;
#156 = CARTESIAN_POINT ( 'NONE',  ( -0.1250000000000000278, 1.000000000000000000, 0.000000000000000000 ) ) ;
#157 = VERTEX_POINT ( 'NONE', #143 ) ;
#158 = APPLICATION_CONTEXT ( 'automotive_design' ) ;
#159 = DIRECTION ( 'NONE',  ( 0.000000000000000000, 0.000000000000000000, -1.000000000000000000 ) ) ;
#160 = SURFACE_STYLE_USAGE ( .BOTH. , #180 ) ;
#161 = SURFACE_STYLE_FILL_AREA ( #254 ) ;
#162 =( NAMED_UNIT ( * ) SI_UNIT ( $, .STERADIAN. ) SOLID_ANGLE_UNIT ( ) );
#163 = ADVANCED_BREP_SHAPE_REPRESENTATION ( '48136', ( #118, #115, #18 ), #123 ) ;
#164 = FILL_AREA_STYLE_COLOUR ( '', #198 ) ;
#165 = STYLED_ITEM ( 'NONE', ( #119 ), #277 ) ;
#166 = SURFACE_STYLE_FILL_AREA ( #97 ) ;
#167 = MECHANICAL_DESIGN_GEOMETRIC_PRESENTATION_REPRESENTATION (  '', ( #178 ), #40 ) ;
#168 = AXIS2_PLACEMENT_3D ( 'NONE', #121, #304, #82 ) ;
#169 = SURFACE_SIDE_STYLE ('',( #102 ) ) ;
#170 = EDGE_LOOP ( 'NONE', ( #177, #13, #293, #192 ) ) ;
#171 = SURFACE_STYLE_FILL_AREA ( #55 ) ;
#172 = ORIENTED_EDGE ( 'NONE', *, *, #139, .T. ) ;
#173 = AXIS2_PLACEMENT_3D ( 'NONE', #138, #120, #1 ) ;
#174 = LINE ( 'NONE', #272, #220 ) ;
#175 = ORIENTED_EDGE ( 'NONE', *, *, #127, .F. ) ;
#176 = DIRECTION ( 'NONE',  ( -0.000000000000000000, -1.000000000000000000, -0.000000000000000000 ) ) ;
#177 = ORIENTED_EDGE ( 'NONE', *, *, #230, .T. ) ;
#178 = STYLED_ITEM ( 'NONE', ( #72 ), #58 ) ;
#179 = DIRECTION ( 'NONE',  ( -3.061616997868386099E-17, 1.000000000000000000, -0.000000000000000000 ) ) ;
#180 = SURFACE_SIDE_STYLE ('',( #161 ) ) ;
#181 = DIRECTION ( 'NONE',  ( -1.000000000000000000, -3.061616997868386099E-17, 0.000000000000000000 ) ) ;
#182 = DIRECTION ( 'NONE',  ( 0.000000000000000000, 0.000000000000000000, 1.000000000000000000 ) ) ;
#183 = PRESENTATION_LAYER_ASSIGNMENT (  '', '', ( #125 ) ) ;
#184 = CARTESIAN_POINT ( 'NONE',  ( -6.123233995736772199E-17, 3.000000000000000444, 0.000000000000000000 ) ) ;
#185 = APPLICATION_PROTOCOL_DEFINITION ( 'draft international standard', 'automotive_design', 1998, #88 ) ;
#186 = AXIS2_PLACEMENT_3D ( 'NONE', #15, #275, #26 ) ;
#187 = SURFACE_STYLE_USAGE ( .BOTH. , #210 ) ;
#188 = SURFACE_SIDE_STYLE ('',( #166 ) ) ;
#189 =( LENGTH_UNIT ( ) NAMED_UNIT ( * ) SI_UNIT ( $, .METRE. ) );
#190 = DIMENSIONAL_EXPONENTS ( 1.000000000000000000, 0.000000000000000000, 0.000000000000000000, 0.000000000000000000, 0.000000000000000000, 0.000000000000000000, 0.000000000000000000 ) ;
#191 = ORIENTED_EDGE ( 'NONE', *, *, #233, .T. ) ;
#192 = ORIENTED_EDGE ( 'NONE', *, *, #235, .F. ) ;
#193 = FILL_AREA_STYLE_COLOUR ( '', #91 ) ;
#194 = CARTESIAN_POINT ( 'NONE',  ( 0.000000000000000000, 0.000000000000000000, 0.000000000000000000 ) ) ;
#195 =( NAMED_UNIT ( * ) SI_UNIT ( $, .STERADIAN. ) SOLID_ANGLE_UNIT ( ) );
#196 = EDGE_LOOP ( 'NONE', ( #242, #172, #268, #94 ) ) ;
#197 =( GEOMETRIC_REPRESENTATION_CONTEXT ( 3 ) GLOBAL_UNCERTAINTY_ASSIGNED_CONTEXT ( ( #201 ) ) GLOBAL_UNIT_ASSIGNED_CONTEXT ( ( #236, #145, #231 ) ) REPRESENTATION_CONTEXT ( 'NONE', 'WORKASPACE' ) );
#198 = COLOUR_RGB ( '',1.000000000000000000, 0.000000000000000000, 0.000000000000000000 ) ;
#199 = CARTESIAN_POINT ( 'NONE',  ( 0.1249999999999999861, 3.000000000000000444, 1.530808498934192125E-17 ) ) ;
#200 = EDGE_CURVE ( 'NONE', #31, #296, #214, .T. ) ;
#201 = UNCERTAINTY_MEASURE_WITH_UNIT (LENGTH_MEASURE( 1.000000000000000082E-05 ), #236, 'distance_accuracy_value', 'NONE');
#202 =( NAMED_UNIT ( * ) PLANE_ANGLE_UNIT ( ) SI_UNIT ( $, .RADIAN. ) );
#203 = PRESENTATION_LAYER_ASSIGNMENT (  '', '', ( #308 ) ) ;
#204 = DIRECTION ( 'NONE',  ( -1.000000000000000000, 0.000000000000000000, 0.000000000000000000 ) ) ;
#205 = CARTESIAN_POINT ( 'NONE',  ( 0.000000000000000000, 1.000000000000000000, 0.000000000000000000 ) ) ;
#206 =( NAMED_UNIT ( * ) PLANE_ANGLE_UNIT ( ) SI_UNIT ( $, .RADIAN. ) );
#207 = PLANE ( 'NONE',  #83 ) ;
#208 = PRESENTATION_LAYER_ASSIGNMENT (  '', '', ( #178 ) ) ;
#209 = UNCERTAINTY_MEASURE_WITH_UNIT (LENGTH_MEASURE( 1.000000000000000082E-05 ), #146, 'distance_accuracy_value', 'NONE');
#210 = SURFACE_SIDE_STYLE ('',( #68 ) ) ;
#211 = EDGE_CURVE ( 'NONE', #296, #31, #251, .T. ) ;
#212 = PLANE ( 'NONE',  #131 ) ;
#213 = FILL_AREA_STYLE_COLOUR ( '', #122 ) ;
#214 = CIRCLE ( 'NONE', #76, 0.1250000000000000278 ) ;
#215 = DIRECTION ( 'NONE',  ( 0.000000000000000000, 0.000000000000000000, -1.000000000000000000 ) ) ;
#216 = PRODUCT_DEFINITION_CONTEXT ( 'detailed design', #158, 'design' ) ;
#217 = STYLED_ITEM ( 'NONE', ( #84 ), #109 ) ;
#218 = ADVANCED_FACE ( 'NONE', ( #7 ), #300, .T. ) ;
#219 = ORIENTED_EDGE ( 'NONE', *, *, #269, .F. ) ;
#220 = VECTOR ( 'NONE', #11, 39.37007874015748143 ) ;
#221 = CIRCLE ( 'NONE', #173, 0.1250000000000000000 ) ;
#222 = DIRECTION ( 'NONE',  ( -1.000000000000000000, 0.000000000000000000, 0.000000000000000000 ) ) ;
#223 = CARTESIAN_POINT ( 'NONE',  ( 0.1250000000000000278, 1.000000000000000000, 1.530808498934192433E-17 ) ) ;
#224 =( NAMED_UNIT ( * ) PLANE_ANGLE_UNIT ( ) SI_UNIT ( $, .RADIAN. ) );
#225 =( NAMED_UNIT ( * ) PLANE_ANGLE_UNIT ( ) SI_UNIT ( $, .RADIAN. ) );
#226 = CARTESIAN_POINT ( 'NONE',  ( 0.1250000000000000278, 3.000000000000000444, 0.000000000000000000 ) ) ;
#227 = LENGTH_MEASURE_WITH_UNIT ( LENGTH_MEASURE( 0.02539999999999999897 ), #281 );
#228 = DIRECTION ( 'NONE',  ( 0.000000000000000000, 0.000000000000000000, -1.000000000000000000 ) ) ;
#229 =( LENGTH_UNIT ( ) NAMED_UNIT ( * ) SI_UNIT ( $, .METRE. ) );
#230 = EDGE_CURVE ( 'NONE', #271, #157, #32, .T. ) ;
#231 =( NAMED_UNIT ( * ) SI_UNIT ( $, .STERADIAN. ) SOLID_ANGLE_UNIT ( ) );
#232 = EDGE_LOOP ( 'NONE', ( #29, #9 ) ) ;
#233 = EDGE_CURVE ( 'NONE', #105, #302, #221, .T. ) ;
#234 = LENGTH_MEASURE_WITH_UNIT ( LENGTH_MEASURE( 0.02539999999999999897 ), #189 );
#235 = EDGE_CURVE ( 'NONE', #271, #302, #276, .T. ) ;
#236 =( CONVERSION_BASED_UNIT ( 'INCH', #234 ) LENGTH_UNIT ( ) NAMED_UNIT ( #129 ) );
#237 = PRODUCT_DEFINITION ( 'UNKNOWN', '', #249, #216 ) ;
#238 = LENGTH_MEASURE_WITH_UNIT ( LENGTH_MEASURE( 0.02539999999999999897 ), #134 );
#239 = DIMENSIONAL_EXPONENTS ( 1.000000000000000000, 0.000000000000000000, 0.000000000000000000, 0.000000000000000000, 0.000000000000000000, 0.000000000000000000, 0.000000000000000000 ) ;
#240 = CIRCLE ( 'NONE', #52, 0.1250000000000000833 ) ;
#241 = ADVANCED_FACE ( 'NONE', ( #306 ), #280, .T. ) ;
#242 = ORIENTED_EDGE ( 'NONE', *, *, #70, .F. ) ;
#243 =( NAMED_UNIT ( * ) SI_UNIT ( $, .STERADIAN. ) SOLID_ANGLE_UNIT ( ) );
#244 = ORIENTED_EDGE ( 'NONE', *, *, #200, .T. ) ;
#245 = FACE_OUTER_BOUND ( 'NONE', #10, .T. ) ;
#246 =( NAMED_UNIT ( * ) SI_UNIT ( $, .STERADIAN. ) SOLID_ANGLE_UNIT ( ) );
#247 = EDGE_LOOP ( 'NONE', ( #73, #54, #219, #77 ) ) ;
#248 = AXIS2_PLACEMENT_3D ( 'NONE', #47, #176, #106 ) ;
#249 = PRODUCT_DEFINITION_FORMATION_WITH_SPECIFIED_SOURCE ( 'ANY', '', #5, .NOT_KNOWN. ) ;
#250 = DIRECTION ( 'NONE',  ( -3.061616997868386099E-17, 1.000000000000000000, -0.000000000000000000 ) ) ;
#251 = CIRCLE ( 'NONE', #46, 0.1250000000000000278 ) ;
#252 =( CONVERSION_BASED_UNIT ( 'INCH', #227 ) LENGTH_UNIT ( ) NAMED_UNIT ( #294 ) );
#253 = FACE_OUTER_BOUND ( 'NONE', #232, .T. ) ;
#254 = FILL_AREA_STYLE ('',( #164 ) ) ;
#255 = CARTESIAN_POINT ( 'NONE',  ( 7.582401355855259480E-33, 1.000000000000000000, 0.000000000000000000 ) ) ;
#256 = DIRECTION ( 'NONE',  ( 1.000000000000000000, 0.000000000000000000, 0.000000000000000000 ) ) ;
#257 = DIRECTION ( 'NONE',  ( -3.061616997868386099E-17, 1.000000000000000000, -0.000000000000000000 ) ) ;
#258 = VECTOR ( 'NONE', #51, 39.37007874015748143 ) ;
#259 = LENGTH_MEASURE_WITH_UNIT ( LENGTH_MEASURE( 0.02539999999999999897 ), #42 );
#260 =( GEOMETRIC_REPRESENTATION_CONTEXT ( 3 ) GLOBAL_UNCERTAINTY_ASSIGNED_CONTEXT ( ( #103 ) ) GLOBAL_UNIT_ASSIGNED_CONTEXT ( ( #252, #225, #142 ) ) REPRESENTATION_CONTEXT ( 'NONE', 'WORKASPACE' ) );
#261 = CARTESIAN_POINT ( 'NONE',  ( -6.123233995736772199E-17, 3.000000000000000444, 0.000000000000000000 ) ) ;
#262 = ADVANCED_FACE ( 'NONE', ( #92 ), #207, .F. ) ;
#263 = DIMENSIONAL_EXPONENTS ( 1.000000000000000000, 0.000000000000000000, 0.000000000000000000, 0.000000000000000000, 0.000000000000000000, 0.000000000000000000, 0.000000000000000000 ) ;
#264 = LENGTH_MEASURE_WITH_UNIT ( LENGTH_MEASURE( 0.02539999999999999897 ), #135 );
#265 = ORIENTED_EDGE ( 'NONE', *, *, #62, .F. ) ;
#266 = LINE ( 'NONE', #199, #258 ) ;
#267 = CIRCLE ( 'NONE', #141, 0.1250000000000000278 ) ;
#268 = ORIENTED_EDGE ( 'NONE', *, *, #235, .T. ) ;
#269 = EDGE_CURVE ( 'NONE', #39, #104, #117, .T. ) ;
#270 = CARTESIAN_POINT ( 'NONE',  ( 0.1250000000000000278, 3.000000000000000444, 1.530808498934192433E-17 ) ) ;
#271 = VERTEX_POINT ( 'NONE', #113 ) ;
#272 = CARTESIAN_POINT ( 'NONE',  ( 1.530808498934191509E-17, 0.000000000000000000, 0.1250000000000000000 ) ) ;
#273 = CARTESIAN_POINT ( 'NONE',  ( 7.582401355855259480E-33, 1.000000000000000000, 0.000000000000000000 ) ) ;
#274 = LENGTH_MEASURE_WITH_UNIT ( LENGTH_MEASURE( 0.02539999999999999897 ), #229 );
#275 = DIRECTION ( 'NONE',  ( -0.000000000000000000, -1.000000000000000000, -0.000000000000000000 ) ) ;
#276 = LINE ( 'NONE', #60, #132 ) ;
#277 = ADVANCED_FACE ( 'NONE', ( #63 ), #38, .T. ) ;
#278 = CYLINDRICAL_SURFACE ( 'NONE', #144, 0.1250000000000000555 ) ;
#279 = PRODUCT_RELATED_PRODUCT_CATEGORY ( 'part', '', ( #5 ) ) ;
#280 = CYLINDRICAL_SURFACE ( 'NONE', #309, 0.1250000000000000555 ) ;
#281 =( LENGTH_UNIT ( ) NAMED_UNIT ( * ) SI_UNIT ( $, .METRE. ) );
#282 = CARTESIAN_POINT ( 'NONE',  ( 0.000000000000000000, 0.000000000000000000, 0.000000000000000000 ) ) ;
#283 = DIRECTION ( 'NONE',  ( 0.000000000000000000, -1.000000000000000000, -0.000000000000000000 ) ) ;
#284 = PRESENTATION_STYLE_ASSIGNMENT (( #24 ) ) ;
#285 = PRESENTATION_LAYER_ASSIGNMENT (  '', '', ( #165 ) ) ;
#286 = APPLICATION_PROTOCOL_DEFINITION ( 'draft international standard', 'automotive_design', 1998, #158 ) ;
#287 = SURFACE_SIDE_STYLE ('',( #44 ) ) ;
#288 =( NAMED_UNIT ( * ) SI_UNIT ( $, .STERADIAN. ) SOLID_ANGLE_UNIT ( ) );
#289 =( GEOMETRIC_REPRESENTATION_CONTEXT ( 3 ) GLOBAL_UNCERTAINTY_ASSIGNED_CONTEXT ( ( #209 ) ) GLOBAL_UNIT_ASSIGNED_CONTEXT ( ( #146, #124, #195 ) ) REPRESENTATION_CONTEXT ( 'NONE', 'WORKASPACE' ) );
#290 = DIMENSIONAL_EXPONENTS ( 1.000000000000000000, 0.000000000000000000, 0.000000000000000000, 0.000000000000000000, 0.000000000000000000, 0.000000000000000000, 0.000000000000000000 ) ;
#291 = DIRECTION ( 'NONE',  ( -3.061616997868386099E-17, 1.000000000000000000, -0.000000000000000000 ) ) ;
#292 = ADVANCED_FACE ( 'NONE', ( #305 ), #278, .T. ) ;
#293 = ORIENTED_EDGE ( 'NONE', *, *, #37, .F. ) ;
#294 = DIMENSIONAL_EXPONENTS ( 1.000000000000000000, 0.000000000000000000, 0.000000000000000000, 0.000000000000000000, 0.000000000000000000, 0.000000000000000000, 0.000000000000000000 ) ;
#295 = CYLINDRICAL_SURFACE ( 'NONE', #248, 0.1250000000000000000 ) ;
#296 = VERTEX_POINT ( 'NONE', #156 ) ;
#297 = PRESENTATION_LAYER_ASSIGNMENT (  '', '', ( #217 ) ) ;
#298 = ORIENTED_EDGE ( 'NONE', *, *, #37, .T. ) ;
#299 = MECHANICAL_DESIGN_GEOMETRIC_PRESENTATION_REPRESENTATION (  '', ( #125 ), #149 ) ;
#300 = CYLINDRICAL_SURFACE ( 'NONE', #136, 0.1250000000000000000 ) ;
#301 = CARTESIAN_POINT ( 'NONE',  ( 0.000000000000000000, 0.000000000000000000, -0.1250000000000000000 ) ) ;
#302 = VERTEX_POINT ( 'NONE', #301 ) ;
#303 = LINE ( 'NONE', #75, #107 ) ;
#304 = DIRECTION ( 'NONE',  ( 0.000000000000000000, 1.000000000000000000, 0.000000000000000000 ) ) ;
#305 = FACE_OUTER_BOUND ( 'NONE', #247, .T. ) ;
#306 = FACE_OUTER_BOUND ( 'NONE', #151, .T. ) ;
#307 = CLOSED_SHELL ( 'NONE', ( #292, #153, #241, #262 ) ) ;
#308 = STYLED_ITEM ( 'NONE', ( #284 ), #118 ) ;
#309 = AXIS2_PLACEMENT_3D ( 'NONE', #116, #179, #33 ) ;
ENDSEC;
END-ISO-10303-21;
