ISO-10303-21;
HEADER;
FILE_DESCRIPTION (( 'STEP AP214' ),
    '1' );
FILE_NAME ('03555.STEP',
    '2023-06-22T15:26:55',
    ( '' ),
    ( '' ),
    'SwSTEP 2.0',
    'SolidWorks 2023',
    '' );
FILE_SCHEMA (( 'AUTOMOTIVE_DESIGN' ));
ENDSEC;

DATA;
#1 = LINE ( 'NONE', #247, #117 ) ;
#2 = SURFACE_STYLE_USAGE ( .BOTH. , #268 ) ;
#3 = CARTESIAN_POINT ( 'NONE',  ( 0.000000000000000000, 0.000000000000000000, 0.000000000000000000 ) ) ;
#4 = CIRCLE ( 'NONE', #37, 0.3124999999999996669 ) ;
#5 = FACE_OUTER_BOUND ( 'NONE', #189, .T. ) ;
#6 = DIRECTION ( 'NONE',  ( -0.000000000000000000, -1.000000000000000000, -0.000000000000000000 ) ) ;
#7 = LENGTH_MEASURE_WITH_UNIT ( LENGTH_MEASURE( 0.02539999999999999897 ), #246 );
#8 =( NAMED_UNIT ( * ) SI_UNIT ( $, .STERADIAN. ) SOLID_ANGLE_UNIT ( ) );
#9 = AXIS2_PLACEMENT_3D ( 'NONE', #36, #90, #178 ) ;
#10 = CARTESIAN_POINT ( 'NONE',  ( -0.3125000000000000000, 0.7499999999999998890, 0.000000000000000000 ) ) ;
#11 =( GEOMETRIC_REPRESENTATION_CONTEXT ( 3 ) GLOBAL_UNCERTAINTY_ASSIGNED_CONTEXT ( ( #202 ) ) GLOBAL_UNIT_ASSIGNED_CONTEXT ( ( #220, #196, #293 ) ) REPRESENTATION_CONTEXT ( 'NONE', 'WORKASPACE' ) );
#12 = CARTESIAN_POINT ( 'NONE',  ( 0.3125000000000000000, 0.7499999999999998890, 3.827021247335477694E-17 ) ) ;
#13 = CARTESIAN_POINT ( 'NONE',  ( 0.000000000000000000, 0.7499999999999998890, 0.000000000000000000 ) ) ;
#14 =( NAMED_UNIT ( * ) SI_UNIT ( $, .STERADIAN. ) SOLID_ANGLE_UNIT ( ) );
#15 = DIRECTION ( 'NONE',  ( -0.000000000000000000, -1.000000000000000000, -0.000000000000000000 ) ) ;
#16 =( LENGTH_UNIT ( ) NAMED_UNIT ( * ) SI_UNIT ( $, .METRE. ) );
#17 = UNCERTAINTY_MEASURE_WITH_UNIT (LENGTH_MEASURE( 1.000000000000000082E-05 ), #169, 'distance_accuracy_value', 'NONE');
#18 = ADVANCED_FACE ( 'NONE', ( #120 ), #262, .T. ) ;
#19 = ORIENTED_EDGE ( 'NONE', *, *, #204, .F. ) ;
#20 = FACE_OUTER_BOUND ( 'NONE', #185, .T. ) ;
#21 = ORIENTED_EDGE ( 'NONE', *, *, #227, .T. ) ;
#22 = AXIS2_PLACEMENT_3D ( 'NONE', #84, #53, #198 ) ;
#23 =( CONVERSION_BASED_UNIT ( 'INCH', #245 ) LENGTH_UNIT ( ) NAMED_UNIT ( #33 ) );
#24 = ORIENTED_EDGE ( 'NONE', *, *, #224, .T. ) ;
#25 = DIRECTION ( 'NONE',  ( -1.000000000000000000, 0.000000000000000000, 0.000000000000000000 ) ) ;
#26 = LINE ( 'NONE', #124, #62 ) ;
#27 = DIRECTION ( 'NONE',  ( -1.000000000000000000, 1.632862398863137774E-16, 0.000000000000000000 ) ) ;
#28 = CARTESIAN_POINT ( 'NONE',  ( 0.000000000000000000, 0.7499999999999998890, 0.000000000000000000 ) ) ;
#29 = EDGE_CURVE ( 'NONE', #164, #72, #143, .T. ) ;
#30 = FILL_AREA_STYLE ('',( #270 ) ) ;
#31 = DIMENSIONAL_EXPONENTS ( 1.000000000000000000, 0.000000000000000000, 0.000000000000000000, 0.000000000000000000, 0.000000000000000000, 0.000000000000000000, 0.000000000000000000 ) ;
#32 =( GEOMETRIC_REPRESENTATION_CONTEXT ( 3 ) GLOBAL_UNCERTAINTY_ASSIGNED_CONTEXT ( ( #17 ) ) GLOBAL_UNIT_ASSIGNED_CONTEXT ( ( #169, #194, #107 ) ) REPRESENTATION_CONTEXT ( 'NONE', 'WORKASPACE' ) );
#33 = DIMENSIONAL_EXPONENTS ( 1.000000000000000000, 0.000000000000000000, 0.000000000000000000, 0.000000000000000000, 0.000000000000000000, 0.000000000000000000, 0.000000000000000000 ) ;
#34 = DIRECTION ( 'NONE',  ( 0.000000000000000000, -0.000000000000000000, 1.000000000000000000 ) ) ;
#35 = AXIS2_PLACEMENT_3D ( 'NONE', #136, #236, #207 ) ;
#36 = CARTESIAN_POINT ( 'NONE',  ( 0.000000000000000000, 0.000000000000000000, 0.000000000000000000 ) ) ;
#37 = AXIS2_PLACEMENT_3D ( 'NONE', #133, #177, #85 ) ;
#38 = UNCERTAINTY_MEASURE_WITH_UNIT (LENGTH_MEASURE( 1.000000000000000082E-05 ), #23, 'distance_accuracy_value', 'NONE');
#39 =( NAMED_UNIT ( * ) PLANE_ANGLE_UNIT ( ) SI_UNIT ( $, .RADIAN. ) );
#40 = APPLICATION_CONTEXT ( 'automotive_design' ) ;
#41 = EDGE_CURVE ( 'NONE', #92, #257, #152, .T. ) ;
#42 = SURFACE_STYLE_FILL_AREA ( #256 ) ;
#43 = ORIENTED_EDGE ( 'NONE', *, *, #89, .F. ) ;
#44 = FACE_OUTER_BOUND ( 'NONE', #286, .T. ) ;
#45 = CARTESIAN_POINT ( 'NONE',  ( 0.3125000000000000000, 3.000000000000000444, 0.000000000000000000 ) ) ;
#46 = ORIENTED_EDGE ( 'NONE', *, *, #156, .F. ) ;
#47 = DIRECTION ( 'NONE',  ( 1.632862398863137774E-16, 1.000000000000000000, -0.000000000000000000 ) ) ;
#48 = FILL_AREA_STYLE ('',( #191 ) ) ;
#49 = COLOUR_RGB ( '',1.000000000000000000, 0.000000000000000000, 0.000000000000000000 ) ;
#50 = SHAPE_DEFINITION_REPRESENTATION ( #289, #70 ) ;
#51 = SURFACE_STYLE_USAGE ( .BOTH. , #244 ) ;
#52 = CARTESIAN_POINT ( 'NONE',  ( 4.165999396282938712E-33, 0.7499999999999998890, 0.000000000000000000 ) ) ;
#53 = DIRECTION ( 'NONE',  ( -0.000000000000000000, -1.000000000000000000, -0.000000000000000000 ) ) ;
#54 = PRESENTATION_STYLE_ASSIGNMENT (( #51 ) ) ;
#55 = DIRECTION ( 'NONE',  ( -1.000000000000000000, 0.000000000000000000, 0.000000000000000000 ) ) ;
#56 = ADVANCED_FACE ( 'NONE', ( #5 ), #105, .T. ) ;
#57 =( GEOMETRIC_REPRESENTATION_CONTEXT ( 3 ) GLOBAL_UNCERTAINTY_ASSIGNED_CONTEXT ( ( #208 ) ) GLOBAL_UNIT_ASSIGNED_CONTEXT ( ( #112, #39, #65 ) ) REPRESENTATION_CONTEXT ( 'NONE', 'WORKASPACE' ) );
#58 =( NAMED_UNIT ( * ) SI_UNIT ( $, .STERADIAN. ) SOLID_ANGLE_UNIT ( ) );
#59 = ADVANCED_FACE ( 'NONE', ( #67 ), #274, .T. ) ;
#60 = SURFACE_SIDE_STYLE ('',( #206 ) ) ;
#61 = DIMENSIONAL_EXPONENTS ( 1.000000000000000000, 0.000000000000000000, 0.000000000000000000, 0.000000000000000000, 0.000000000000000000, 0.000000000000000000, 0.000000000000000000 ) ;
#62 = VECTOR ( 'NONE', #6, 39.37007874015748143 ) ;
#63 = DIRECTION ( 'NONE',  ( -0.000000000000000000, -1.000000000000000000, -0.000000000000000000 ) ) ;
#64 = DIMENSIONAL_EXPONENTS ( 1.000000000000000000, 0.000000000000000000, 0.000000000000000000, 0.000000000000000000, 0.000000000000000000, 0.000000000000000000, 0.000000000000000000 ) ;
#65 =( NAMED_UNIT ( * ) SI_UNIT ( $, .STERADIAN. ) SOLID_ANGLE_UNIT ( ) );
#66 =( CONVERSION_BASED_UNIT ( 'INCH', #203 ) LENGTH_UNIT ( ) NAMED_UNIT ( #61 ) );
#67 = FACE_OUTER_BOUND ( 'NONE', #94, .T. ) ;
#68 = PRESENTATION_LAYER_ASSIGNMENT (  '', '', ( #248 ) ) ;
#69 = AXIS2_PLACEMENT_3D ( 'NONE', #175, #63, #157 ) ;
#70 = ADVANCED_BREP_SHAPE_REPRESENTATION ( '03555', ( #109, #301, #182 ), #11 ) ;
#71 = FILL_AREA_STYLE_COLOUR ( '', #200 ) ;
#72 = VERTEX_POINT ( 'NONE', #115 ) ;
#73 = CYLINDRICAL_SURFACE ( 'NONE', #278, 0.3124999999999998890 ) ;
#74 =( GEOMETRIC_REPRESENTATION_CONTEXT ( 3 ) GLOBAL_UNCERTAINTY_ASSIGNED_CONTEXT ( ( #88 ) ) GLOBAL_UNIT_ASSIGNED_CONTEXT ( ( #66, #253, #14 ) ) REPRESENTATION_CONTEXT ( 'NONE', 'WORKASPACE' ) );
#75 = ORIENTED_EDGE ( 'NONE', *, *, #306, .T. ) ;
#76 =( CONVERSION_BASED_UNIT ( 'INCH', #82 ) LENGTH_UNIT ( ) NAMED_UNIT ( #302 ) );
#77 = PRODUCT ( '03555', '03555', '', ( #80 ) ) ;
#78 = APPLICATION_PROTOCOL_DEFINITION ( 'draft international standard', 'automotive_design', 1998, #271 ) ;
#79 = AXIS2_PLACEMENT_3D ( 'NONE', #45, #263, #165 ) ;
#80 = PRODUCT_CONTEXT ( 'NONE', #271, 'mechanical' ) ;
#81 = CARTESIAN_POINT ( 'NONE',  ( 0.000000000000000000, 0.000000000000000000, 0.000000000000000000 ) ) ;
#82 = LENGTH_MEASURE_WITH_UNIT ( LENGTH_MEASURE( 0.02539999999999999897 ), #170 );
#83 = AXIS2_PLACEMENT_3D ( 'NONE', #131, #15, #111 ) ;
#84 = CARTESIAN_POINT ( 'NONE',  ( 0.000000000000000000, 0.7499999999999998890, 0.000000000000000000 ) ) ;
#85 = DIRECTION ( 'NONE',  ( -1.000000000000000000, 0.000000000000000000, 0.000000000000000000 ) ) ;
#86 = STYLED_ITEM ( 'NONE', ( #134 ), #56 ) ;
#87 = FILL_AREA_STYLE_COLOUR ( '', #49 ) ;
#88 = UNCERTAINTY_MEASURE_WITH_UNIT (LENGTH_MEASURE( 1.000000000000000082E-05 ), #66, 'distance_accuracy_value', 'NONE');
#89 = EDGE_CURVE ( 'NONE', #164, #237, #230, .T. ) ;
#90 = DIRECTION ( 'NONE',  ( -0.000000000000000000, -1.000000000000000000, -0.000000000000000000 ) ) ;
#91 = PRESENTATION_LAYER_ASSIGNMENT (  '', '', ( #231 ) ) ;
#92 = VERTEX_POINT ( 'NONE', #12 ) ;
#93 = ORIENTED_EDGE ( 'NONE', *, *, #255, .F. ) ;
#94 = EDGE_LOOP ( 'NONE', ( #212, #166, #75, #217 ) ) ;
#95 =( GEOMETRIC_REPRESENTATION_CONTEXT ( 3 ) GLOBAL_UNCERTAINTY_ASSIGNED_CONTEXT ( ( #118 ) ) GLOBAL_UNIT_ASSIGNED_CONTEXT ( ( #126, #228, #128 ) ) REPRESENTATION_CONTEXT ( 'NONE', 'WORKASPACE' ) );
#96 = SURFACE_STYLE_FILL_AREA ( #142 ) ;
#97 = LENGTH_MEASURE_WITH_UNIT ( LENGTH_MEASURE( 0.02539999999999999897 ), #308 );
#98 = CARTESIAN_POINT ( 'NONE',  ( 0.000000000000000000, 0.000000000000000000, 0.000000000000000000 ) ) ;
#99 = ADVANCED_FACE ( 'NONE', ( #44 ), #121, .F. ) ;
#100 = CARTESIAN_POINT ( 'NONE',  ( -0.3124999999999993339, 3.000000000000000444, 0.000000000000000000 ) ) ;
#101 = DIRECTION ( 'NONE',  ( -0.000000000000000000, -1.000000000000000000, -0.000000000000000000 ) ) ;
#102 = AXIS2_PLACEMENT_3D ( 'NONE', #52, #146, #27 ) ;
#103 = AXIS2_PLACEMENT_3D ( 'NONE', #229, #154, #297 ) ;
#104 = CARTESIAN_POINT ( 'NONE',  ( 0.000000000000000000, 0.7499999999999998890, 0.000000000000000000 ) ) ;
#105 = CYLINDRICAL_SURFACE ( 'NONE', #9, 0.3125000000000000000 ) ;
#106 = DIRECTION ( 'NONE',  ( 1.632862398863137774E-16, 1.000000000000000000, -0.000000000000000000 ) ) ;
#107 =( NAMED_UNIT ( * ) SI_UNIT ( $, .STERADIAN. ) SOLID_ANGLE_UNIT ( ) );
#108 =( NAMED_UNIT ( * ) PLANE_ANGLE_UNIT ( ) SI_UNIT ( $, .RADIAN. ) );
#109 = MANIFOLD_SOLID_BREP ( 'Revolve - Cutting Edge', #150 ) ;
#110 = CIRCLE ( 'NONE', #254, 0.3125000000000000000 ) ;
#111 = DIRECTION ( 'NONE',  ( 0.000000000000000000, 0.000000000000000000, -1.000000000000000000 ) ) ;
#112 =( CONVERSION_BASED_UNIT ( 'INCH', #179 ) LENGTH_UNIT ( ) NAMED_UNIT ( #64 ) );
#113 = AXIS2_PLACEMENT_3D ( 'NONE', #13, #252, #34 ) ;
#114 = MECHANICAL_DESIGN_GEOMETRIC_PRESENTATION_REPRESENTATION (  '', ( #241 ), #176 ) ;
#115 = CARTESIAN_POINT ( 'NONE',  ( 0.000000000000000000, 0.7499999999999998890, -0.3125000000000000000 ) ) ;
#116 = STYLED_ITEM ( 'NONE', ( #226 ), #153 ) ;
#117 = VECTOR ( 'NONE', #151, 39.37007874015748143 ) ;
#118 = UNCERTAINTY_MEASURE_WITH_UNIT (LENGTH_MEASURE( 1.000000000000000082E-05 ), #126, 'distance_accuracy_value', 'NONE');
#119 = EDGE_LOOP ( 'NONE', ( #43, #307, #304, #93 ) ) ;
#120 = FACE_OUTER_BOUND ( 'NONE', #119, .T. ) ;
#121 = PLANE ( 'NONE',  #79 ) ;
#122 = MECHANICAL_DESIGN_GEOMETRIC_PRESENTATION_REPRESENTATION (  '', ( #86 ), #57 ) ;
#123 = VERTEX_POINT ( 'NONE', #199 ) ;
#124 = CARTESIAN_POINT ( 'NONE',  ( 0.000000000000000000, 0.000000000000000000, -0.3125000000000000000 ) ) ;
#125 = EDGE_CURVE ( 'NONE', #138, #257, #127, .T. ) ;
#126 =( CONVERSION_BASED_UNIT ( 'INCH', #222 ) LENGTH_UNIT ( ) NAMED_UNIT ( #205 ) );
#127 = CIRCLE ( 'NONE', #280, 0.3124999999999996669 ) ;
#128 =( NAMED_UNIT ( * ) SI_UNIT ( $, .STERADIAN. ) SOLID_ANGLE_UNIT ( ) );
#129 =( LENGTH_UNIT ( ) NAMED_UNIT ( * ) SI_UNIT ( $, .METRE. ) );
#130 = SURFACE_SIDE_STYLE ('',( #149 ) ) ;
#131 = CARTESIAN_POINT ( 'NONE',  ( 0.000000000000000000, 0.7499999999999998890, 0.000000000000000000 ) ) ;
#132 = MECHANICAL_DESIGN_GEOMETRIC_PRESENTATION_REPRESENTATION (  '', ( #213 ), #32 ) ;
#133 = CARTESIAN_POINT ( 'NONE',  ( 3.673940397442060361E-16, 3.000000000000000444, 0.000000000000000000 ) ) ;
#134 = PRESENTATION_STYLE_ASSIGNMENT (( #272 ) ) ;
#135 = CIRCLE ( 'NONE', #83, 0.3125000000000000000 ) ;
#136 = CARTESIAN_POINT ( 'NONE',  ( 3.673940397442060361E-16, 3.000000000000000444, 0.000000000000000000 ) ) ;
#137 = SURFACE_SIDE_STYLE ('',( #42 ) ) ;
#138 = VERTEX_POINT ( 'NONE', #100 ) ;
#139 = MECHANICAL_DESIGN_GEOMETRIC_PRESENTATION_REPRESENTATION (  '', ( #231 ), #74 ) ;
#140 = CIRCLE ( 'NONE', #69, 0.3125000000000000000 ) ;
#141 = ORIENTED_EDGE ( 'NONE', *, *, #224, .F. ) ;
#142 = FILL_AREA_STYLE ('',( #210 ) ) ;
#143 = CIRCLE ( 'NONE', #22, 0.3125000000000000000 ) ;
#144 = ORIENTED_EDGE ( 'NONE', *, *, #89, .T. ) ;
#145 = DIRECTION ( 'NONE',  ( 0.000000000000000000, -1.000000000000000000, -0.000000000000000000 ) ) ;
#146 = DIRECTION ( 'NONE',  ( 1.632862398863137774E-16, 1.000000000000000000, -0.000000000000000000 ) ) ;
#147 = CARTESIAN_POINT ( 'NONE',  ( 0.3125000000000002220, 3.000000000000000444, 3.827021247335477078E-17 ) ) ;
#148 = CARTESIAN_POINT ( 'NONE',  ( 3.827021247335478926E-17, 0.7499999999999998890, 0.3125000000000000000 ) ) ;
#149 = SURFACE_STYLE_FILL_AREA ( #30 ) ;
#150 = CLOSED_SHELL ( 'NONE', ( #56, #219, #18, #153 ) ) ;
#151 = DIRECTION ( 'NONE',  ( 1.632862398863137774E-16, 1.000000000000000000, -0.000000000000000000 ) ) ;
#152 = LINE ( 'NONE', #147, #186 ) ;
#153 = ADVANCED_FACE ( 'NONE', ( #290 ), #309, .T. ) ;
#154 = DIRECTION ( 'NONE',  ( -0.000000000000000000, -1.000000000000000000, -0.000000000000000000 ) ) ;
#155 = MECHANICAL_DESIGN_GEOMETRIC_PRESENTATION_REPRESENTATION (  '', ( #248 ), #162 ) ;
#156 = EDGE_CURVE ( 'NONE', #72, #123, #26, .T. ) ;
#157 = DIRECTION ( 'NONE',  ( 0.000000000000000000, 0.000000000000000000, -1.000000000000000000 ) ) ;
#158 = ADVANCED_FACE ( 'NONE', ( #192 ), #267, .F. ) ;
#159 = PRESENTATION_LAYER_ASSIGNMENT (  '', '', ( #213 ) ) ;
#160 = ORIENTED_EDGE ( 'NONE', *, *, #41, .T. ) ;
#161 = ORIENTED_EDGE ( 'NONE', *, *, #306, .F. ) ;
#162 =( GEOMETRIC_REPRESENTATION_CONTEXT ( 3 ) GLOBAL_UNCERTAINTY_ASSIGNED_CONTEXT ( ( #38 ) ) GLOBAL_UNIT_ASSIGNED_CONTEXT ( ( #23, #108, #8 ) ) REPRESENTATION_CONTEXT ( 'NONE', 'WORKASPACE' ) );
#163 = EDGE_CURVE ( 'NONE', #92, #239, #110, .T. ) ;
#164 = VERTEX_POINT ( 'NONE', #148 ) ;
#165 = DIRECTION ( 'NONE',  ( 1.000000000000000000, -1.632862398863137774E-16, 0.000000000000000000 ) ) ;
#166 = ORIENTED_EDGE ( 'NONE', *, *, #163, .T. ) ;
#167 = ORIENTED_EDGE ( 'NONE', *, *, #163, .F. ) ;
#168 = CARTESIAN_POINT ( 'NONE',  ( 3.673940397442060361E-16, 3.000000000000000444, 0.000000000000000000 ) ) ;
#169 =( CONVERSION_BASED_UNIT ( 'INCH', #7 ) LENGTH_UNIT ( ) NAMED_UNIT ( #282 ) );
#170 =( LENGTH_UNIT ( ) NAMED_UNIT ( * ) SI_UNIT ( $, .METRE. ) );
#171 =( LENGTH_UNIT ( ) NAMED_UNIT ( * ) SI_UNIT ( $, .METRE. ) );
#172 = FACE_OUTER_BOUND ( 'NONE', #287, .T. ) ;
#173 = DIRECTION ( 'NONE',  ( 0.000000000000000000, 0.000000000000000000, -1.000000000000000000 ) ) ;
#174 = FILL_AREA_STYLE ('',( #87 ) ) ;
#175 = CARTESIAN_POINT ( 'NONE',  ( 0.000000000000000000, 0.000000000000000000, 0.000000000000000000 ) ) ;
#176 =( GEOMETRIC_REPRESENTATION_CONTEXT ( 3 ) GLOBAL_UNCERTAINTY_ASSIGNED_CONTEXT ( ( #303 ) ) GLOBAL_UNIT_ASSIGNED_CONTEXT ( ( #76, #225, #58 ) ) REPRESENTATION_CONTEXT ( 'NONE', 'WORKASPACE' ) );
#177 = DIRECTION ( 'NONE',  ( 1.632862398863137774E-16, 1.000000000000000000, -0.000000000000000000 ) ) ;
#178 = DIRECTION ( 'NONE',  ( 0.000000000000000000, 0.000000000000000000, -1.000000000000000000 ) ) ;
#179 = LENGTH_MEASURE_WITH_UNIT ( LENGTH_MEASURE( 0.02539999999999999897 ), #16 );
#180 = PRODUCT_RELATED_PRODUCT_CATEGORY ( 'part', '', ( #77 ) ) ;
#181 = AXIS2_PLACEMENT_3D ( 'NONE', #81, #101, #173 ) ;
#182 = AXIS2_PLACEMENT_3D ( 'NONE', #3, #288, #190 ) ;
#183 = EDGE_LOOP ( 'NONE', ( #19, #167 ) ) ;
#184 = SURFACE_SIDE_STYLE ('',( #96 ) ) ;
#185 = EDGE_LOOP ( 'NONE', ( #281, #160, #305, #161 ) ) ;
#186 = VECTOR ( 'NONE', #223, 39.37007874015748143 ) ;
#187 = ORIENTED_EDGE ( 'NONE', *, *, #125, .T. ) ;
#188 = SURFACE_STYLE_FILL_AREA ( #215 ) ;
#189 = EDGE_LOOP ( 'NONE', ( #24, #144, #243, #46 ) ) ;
#190 = DIRECTION ( 'NONE',  ( 1.000000000000000000, 0.000000000000000000, 0.000000000000000000 ) ) ;
#191 = FILL_AREA_STYLE_COLOUR ( '', #234 ) ;
#192 = FACE_OUTER_BOUND ( 'NONE', #183, .T. ) ;
#193 = COLOUR_RGB ( '',1.000000000000000000, 0.000000000000000000, 0.000000000000000000 ) ;
#194 =( NAMED_UNIT ( * ) PLANE_ANGLE_UNIT ( ) SI_UNIT ( $, .RADIAN. ) );
#195 = APPLICATION_PROTOCOL_DEFINITION ( 'draft international standard', 'automotive_design', 1998, #40 ) ;
#196 =( NAMED_UNIT ( * ) PLANE_ANGLE_UNIT ( ) SI_UNIT ( $, .RADIAN. ) );
#197 = DIRECTION ( 'NONE',  ( 0.000000000000000000, 0.000000000000000000, -1.000000000000000000 ) ) ;
#198 = DIRECTION ( 'NONE',  ( 0.000000000000000000, 0.000000000000000000, -1.000000000000000000 ) ) ;
#199 = CARTESIAN_POINT ( 'NONE',  ( 0.000000000000000000, 0.000000000000000000, -0.3125000000000000000 ) ) ;
#200 = COLOUR_RGB ( '',0.7921568627450980005, 0.8196078431372548767, 0.9333333333333333481 ) ;
#201 = COLOUR_RGB ( '',0.7921568627450980005, 0.8196078431372548767, 0.9333333333333333481 ) ;
#202 = UNCERTAINTY_MEASURE_WITH_UNIT (LENGTH_MEASURE( 1.000000000000000082E-05 ), #220, 'distance_accuracy_value', 'NONE');
#203 = LENGTH_MEASURE_WITH_UNIT ( LENGTH_MEASURE( 0.02539999999999999897 ), #233 );
#204 = EDGE_CURVE ( 'NONE', #239, #92, #277, .T. ) ;
#205 = DIMENSIONAL_EXPONENTS ( 1.000000000000000000, 0.000000000000000000, 0.000000000000000000, 0.000000000000000000, 0.000000000000000000, 0.000000000000000000, 0.000000000000000000 ) ;
#206 = SURFACE_STYLE_FILL_AREA ( #174 ) ;
#207 = DIRECTION ( 'NONE',  ( -1.000000000000000000, 0.000000000000000000, 0.000000000000000000 ) ) ;
#208 = UNCERTAINTY_MEASURE_WITH_UNIT (LENGTH_MEASURE( 1.000000000000000082E-05 ), #112, 'distance_accuracy_value', 'NONE');
#209 = SURFACE_STYLE_USAGE ( .BOTH. , #137 ) ;
#210 = FILL_AREA_STYLE_COLOUR ( '', #193 ) ;
#211 = ORIENTED_EDGE ( 'NONE', *, *, #255, .T. ) ;
#212 = ORIENTED_EDGE ( 'NONE', *, *, #41, .F. ) ;
#213 = STYLED_ITEM ( 'NONE', ( #258 ), #18 ) ;
#214 = ORIENTED_EDGE ( 'NONE', *, *, #29, .F. ) ;
#215 = FILL_AREA_STYLE ('',( #266 ) ) ;
#216 = DIRECTION ( 'NONE',  ( -1.000000000000000000, 0.000000000000000000, 0.000000000000000000 ) ) ;
#217 = ORIENTED_EDGE ( 'NONE', *, *, #251, .F. ) ;
#218 = SURFACE_STYLE_FILL_AREA ( #48 ) ;
#219 = ADVANCED_FACE ( 'NONE', ( #172 ), #235, .T. ) ;
#220 =( CONVERSION_BASED_UNIT ( 'INCH', #97 ) LENGTH_UNIT ( ) NAMED_UNIT ( #31 ) );
#221 = COLOUR_RGB ( '',1.000000000000000000, 0.000000000000000000, 0.000000000000000000 ) ;
#222 = LENGTH_MEASURE_WITH_UNIT ( LENGTH_MEASURE( 0.02539999999999999897 ), #171 );
#223 = DIRECTION ( 'NONE',  ( 1.632862398863137774E-16, 1.000000000000000000, -0.000000000000000000 ) ) ;
#224 = EDGE_CURVE ( 'NONE', #72, #164, #135, .T. ) ;
#225 =( NAMED_UNIT ( * ) PLANE_ANGLE_UNIT ( ) SI_UNIT ( $, .RADIAN. ) );
#226 = PRESENTATION_STYLE_ASSIGNMENT (( #2 ) ) ;
#227 = EDGE_CURVE ( 'NONE', #123, #237, #285, .T. ) ;
#228 =( NAMED_UNIT ( * ) PLANE_ANGLE_UNIT ( ) SI_UNIT ( $, .RADIAN. ) );
#229 = CARTESIAN_POINT ( 'NONE',  ( 0.000000000000000000, 0.000000000000000000, 0.000000000000000000 ) ) ;
#230 = LINE ( 'NONE', #300, #291 ) ;
#231 = STYLED_ITEM ( 'NONE', ( #273 ), #219 ) ;
#232 = PRODUCT_DEFINITION_CONTEXT ( 'detailed design', #40, 'design' ) ;
#233 =( LENGTH_UNIT ( ) NAMED_UNIT ( * ) SI_UNIT ( $, .METRE. ) );
#234 = COLOUR_RGB ( '',1.000000000000000000, 0.000000000000000000, 0.000000000000000000 ) ;
#235 = PLANE ( 'NONE',  #113 ) ;
#236 = DIRECTION ( 'NONE',  ( 1.632862398863137774E-16, 1.000000000000000000, -0.000000000000000000 ) ) ;
#237 = VERTEX_POINT ( 'NONE', #299 ) ;
#238 = AXIS2_PLACEMENT_3D ( 'NONE', #98, #145, #197 ) ;
#239 = VERTEX_POINT ( 'NONE', #10 ) ;
#240 = PRODUCT_DEFINITION ( 'UNKNOWN', '', #259, #232 ) ;
#241 = STYLED_ITEM ( 'NONE', ( #54 ), #301 ) ;
#242 = DIRECTION ( 'NONE',  ( 1.632862398863137774E-16, 1.000000000000000000, -0.000000000000000000 ) ) ;
#243 = ORIENTED_EDGE ( 'NONE', *, *, #227, .F. ) ;
#244 = SURFACE_SIDE_STYLE ('',( #188 ) ) ;
#245 = LENGTH_MEASURE_WITH_UNIT ( LENGTH_MEASURE( 0.02539999999999999897 ), #129 );
#246 =( LENGTH_UNIT ( ) NAMED_UNIT ( * ) SI_UNIT ( $, .METRE. ) );
#247 = CARTESIAN_POINT ( 'NONE',  ( -0.3124999999999995559, 3.000000000000000444, 0.000000000000000000 ) ) ;
#248 = STYLED_ITEM ( 'NONE', ( #292 ), #109 ) ;
#249 = PRESENTATION_LAYER_ASSIGNMENT (  '', '', ( #241 ) ) ;
#250 = CARTESIAN_POINT ( 'NONE',  ( 0.3125000000000000000, 3.000000000000000444, 3.827021247335477694E-17 ) ) ;
#251 = EDGE_CURVE ( 'NONE', #257, #138, #4, .T. ) ;
#252 = DIRECTION ( 'NONE',  ( 0.000000000000000000, 1.000000000000000000, 0.000000000000000000 ) ) ;
#253 =( NAMED_UNIT ( * ) PLANE_ANGLE_UNIT ( ) SI_UNIT ( $, .RADIAN. ) );
#254 = AXIS2_PLACEMENT_3D ( 'NONE', #104, #294, #55 ) ;
#255 = EDGE_CURVE ( 'NONE', #237, #123, #140, .T. ) ;
#256 = FILL_AREA_STYLE ('',( #71 ) ) ;
#257 = VERTEX_POINT ( 'NONE', #250 ) ;
#258 = PRESENTATION_STYLE_ASSIGNMENT (( #283 ) ) ;
#259 = PRODUCT_DEFINITION_FORMATION_WITH_SPECIFIED_SOURCE ( 'ANY', '', #77, .NOT_KNOWN. ) ;
#260 = EDGE_LOOP ( 'NONE', ( #21, #211 ) ) ;
#261 = CARTESIAN_POINT ( 'NONE',  ( 3.673940397442060361E-16, 3.000000000000000444, 0.000000000000000000 ) ) ;
#262 = CYLINDRICAL_SURFACE ( 'NONE', #181, 0.3125000000000000000 ) ;
#263 = DIRECTION ( 'NONE',  ( -1.632862398863137774E-16, -1.000000000000000000, 0.000000000000000000 ) ) ;
#264 = ORIENTED_EDGE ( 'NONE', *, *, #251, .T. ) ;
#265 = CLOSED_SHELL ( 'NONE', ( #275, #158, #59, #99 ) ) ;
#266 = FILL_AREA_STYLE_COLOUR ( '', #201 ) ;
#267 = PLANE ( 'NONE',  #102 ) ;
#268 = SURFACE_SIDE_STYLE ('',( #218 ) ) ;
#269 = AXIS2_PLACEMENT_3D ( 'NONE', #28, #106, #295 ) ;
#270 = FILL_AREA_STYLE_COLOUR ( '', #221 ) ;
#271 = APPLICATION_CONTEXT ( 'automotive_design' ) ;
#272 = SURFACE_STYLE_USAGE ( .BOTH. , #130 ) ;
#273 = PRESENTATION_STYLE_ASSIGNMENT (( #276 ) ) ;
#274 = CYLINDRICAL_SURFACE ( 'NONE', #35, 0.3124999999999998890 ) ;
#275 = ADVANCED_FACE ( 'NONE', ( #20 ), #73, .T. ) ;
#276 = SURFACE_STYLE_USAGE ( .BOTH. , #60 ) ;
#277 = CIRCLE ( 'NONE', #269, 0.3125000000000000000 ) ;
#278 = AXIS2_PLACEMENT_3D ( 'NONE', #168, #47, #25 ) ;
#279 = DIRECTION ( 'NONE',  ( -0.000000000000000000, -1.000000000000000000, -0.000000000000000000 ) ) ;
#280 = AXIS2_PLACEMENT_3D ( 'NONE', #261, #242, #216 ) ;
#281 = ORIENTED_EDGE ( 'NONE', *, *, #204, .T. ) ;
#282 = DIMENSIONAL_EXPONENTS ( 1.000000000000000000, 0.000000000000000000, 0.000000000000000000, 0.000000000000000000, 0.000000000000000000, 0.000000000000000000, 0.000000000000000000 ) ;
#283 = SURFACE_STYLE_USAGE ( .BOTH. , #184 ) ;
#284 = PRESENTATION_LAYER_ASSIGNMENT (  '', '', ( #116 ) ) ;
#285 = CIRCLE ( 'NONE', #103, 0.3125000000000000000 ) ;
#286 = EDGE_LOOP ( 'NONE', ( #187, #264 ) ) ;
#287 = EDGE_LOOP ( 'NONE', ( #141, #214 ) ) ;
#288 = DIRECTION ( 'NONE',  ( 0.000000000000000000, 0.000000000000000000, 1.000000000000000000 ) ) ;
#289 = PRODUCT_DEFINITION_SHAPE ( 'NONE', 'NONE',  #240 ) ;
#290 = FACE_OUTER_BOUND ( 'NONE', #260, .T. ) ;
#291 = VECTOR ( 'NONE', #279, 39.37007874015748143 ) ;
#292 = PRESENTATION_STYLE_ASSIGNMENT (( #209 ) ) ;
#293 =( NAMED_UNIT ( * ) SI_UNIT ( $, .STERADIAN. ) SOLID_ANGLE_UNIT ( ) );
#294 = DIRECTION ( 'NONE',  ( 1.632862398863137774E-16, 1.000000000000000000, -0.000000000000000000 ) ) ;
#295 = DIRECTION ( 'NONE',  ( -1.000000000000000000, 0.000000000000000000, 0.000000000000000000 ) ) ;
#296 = PRESENTATION_LAYER_ASSIGNMENT (  '', '', ( #86 ) ) ;
#297 = DIRECTION ( 'NONE',  ( 0.000000000000000000, 0.000000000000000000, -1.000000000000000000 ) ) ;
#298 = MECHANICAL_DESIGN_GEOMETRIC_PRESENTATION_REPRESENTATION (  '', ( #116 ), #95 ) ;
#299 = CARTESIAN_POINT ( 'NONE',  ( 3.827021247335478926E-17, 0.000000000000000000, 0.3125000000000000000 ) ) ;
#300 = CARTESIAN_POINT ( 'NONE',  ( 3.827021247335478926E-17, 0.000000000000000000, 0.3125000000000000000 ) ) ;
#301 = MANIFOLD_SOLID_BREP ( 'Revolve - Tool Body (Straight Shanked)', #265 ) ;
#302 = DIMENSIONAL_EXPONENTS ( 1.000000000000000000, 0.000000000000000000, 0.000000000000000000, 0.000000000000000000, 0.000000000000000000, 0.000000000000000000, 0.000000000000000000 ) ;
#303 = UNCERTAINTY_MEASURE_WITH_UNIT (LENGTH_MEASURE( 1.000000000000000082E-05 ), #76, 'distance_accuracy_value', 'NONE');
#304 = ORIENTED_EDGE ( 'NONE', *, *, #156, .T. ) ;
#305 = ORIENTED_EDGE ( 'NONE', *, *, #125, .F. ) ;
#306 = EDGE_CURVE ( 'NONE', #239, #138, #1, .T. ) ;
#307 = ORIENTED_EDGE ( 'NONE', *, *, #29, .T. ) ;
#308 =( LENGTH_UNIT ( ) NAMED_UNIT ( * ) SI_UNIT ( $, .METRE. ) );
#309 = PLANE ( 'NONE',  #238 ) ;
ENDSEC;
END-ISO-10303-21;
