ISO-10303-21;
HEADER;
FILE_DESCRIPTION (( 'STEP AP214' ),
    '1' );
FILE_NAME ('82274.STEP',
    '2023-06-23T05:23:10',
    ( '' ),
    ( '' ),
    'SwSTEP 2.0',
    'SolidWorks 2023',
    '' );
FILE_SCHEMA (( 'AUTOMOTIVE_DESIGN' ));
ENDSEC;

DATA;
#1 = PRESENTATION_LAYER_ASSIGNMENT (  '', '', ( #38 ) ) ;
#2 = PRESENTATION_LAYER_ASSIGNMENT (  '', '', ( #271 ) ) ;
#3 = VERTEX_POINT ( 'NONE', #22 ) ;
#4 = ORIENTED_EDGE ( 'NONE', *, *, #260, .T. ) ;
#5 = COLOUR_RGB ( '',1.000000000000000000, 0.000000000000000000, 0.000000000000000000 ) ;
#6 =( GEOMETRIC_REPRESENTATION_CONTEXT ( 3 ) GLOBAL_UNCERTAINTY_ASSIGNED_CONTEXT ( ( #235 ) ) GLOBAL_UNIT_ASSIGNED_CONTEXT ( ( #231, #83, #275 ) ) REPRESENTATION_CONTEXT ( 'NONE', 'WORKASPACE' ) );
#7 = VERTEX_POINT ( 'NONE', #70 ) ;
#8 = CIRCLE ( 'NONE', #24, 0.3750000000000000555 ) ;
#9 = DIRECTION ( 'NONE',  ( 0.000000000000000000, 0.000000000000000000, 1.000000000000000000 ) ) ;
#10 = PLANE ( 'NONE',  #71 ) ;
#11 = PRODUCT_RELATED_PRODUCT_CATEGORY ( 'part', '', ( #75 ) ) ;
#12 = FACE_OUTER_BOUND ( 'NONE', #126, .T. ) ;
#13 = PRESENTATION_LAYER_ASSIGNMENT (  '', '', ( #90 ) ) ;
#14 = CARTESIAN_POINT ( 'NONE',  ( 4.592425496802575451E-17, 1.625000000000000000, 0.3750000000000000555 ) ) ;
#15 = DIRECTION ( 'NONE',  ( -0.000000000000000000, -1.000000000000000000, -0.000000000000000000 ) ) ;
#16 =( NAMED_UNIT ( * ) SI_UNIT ( $, .STERADIAN. ) SOLID_ANGLE_UNIT ( ) );
#17 = CARTESIAN_POINT ( 'NONE',  ( 0.000000000000000000, 1.625000000000000000, 0.000000000000000000 ) ) ;
#18 =( LENGTH_UNIT ( ) NAMED_UNIT ( * ) SI_UNIT ( $, .METRE. ) );
#19 = MECHANICAL_DESIGN_GEOMETRIC_PRESENTATION_REPRESENTATION (  '', ( #34 ), #6 ) ;
#20 = SURFACE_STYLE_USAGE ( .BOTH. , #165 ) ;
#21 = ORIENTED_EDGE ( 'NONE', *, *, #252, .F. ) ;
#22 = CARTESIAN_POINT ( 'NONE',  ( 0.000000000000000000, 1.625000000000000000, -0.3750000000000000555 ) ) ;
#23 =( CONVERSION_BASED_UNIT ( 'INCH', #150 ) LENGTH_UNIT ( ) NAMED_UNIT ( #233 ) );
#24 = AXIS2_PLACEMENT_3D ( 'NONE', #84, #236, #86 ) ;
#25 = VECTOR ( 'NONE', #148, 39.37007874015748143 ) ;
#26 = ORIENTED_EDGE ( 'NONE', *, *, #252, .T. ) ;
#27 = EDGE_LOOP ( 'NONE', ( #215, #180, #192, #73 ) ) ;
#28 = CARTESIAN_POINT ( 'NONE',  ( 0.000000000000000000, 0.000000000000000000, 0.000000000000000000 ) ) ;
#29 = CYLINDRICAL_SURFACE ( 'NONE', #76, 0.3750000000000001110 ) ;
#30 = ADVANCED_FACE ( 'NONE', ( #269 ), #45, .T. ) ;
#31 = CARTESIAN_POINT ( 'NONE',  ( 4.985351078100356093E-34, 1.625000000000000000, 0.000000000000000000 ) ) ;
#32 =( NAMED_UNIT ( * ) PLANE_ANGLE_UNIT ( ) SI_UNIT ( $, .RADIAN. ) );
#33 = CARTESIAN_POINT ( 'NONE',  ( 0.3750000000000000555, 4.000000000000000000, 0.000000000000000000 ) ) ;
#34 = STYLED_ITEM ( 'NONE', ( #301 ), #218 ) ;
#35 = AXIS2_PLACEMENT_3D ( 'NONE', #120, #48, #153 ) ;
#36 = ADVANCED_FACE ( 'NONE', ( #62 ), #60, .T. ) ;
#37 = FILL_AREA_STYLE ('',( #137 ) ) ;
#38 = STYLED_ITEM ( 'NONE', ( #44 ), #30 ) ;
#39 = PRESENTATION_LAYER_ASSIGNMENT (  '', '', ( #157 ) ) ;
#40 = SURFACE_SIDE_STYLE ('',( #208 ) ) ;
#41 = PRESENTATION_STYLE_ASSIGNMENT (( #304 ) ) ;
#42 =( CONVERSION_BASED_UNIT ( 'INCH', #167 ) LENGTH_UNIT ( ) NAMED_UNIT ( #299 ) );
#43 = VERTEX_POINT ( 'NONE', #142 ) ;
#44 = PRESENTATION_STYLE_ASSIGNMENT (( #220 ) ) ;
#45 = CYLINDRICAL_SURFACE ( 'NONE', #95, 0.3750000000000000555 ) ;
#46 = ADVANCED_FACE ( 'NONE', ( #88 ), #168, .T. ) ;
#47 = ORIENTED_EDGE ( 'NONE', *, *, #122, .F. ) ;
#48 = DIRECTION ( 'NONE',  ( -0.000000000000000000, -1.000000000000000000, -0.000000000000000000 ) ) ;
#49 = ORIENTED_EDGE ( 'NONE', *, *, #149, .F. ) ;
#50 = CARTESIAN_POINT ( 'NONE',  ( -1.224646799147352714E-16, 4.000000000000000000, 0.000000000000000000 ) ) ;
#51 =( LENGTH_UNIT ( ) NAMED_UNIT ( * ) SI_UNIT ( $, .METRE. ) );
#52 = DIRECTION ( 'NONE',  ( -5.156407575357275916E-17, 1.000000000000000000, 0.000000000000000000 ) ) ;
#53 = DIRECTION ( 'NONE',  ( -0.000000000000000000, -1.000000000000000000, -0.000000000000000000 ) ) ;
#54 = DIRECTION ( 'NONE',  ( -1.000000000000000000, 0.000000000000000000, 0.000000000000000000 ) ) ;
#55 =( CONVERSION_BASED_UNIT ( 'INCH', #159 ) LENGTH_UNIT ( ) NAMED_UNIT ( #184 ) );
#56 = DIRECTION ( 'NONE',  ( -1.000000000000000000, 0.000000000000000000, 0.000000000000000000 ) ) ;
#57 = UNCERTAINTY_MEASURE_WITH_UNIT (LENGTH_MEASURE( 1.000000000000000082E-05 ), #55, 'distance_accuracy_value', 'NONE');
#58 = LENGTH_MEASURE_WITH_UNIT ( LENGTH_MEASURE( 0.02539999999999999897 ), #300 );
#59 = COLOUR_RGB ( '',0.7921568627450980005, 0.8196078431372548767, 0.9333333333333333481 ) ;
#60 = CYLINDRICAL_SURFACE ( 'NONE', #124, 0.3750000000000000555 ) ;
#61 =( NAMED_UNIT ( * ) SI_UNIT ( $, .STERADIAN. ) SOLID_ANGLE_UNIT ( ) );
#62 = FACE_OUTER_BOUND ( 'NONE', #290, .T. ) ;
#63 = MECHANICAL_DESIGN_GEOMETRIC_PRESENTATION_REPRESENTATION (  '', ( #38 ), #104 ) ;
#64 =( CONVERSION_BASED_UNIT ( 'INCH', #188 ) LENGTH_UNIT ( ) NAMED_UNIT ( #131 ) );
#65 = CIRCLE ( 'NONE', #248, 0.3750000000000000555 ) ;
#66 = VECTOR ( 'NONE', #87, 39.37007874015748143 ) ;
#67 = PRODUCT_DEFINITION_FORMATION_WITH_SPECIFIED_SOURCE ( 'ANY', '', #75, .NOT_KNOWN. ) ;
#68 =( NAMED_UNIT ( * ) PLANE_ANGLE_UNIT ( ) SI_UNIT ( $, .RADIAN. ) );
#69 = FILL_AREA_STYLE ('',( #287 ) ) ;
#70 = CARTESIAN_POINT ( 'NONE',  ( 0.3750000000000000555, 4.000000000000000000, 4.592425496802576684E-17 ) ) ;
#71 = AXIS2_PLACEMENT_3D ( 'NONE', #130, #226, #298 ) ;
#72 = LINE ( 'NONE', #297, #98 ) ;
#73 = ORIENTED_EDGE ( 'NONE', *, *, #292, .F. ) ;
#74 = ORIENTED_EDGE ( 'NONE', *, *, #243, .F. ) ;
#75 = PRODUCT ( '82274', '82274', '', ( #133 ) ) ;
#76 = AXIS2_PLACEMENT_3D ( 'NONE', #101, #156, #160 ) ;
#77 = EDGE_CURVE ( 'NONE', #7, #43, #216, .T. ) ;
#78 = CARTESIAN_POINT ( 'NONE',  ( 0.000000000000000000, 1.625000000000000000, 0.000000000000000000 ) ) ;
#79 = SHAPE_DEFINITION_REPRESENTATION ( #96, #129 ) ;
#80 = DIRECTION ( 'NONE',  ( 0.000000000000000000, 0.000000000000000000, -1.000000000000000000 ) ) ;
#81 = PRODUCT_DEFINITION ( 'UNKNOWN', '', #67, #162 ) ;
#82 = DIRECTION ( 'NONE',  ( 0.000000000000000000, -0.000000000000000000, 1.000000000000000000 ) ) ;
#83 =( NAMED_UNIT ( * ) PLANE_ANGLE_UNIT ( ) SI_UNIT ( $, .RADIAN. ) );
#84 = CARTESIAN_POINT ( 'NONE',  ( 0.000000000000000000, 0.000000000000000000, 0.000000000000000000 ) ) ;
#85 = CIRCLE ( 'NONE', #203, 0.3750000000000000555 ) ;
#86 = DIRECTION ( 'NONE',  ( 0.000000000000000000, 0.000000000000000000, -1.000000000000000000 ) ) ;
#87 = DIRECTION ( 'NONE',  ( -5.156407575357275916E-17, 1.000000000000000000, -0.000000000000000000 ) ) ;
#88 = FACE_OUTER_BOUND ( 'NONE', #92, .T. ) ;
#89 = LINE ( 'NONE', #118, #146 ) ;
#90 = STYLED_ITEM ( 'NONE', ( #210 ), #36 ) ;
#91 = ORIENTED_EDGE ( 'NONE', *, *, #243, .T. ) ;
#92 = EDGE_LOOP ( 'NONE', ( #21, #47 ) ) ;
#93 = AXIS2_PLACEMENT_3D ( 'NONE', #277, #232, #56 ) ;
#94 = ORIENTED_EDGE ( 'NONE', *, *, #149, .T. ) ;
#95 = AXIS2_PLACEMENT_3D ( 'NONE', #182, #53, #206 ) ;
#96 = PRODUCT_DEFINITION_SHAPE ( 'NONE', 'NONE',  #81 ) ;
#97 =( GEOMETRIC_REPRESENTATION_CONTEXT ( 3 ) GLOBAL_UNCERTAINTY_ASSIGNED_CONTEXT ( ( #240 ) ) GLOBAL_UNIT_ASSIGNED_CONTEXT ( ( #42, #68, #244 ) ) REPRESENTATION_CONTEXT ( 'NONE', 'WORKASPACE' ) );
#98 = VECTOR ( 'NONE', #223, 39.37007874015748143 ) ;
#99 = ADVANCED_FACE ( 'NONE', ( #296 ), #29, .T. ) ;
#100 =( NAMED_UNIT ( * ) SI_UNIT ( $, .STERADIAN. ) SOLID_ANGLE_UNIT ( ) );
#101 = CARTESIAN_POINT ( 'NONE',  ( -1.224646799147352714E-16, 4.000000000000000000, 0.000000000000000000 ) ) ;
#102 = FACE_OUTER_BOUND ( 'NONE', #288, .T. ) ;
#103 = ADVANCED_FACE ( 'NONE', ( #102 ), #110, .F. ) ;
#104 =( GEOMETRIC_REPRESENTATION_CONTEXT ( 3 ) GLOBAL_UNCERTAINTY_ASSIGNED_CONTEXT ( ( #276 ) ) GLOBAL_UNIT_ASSIGNED_CONTEXT ( ( #23, #196, #161 ) ) REPRESENTATION_CONTEXT ( 'NONE', 'WORKASPACE' ) );
#105 = PRESENTATION_LAYER_ASSIGNMENT (  '', '', ( #229 ) ) ;
#106 = FILL_AREA_STYLE_COLOUR ( '', #245 ) ;
#107 = CARTESIAN_POINT ( 'NONE',  ( 3.032960542342103792E-32, 1.625000000000000000, 0.000000000000000000 ) ) ;
#108 = LENGTH_MEASURE_WITH_UNIT ( LENGTH_MEASURE( 0.02539999999999999897 ), #111 );
#109 = DIMENSIONAL_EXPONENTS ( 1.000000000000000000, 0.000000000000000000, 0.000000000000000000, 0.000000000000000000, 0.000000000000000000, 0.000000000000000000, 0.000000000000000000 ) ;
#110 = PLANE ( 'NONE',  #175 ) ;
#111 =( LENGTH_UNIT ( ) NAMED_UNIT ( * ) SI_UNIT ( $, .METRE. ) );
#112 = DIMENSIONAL_EXPONENTS ( 1.000000000000000000, 0.000000000000000000, 0.000000000000000000, 0.000000000000000000, 0.000000000000000000, 0.000000000000000000, 0.000000000000000000 ) ;
#113 = COLOUR_RGB ( '',1.000000000000000000, 0.000000000000000000, 0.000000000000000000 ) ;
#114 = SURFACE_STYLE_FILL_AREA ( #302 ) ;
#115 =( LENGTH_UNIT ( ) NAMED_UNIT ( * ) SI_UNIT ( $, .METRE. ) );
#116 = SURFACE_STYLE_FILL_AREA ( #37 ) ;
#117 = DIRECTION ( 'NONE',  ( -0.000000000000000000, -1.000000000000000000, -0.000000000000000000 ) ) ;
#118 = CARTESIAN_POINT ( 'NONE',  ( 4.592425496802575451E-17, 0.000000000000000000, 0.3750000000000000555 ) ) ;
#119 =( GEOMETRIC_REPRESENTATION_CONTEXT ( 3 ) GLOBAL_UNCERTAINTY_ASSIGNED_CONTEXT ( ( #273 ) ) GLOBAL_UNIT_ASSIGNED_CONTEXT ( ( #64, #172, #308 ) ) REPRESENTATION_CONTEXT ( 'NONE', 'WORKASPACE' ) );
#120 = CARTESIAN_POINT ( 'NONE',  ( 0.000000000000000000, 0.000000000000000000, 0.000000000000000000 ) ) ;
#121 = VERTEX_POINT ( 'NONE', #199 ) ;
#122 = EDGE_CURVE ( 'NONE', #123, #3, #65, .T. ) ;
#123 = VERTEX_POINT ( 'NONE', #14 ) ;
#124 = AXIS2_PLACEMENT_3D ( 'NONE', #144, #117, #234 ) ;
#125 =( GEOMETRIC_REPRESENTATION_CONTEXT ( 3 ) GLOBAL_UNCERTAINTY_ASSIGNED_CONTEXT ( ( #57 ) ) GLOBAL_UNIT_ASSIGNED_CONTEXT ( ( #55, #32, #100 ) ) REPRESENTATION_CONTEXT ( 'NONE', 'WORKASPACE' ) );
#126 = EDGE_LOOP ( 'NONE', ( #91, #214 ) ) ;
#127 = ORIENTED_EDGE ( 'NONE', *, *, #77, .F. ) ;
#128 = DIRECTION ( 'NONE',  ( -5.156407575357275299E-17, 1.000000000000000000, -0.000000000000000000 ) ) ;
#129 = ADVANCED_BREP_SHAPE_REPRESENTATION ( '82274', ( #221, #225, #249 ), #125 ) ;
#130 = CARTESIAN_POINT ( 'NONE',  ( 0.000000000000000000, 0.000000000000000000, 0.000000000000000000 ) ) ;
#131 = DIMENSIONAL_EXPONENTS ( 1.000000000000000000, 0.000000000000000000, 0.000000000000000000, 0.000000000000000000, 0.000000000000000000, 0.000000000000000000, 0.000000000000000000 ) ;
#132 = DIRECTION ( 'NONE',  ( 0.000000000000000000, 1.000000000000000000, 0.000000000000000000 ) ) ;
#133 = PRODUCT_CONTEXT ( 'NONE', #289, 'mechanical' ) ;
#134 = COLOUR_RGB ( '',0.7921568627450980005, 0.8196078431372548767, 0.9333333333333333481 ) ;
#135 = DIRECTION ( 'NONE',  ( -5.156407575357275299E-17, 1.000000000000000000, -0.000000000000000000 ) ) ;
#136 = DIRECTION ( 'NONE',  ( -5.156407575357275299E-17, 1.000000000000000000, -0.000000000000000000 ) ) ;
#137 = FILL_AREA_STYLE_COLOUR ( '', #113 ) ;
#138 = DIRECTION ( 'NONE',  ( -0.000000000000000000, -1.000000000000000000, -0.000000000000000000 ) ) ;
#139 = FILL_AREA_STYLE_COLOUR ( '', #228 ) ;
#140 = CARTESIAN_POINT ( 'NONE',  ( 0.3750000000000000555, 1.625000000000000000, 4.592425496802576684E-17 ) ) ;
#141 = AXIS2_PLACEMENT_3D ( 'NONE', #107, #128, #181 ) ;
#142 = CARTESIAN_POINT ( 'NONE',  ( -0.3750000000000002776, 4.000000000000000000, 0.000000000000000000 ) ) ;
#143 =( LENGTH_UNIT ( ) NAMED_UNIT ( * ) SI_UNIT ( $, .METRE. ) );
#144 = CARTESIAN_POINT ( 'NONE',  ( 0.000000000000000000, 0.000000000000000000, 0.000000000000000000 ) ) ;
#145 = EDGE_CURVE ( 'NONE', #250, #293, #163, .T. ) ;
#146 = VECTOR ( 'NONE', #138, 39.37007874015748143 ) ;
#147 = ORIENTED_EDGE ( 'NONE', *, *, #230, .T. ) ;
#148 = DIRECTION ( 'NONE',  ( -5.156407575357275916E-17, 1.000000000000000000, -0.000000000000000000 ) ) ;
#149 = EDGE_CURVE ( 'NONE', #293, #250, #191, .T. ) ;
#150 = LENGTH_MEASURE_WITH_UNIT ( LENGTH_MEASURE( 0.02539999999999999897 ), #247 );
#151 = AXIS2_PLACEMENT_3D ( 'NONE', #158, #135, #254 ) ;
#152 = ORIENTED_EDGE ( 'NONE', *, *, #239, .T. ) ;
#153 = DIRECTION ( 'NONE',  ( 0.000000000000000000, 0.000000000000000000, -1.000000000000000000 ) ) ;
#154 = ORIENTED_EDGE ( 'NONE', *, *, #274, .T. ) ;
#155 = ADVANCED_FACE ( 'NONE', ( #281 ), #278, .F. ) ;
#156 = DIRECTION ( 'NONE',  ( -5.156407575357275299E-17, 1.000000000000000000, -0.000000000000000000 ) ) ;
#157 = STYLED_ITEM ( 'NONE', ( #41 ), #46 ) ;
#158 = CARTESIAN_POINT ( 'NONE',  ( -1.224646799147352714E-16, 4.000000000000000000, 0.000000000000000000 ) ) ;
#159 = LENGTH_MEASURE_WITH_UNIT ( LENGTH_MEASURE( 0.02539999999999999897 ), #51 );
#160 = DIRECTION ( 'NONE',  ( -1.000000000000000000, 0.000000000000000000, 0.000000000000000000 ) ) ;
#161 =( NAMED_UNIT ( * ) SI_UNIT ( $, .STERADIAN. ) SOLID_ANGLE_UNIT ( ) );
#162 = PRODUCT_DEFINITION_CONTEXT ( 'detailed design', #187, 'design' ) ;
#163 = CIRCLE ( 'NONE', #141, 0.3750000000000000555 ) ;
#164 = SURFACE_STYLE_FILL_AREA ( #204 ) ;
#165 = SURFACE_SIDE_STYLE ('',( #303 ) ) ;
#166 =( CONVERSION_BASED_UNIT ( 'INCH', #108 ) LENGTH_UNIT ( ) NAMED_UNIT ( #112 ) );
#167 = LENGTH_MEASURE_WITH_UNIT ( LENGTH_MEASURE( 0.02539999999999999897 ), #143 );
#168 = PLANE ( 'NONE',  #207 ) ;
#169 = LENGTH_MEASURE_WITH_UNIT ( LENGTH_MEASURE( 0.02539999999999999897 ), #115 );
#170 = CLOSED_SHELL ( 'NONE', ( #36, #46, #30, #218 ) ) ;
#171 = MECHANICAL_DESIGN_GEOMETRIC_PRESENTATION_REPRESENTATION (  '', ( #271 ), #97 ) ;
#172 =( NAMED_UNIT ( * ) PLANE_ANGLE_UNIT ( ) SI_UNIT ( $, .RADIAN. ) );
#173 = CARTESIAN_POINT ( 'NONE',  ( 0.3749999999999999445, 4.000000000000000000, 4.592425496802576068E-17 ) ) ;
#174 = PRESENTATION_STYLE_ASSIGNMENT (( #306 ) ) ;
#175 = AXIS2_PLACEMENT_3D ( 'NONE', #33, #201, #255 ) ;
#176 = ORIENTED_EDGE ( 'NONE', *, *, #309, .F. ) ;
#177 = ORIENTED_EDGE ( 'NONE', *, *, #230, .F. ) ;
#178 = EDGE_LOOP ( 'NONE', ( #270, #272, #154, #127 ) ) ;
#179 =( GEOMETRIC_REPRESENTATION_CONTEXT ( 3 ) GLOBAL_UNCERTAINTY_ASSIGNED_CONTEXT ( ( #209 ) ) GLOBAL_UNIT_ASSIGNED_CONTEXT ( ( #166, #237, #16 ) ) REPRESENTATION_CONTEXT ( 'NONE', 'WORKASPACE' ) );
#180 = ORIENTED_EDGE ( 'NONE', *, *, #122, .T. ) ;
#181 = DIRECTION ( 'NONE',  ( -1.000000000000000000, 0.000000000000000000, 0.000000000000000000 ) ) ;
#182 = CARTESIAN_POINT ( 'NONE',  ( 0.000000000000000000, 0.000000000000000000, 0.000000000000000000 ) ) ;
#183 = DIRECTION ( 'NONE',  ( -0.000000000000000000, -1.000000000000000000, -0.000000000000000000 ) ) ;
#184 = DIMENSIONAL_EXPONENTS ( 1.000000000000000000, 0.000000000000000000, 0.000000000000000000, 0.000000000000000000, 0.000000000000000000, 0.000000000000000000, 0.000000000000000000 ) ;
#185 = APPLICATION_PROTOCOL_DEFINITION ( 'draft international standard', 'automotive_design', 1998, #187 ) ;
#186 = LINE ( 'NONE', #173, #66 ) ;
#187 = APPLICATION_CONTEXT ( 'automotive_design' ) ;
#188 = LENGTH_MEASURE_WITH_UNIT ( LENGTH_MEASURE( 0.02539999999999999897 ), #18 );
#189 = CARTESIAN_POINT ( 'NONE',  ( -0.3750000000000002220, 4.000000000000000000, 0.000000000000000000 ) ) ;
#190 = SURFACE_STYLE_USAGE ( .BOTH. , #261 ) ;
#191 = CIRCLE ( 'NONE', #93, 0.3750000000000000555 ) ;
#192 = ORIENTED_EDGE ( 'NONE', *, *, #309, .T. ) ;
#193 = ADVANCED_FACE ( 'NONE', ( #205 ), #227, .T. ) ;
#194 = EDGE_LOOP ( 'NONE', ( #94, #4, #177, #219 ) ) ;
#195 = CARTESIAN_POINT ( 'NONE',  ( 4.592425496802575451E-17, 0.000000000000000000, 0.3750000000000000555 ) ) ;
#196 =( NAMED_UNIT ( * ) PLANE_ANGLE_UNIT ( ) SI_UNIT ( $, .RADIAN. ) );
#197 = ORIENTED_EDGE ( 'NONE', *, *, #145, .F. ) ;
#198 =( GEOMETRIC_REPRESENTATION_CONTEXT ( 3 ) GLOBAL_UNCERTAINTY_ASSIGNED_CONTEXT ( ( #280 ) ) GLOBAL_UNIT_ASSIGNED_CONTEXT ( ( #264, #286, #61 ) ) REPRESENTATION_CONTEXT ( 'NONE', 'WORKASPACE' ) );
#199 = CARTESIAN_POINT ( 'NONE',  ( 0.000000000000000000, 0.000000000000000000, -0.3750000000000000555 ) ) ;
#200 = APPLICATION_PROTOCOL_DEFINITION ( 'draft international standard', 'automotive_design', 1998, #289 ) ;
#201 = DIRECTION ( 'NONE',  ( 5.156407575357275916E-17, -1.000000000000000000, 0.000000000000000000 ) ) ;
#202 = MECHANICAL_DESIGN_GEOMETRIC_PRESENTATION_REPRESENTATION (  '', ( #90 ), #119 ) ;
#203 = AXIS2_PLACEMENT_3D ( 'NONE', #17, #15, #307 ) ;
#204 = FILL_AREA_STYLE ('',( #106 ) ) ;
#205 = FACE_OUTER_BOUND ( 'NONE', #178, .T. ) ;
#206 = DIRECTION ( 'NONE',  ( 0.000000000000000000, 0.000000000000000000, -1.000000000000000000 ) ) ;
#207 = AXIS2_PLACEMENT_3D ( 'NONE', #257, #132, #82 ) ;
#208 = SURFACE_STYLE_FILL_AREA ( #69 ) ;
#209 = UNCERTAINTY_MEASURE_WITH_UNIT (LENGTH_MEASURE( 1.000000000000000082E-05 ), #166, 'distance_accuracy_value', 'NONE');
#210 = PRESENTATION_STYLE_ASSIGNMENT (( #190 ) ) ;
#211 = CARTESIAN_POINT ( 'NONE',  ( -1.224646799147352714E-16, 4.000000000000000000, 0.000000000000000000 ) ) ;
#212 = FILL_AREA_STYLE_COLOUR ( '', #59 ) ;
#213 = MECHANICAL_DESIGN_GEOMETRIC_PRESENTATION_REPRESENTATION (  '', ( #229 ), #198 ) ;
#214 = ORIENTED_EDGE ( 'NONE', *, *, #292, .T. ) ;
#215 = ORIENTED_EDGE ( 'NONE', *, *, #239, .F. ) ;
#216 = CIRCLE ( 'NONE', #305, 0.3750000000000001665 ) ;
#217 = FILL_AREA_STYLE ('',( #291 ) ) ;
#218 = ADVANCED_FACE ( 'NONE', ( #12 ), #10, .T. ) ;
#219 = ORIENTED_EDGE ( 'NONE', *, *, #274, .F. ) ;
#220 = SURFACE_STYLE_USAGE ( .BOTH. , #251 ) ;
#221 = MANIFOLD_SOLID_BREP ( 'Revolve - Cutting Edge', #170 ) ;
#222 = PRESENTATION_LAYER_ASSIGNMENT (  '', '', ( #34 ) ) ;
#223 = DIRECTION ( 'NONE',  ( -0.000000000000000000, -1.000000000000000000, -0.000000000000000000 ) ) ;
#224 = DIRECTION ( 'NONE',  ( -1.000000000000000000, -5.156407575357275916E-17, 0.000000000000000000 ) ) ;
#225 = MANIFOLD_SOLID_BREP ( 'Revolve - Tool Body (Straight Shanked)', #238 ) ;
#226 = DIRECTION ( 'NONE',  ( 0.000000000000000000, -1.000000000000000000, -0.000000000000000000 ) ) ;
#227 = CYLINDRICAL_SURFACE ( 'NONE', #151, 0.3750000000000001110 ) ;
#228 = COLOUR_RGB ( '',1.000000000000000000, 0.000000000000000000, 0.000000000000000000 ) ;
#229 = STYLED_ITEM ( 'NONE', ( #259 ), #221 ) ;
#230 = EDGE_CURVE ( 'NONE', #43, #7, #262, .T. ) ;
#231 =( CONVERSION_BASED_UNIT ( 'INCH', #58 ) LENGTH_UNIT ( ) NAMED_UNIT ( #258 ) );
#232 = DIRECTION ( 'NONE',  ( -5.156407575357275299E-17, 1.000000000000000000, -0.000000000000000000 ) ) ;
#233 = DIMENSIONAL_EXPONENTS ( 1.000000000000000000, 0.000000000000000000, 0.000000000000000000, 0.000000000000000000, 0.000000000000000000, 0.000000000000000000, 0.000000000000000000 ) ;
#234 = DIRECTION ( 'NONE',  ( 0.000000000000000000, 0.000000000000000000, -1.000000000000000000 ) ) ;
#235 = UNCERTAINTY_MEASURE_WITH_UNIT (LENGTH_MEASURE( 1.000000000000000082E-05 ), #231, 'distance_accuracy_value', 'NONE');
#236 = DIRECTION ( 'NONE',  ( -0.000000000000000000, -1.000000000000000000, -0.000000000000000000 ) ) ;
#237 =( NAMED_UNIT ( * ) PLANE_ANGLE_UNIT ( ) SI_UNIT ( $, .RADIAN. ) );
#238 = CLOSED_SHELL ( 'NONE', ( #99, #155, #193, #103 ) ) ;
#239 = EDGE_CURVE ( 'NONE', #123, #294, #89, .T. ) ;
#240 = UNCERTAINTY_MEASURE_WITH_UNIT (LENGTH_MEASURE( 1.000000000000000082E-05 ), #42, 'distance_accuracy_value', 'NONE');
#241 = DIRECTION ( 'NONE',  ( -1.000000000000000000, 0.000000000000000000, 0.000000000000000000 ) ) ;
#242 = FILL_AREA_STYLE ('',( #212 ) ) ;
#243 = EDGE_CURVE ( 'NONE', #121, #294, #8, .T. ) ;
#244 =( NAMED_UNIT ( * ) SI_UNIT ( $, .STERADIAN. ) SOLID_ANGLE_UNIT ( ) );
#245 = COLOUR_RGB ( '',1.000000000000000000, 0.000000000000000000, 0.000000000000000000 ) ;
#246 = ORIENTED_EDGE ( 'NONE', *, *, #77, .T. ) ;
#247 =( LENGTH_UNIT ( ) NAMED_UNIT ( * ) SI_UNIT ( $, .METRE. ) );
#248 = AXIS2_PLACEMENT_3D ( 'NONE', #78, #183, #80 ) ;
#249 = AXIS2_PLACEMENT_3D ( 'NONE', #28, #9, #279 ) ;
#250 = VERTEX_POINT ( 'NONE', #140 ) ;
#251 = SURFACE_SIDE_STYLE ('',( #267 ) ) ;
#252 = EDGE_CURVE ( 'NONE', #3, #123, #85, .T. ) ;
#253 = SURFACE_STYLE_USAGE ( .BOTH. , #256 ) ;
#254 = DIRECTION ( 'NONE',  ( -1.000000000000000000, 0.000000000000000000, 0.000000000000000000 ) ) ;
#255 = DIRECTION ( 'NONE',  ( 1.000000000000000000, 5.156407575357275916E-17, 0.000000000000000000 ) ) ;
#256 = SURFACE_SIDE_STYLE ('',( #164 ) ) ;
#257 = CARTESIAN_POINT ( 'NONE',  ( 0.000000000000000000, 1.625000000000000000, 0.000000000000000000 ) ) ;
#258 = DIMENSIONAL_EXPONENTS ( 1.000000000000000000, 0.000000000000000000, 0.000000000000000000, 0.000000000000000000, 0.000000000000000000, 0.000000000000000000, 0.000000000000000000 ) ;
#259 = PRESENTATION_STYLE_ASSIGNMENT (( #20 ) ) ;
#260 = EDGE_CURVE ( 'NONE', #250, #7, #186, .T. ) ;
#261 = SURFACE_SIDE_STYLE ('',( #114 ) ) ;
#262 = CIRCLE ( 'NONE', #283, 0.3750000000000001665 ) ;
#263 = DIRECTION ( 'NONE',  ( -5.156407575357275299E-17, 1.000000000000000000, -0.000000000000000000 ) ) ;
#264 =( CONVERSION_BASED_UNIT ( 'INCH', #169 ) LENGTH_UNIT ( ) NAMED_UNIT ( #109 ) );
#265 = EDGE_LOOP ( 'NONE', ( #49, #197 ) ) ;
#266 = AXIS2_PLACEMENT_3D ( 'NONE', #31, #52, #224 ) ;
#267 = SURFACE_STYLE_FILL_AREA ( #217 ) ;
#268 = CARTESIAN_POINT ( 'NONE',  ( -0.3750000000000000555, 1.625000000000000000, 0.000000000000000000 ) ) ;
#269 = FACE_OUTER_BOUND ( 'NONE', #27, .T. ) ;
#270 = ORIENTED_EDGE ( 'NONE', *, *, #260, .F. ) ;
#271 = STYLED_ITEM ( 'NONE', ( #174 ), #225 ) ;
#272 = ORIENTED_EDGE ( 'NONE', *, *, #145, .T. ) ;
#273 = UNCERTAINTY_MEASURE_WITH_UNIT (LENGTH_MEASURE( 1.000000000000000082E-05 ), #64, 'distance_accuracy_value', 'NONE');
#274 = EDGE_CURVE ( 'NONE', #293, #43, #284, .T. ) ;
#275 =( NAMED_UNIT ( * ) SI_UNIT ( $, .STERADIAN. ) SOLID_ANGLE_UNIT ( ) );
#276 = UNCERTAINTY_MEASURE_WITH_UNIT (LENGTH_MEASURE( 1.000000000000000082E-05 ), #23, 'distance_accuracy_value', 'NONE');
#277 = CARTESIAN_POINT ( 'NONE',  ( 3.032960542342103792E-32, 1.625000000000000000, 0.000000000000000000 ) ) ;
#278 = PLANE ( 'NONE',  #266 ) ;
#279 = DIRECTION ( 'NONE',  ( 1.000000000000000000, 0.000000000000000000, 0.000000000000000000 ) ) ;
#280 = UNCERTAINTY_MEASURE_WITH_UNIT (LENGTH_MEASURE( 1.000000000000000082E-05 ), #264, 'distance_accuracy_value', 'NONE');
#281 = FACE_OUTER_BOUND ( 'NONE', #265, .T. ) ;
#282 = SURFACE_SIDE_STYLE ('',( #116 ) ) ;
#283 = AXIS2_PLACEMENT_3D ( 'NONE', #211, #263, #241 ) ;
#284 = LINE ( 'NONE', #189, #25 ) ;
#285 = CIRCLE ( 'NONE', #35, 0.3750000000000000555 ) ;
#286 =( NAMED_UNIT ( * ) PLANE_ANGLE_UNIT ( ) SI_UNIT ( $, .RADIAN. ) );
#287 = FILL_AREA_STYLE_COLOUR ( '', #134 ) ;
#288 = EDGE_LOOP ( 'NONE', ( #147, #246 ) ) ;
#289 = APPLICATION_CONTEXT ( 'automotive_design' ) ;
#290 = EDGE_LOOP ( 'NONE', ( #26, #152, #74, #176 ) ) ;
#291 = FILL_AREA_STYLE_COLOUR ( '', #5 ) ;
#292 = EDGE_CURVE ( 'NONE', #294, #121, #285, .T. ) ;
#293 = VERTEX_POINT ( 'NONE', #268 ) ;
#294 = VERTEX_POINT ( 'NONE', #195 ) ;
#295 = MECHANICAL_DESIGN_GEOMETRIC_PRESENTATION_REPRESENTATION (  '', ( #157 ), #179 ) ;
#296 = FACE_OUTER_BOUND ( 'NONE', #194, .T. ) ;
#297 = CARTESIAN_POINT ( 'NONE',  ( 0.000000000000000000, 0.000000000000000000, -0.3750000000000000555 ) ) ;
#298 = DIRECTION ( 'NONE',  ( 0.000000000000000000, 0.000000000000000000, -1.000000000000000000 ) ) ;
#299 = DIMENSIONAL_EXPONENTS ( 1.000000000000000000, 0.000000000000000000, 0.000000000000000000, 0.000000000000000000, 0.000000000000000000, 0.000000000000000000, 0.000000000000000000 ) ;
#300 =( LENGTH_UNIT ( ) NAMED_UNIT ( * ) SI_UNIT ( $, .METRE. ) );
#301 = PRESENTATION_STYLE_ASSIGNMENT (( #253 ) ) ;
#302 = FILL_AREA_STYLE ('',( #139 ) ) ;
#303 = SURFACE_STYLE_FILL_AREA ( #242 ) ;
#304 = SURFACE_STYLE_USAGE ( .BOTH. , #282 ) ;
#305 = AXIS2_PLACEMENT_3D ( 'NONE', #50, #136, #54 ) ;
#306 = SURFACE_STYLE_USAGE ( .BOTH. , #40 ) ;
#307 = DIRECTION ( 'NONE',  ( 0.000000000000000000, 0.000000000000000000, -1.000000000000000000 ) ) ;
#308 =( NAMED_UNIT ( * ) SI_UNIT ( $, .STERADIAN. ) SOLID_ANGLE_UNIT ( ) );
#309 = EDGE_CURVE ( 'NONE', #3, #121, #72, .T. ) ;
ENDSEC;
END-ISO-10303-21;
