ISO-10303-21;
HEADER;
FILE_DESCRIPTION (( 'STEP AP214' ),
    '1' );
FILE_NAME ('83748.STEP',
    '2023-07-05T19:23:33',
    ( '' ),
    ( '' ),
    'SwSTEP 2.0',
    'SolidWorks 2023',
    '' );
FILE_SCHEMA (( 'AUTOMOTIVE_DESIGN' ));
ENDSEC;

DATA;
#1 = LENGTH_MEASURE_WITH_UNIT ( LENGTH_MEASURE( 0.02539999999999999897 ), #135 );
#2 = DIRECTION ( 'NONE',  ( -0.000000000000000000, -1.000000000000000000, -0.000000000000000000 ) ) ;
#3 = DIRECTION ( 'NONE',  ( 0.000000000000000000, 0.000000000000000000, -1.000000000000000000 ) ) ;
#4 = DIRECTION ( 'NONE',  ( 0.000000000000000000, 0.000000000000000000, -1.000000000000000000 ) ) ;
#5 = EDGE_CURVE ( 'NONE', #238, #96, #348, .T. ) ;
#6 = STYLED_ITEM ( 'NONE', ( #241 ), #165 ) ;
#7 = VECTOR ( 'NONE', #8, 39.37007874015748143 ) ;
#8 = DIRECTION ( 'NONE',  ( -0.000000000000000000, -1.000000000000000000, -0.000000000000000000 ) ) ;
#9 = PRODUCT_DEFINITION_SHAPE ( 'NONE', 'NONE',  #16 ) ;
#10 = STYLED_ITEM ( 'NONE', ( #37 ), #335 ) ;
#11 = DIRECTION ( 'NONE',  ( -1.000000000000000000, 0.000000000000000000, 0.000000000000000000 ) ) ;
#12 = DIRECTION ( 'NONE',  ( -1.000000000000000000, -1.245234447608929030E-16, 0.000000000000000000 ) ) ;
#13 = CARTESIAN_POINT ( 'NONE',  ( -6.123233995736770966E-17, 3.000000000000000444, 0.000000000000000000 ) ) ;
#14 = APPLICATION_CONTEXT ( 'automotive_design' ) ;
#15 = FACE_OUTER_BOUND ( 'NONE', #297, .T. ) ;
#16 = PRODUCT_DEFINITION ( 'UNKNOWN', '', #207, #136 ) ;
#17 = ORIENTED_EDGE ( 'NONE', *, *, #55, .T. ) ;
#18 = SURFACE_STYLE_USAGE ( .BOTH. , #160 ) ;
#19 = VERTEX_POINT ( 'NONE', #350 ) ;
#20 = DIRECTION ( 'NONE',  ( 0.000000000000000000, 0.000000000000000000, 1.000000000000000000 ) ) ;
#21 = VERTEX_POINT ( 'NONE', #219 ) ;
#22 =( NAMED_UNIT ( * ) PLANE_ANGLE_UNIT ( ) SI_UNIT ( $, .RADIAN. ) );
#23 = ORIENTED_EDGE ( 'NONE', *, *, #312, .T. ) ;
#24 = APPLICATION_PROTOCOL_DEFINITION ( 'draft international standard', 'automotive_design', 1998, #302 ) ;
#25 = COLOUR_RGB ( '',1.000000000000000000, 0.000000000000000000, 0.000000000000000000 ) ;
#26 = SURFACE_SIDE_STYLE ('',( #212 ) ) ;
#27 = AXIS2_PLACEMENT_3D ( 'NONE', #81, #264, #20 ) ;
#28 = CARTESIAN_POINT ( 'NONE',  ( 0.2499999999999999722, 3.000000000000000444, 0.000000000000000000 ) ) ;
#29 = DIMENSIONAL_EXPONENTS ( 1.000000000000000000, 0.000000000000000000, 0.000000000000000000, 0.000000000000000000, 0.000000000000000000, 0.000000000000000000, 0.000000000000000000 ) ;
#30 =( NAMED_UNIT ( * ) SI_UNIT ( $, .STERADIAN. ) SOLID_ANGLE_UNIT ( ) );
#31 = EDGE_CURVE ( 'NONE', #218, #268, #339, .T. ) ;
#32 = FILL_AREA_STYLE_COLOUR ( '', #320 ) ;
#33 = DIRECTION ( 'NONE',  ( -0.000000000000000000, -1.000000000000000000, -0.000000000000000000 ) ) ;
#34 = AXIS2_PLACEMENT_3D ( 'NONE', #280, #111, #276 ) ;
#35 =( CONVERSION_BASED_UNIT ( 'INCH', #338 ) LENGTH_UNIT ( ) NAMED_UNIT ( #44 ) );
#36 = AXIS2_PLACEMENT_3D ( 'NONE', #237, #166, #122 ) ;
#37 = PRESENTATION_STYLE_ASSIGNMENT (( #89 ) ) ;
#38 = CARTESIAN_POINT ( 'NONE',  ( -6.123233995736772199E-17, 3.000000000000000444, 0.000000000000000000 ) ) ;
#39 = FACE_OUTER_BOUND ( 'NONE', #161, .T. ) ;
#40 = FACE_OUTER_BOUND ( 'NONE', #131, .T. ) ;
#41 = ORIENTED_EDGE ( 'NONE', *, *, #225, .F. ) ;
#42 = DIRECTION ( 'NONE',  ( -1.245234447608929030E-16, 1.000000000000000000, -0.000000000000000000 ) ) ;
#43 = ORIENTED_EDGE ( 'NONE', *, *, #104, .T. ) ;
#44 = DIMENSIONAL_EXPONENTS ( 1.000000000000000000, 0.000000000000000000, 0.000000000000000000, 0.000000000000000000, 0.000000000000000000, 0.000000000000000000, 0.000000000000000000 ) ;
#45 = COLOUR_RGB ( '',0.7921568627450980005, 0.8196078431372548767, 0.9333333333333333481 ) ;
#46 =( NAMED_UNIT ( * ) SI_UNIT ( $, .STERADIAN. ) SOLID_ANGLE_UNIT ( ) );
#47 = ORIENTED_EDGE ( 'NONE', *, *, #146, .T. ) ;
#48 = PRODUCT_CONTEXT ( 'NONE', #302, 'mechanical' ) ;
#49 = CARTESIAN_POINT ( 'NONE',  ( 0.000000000000000000, 1.000000000000000000, 0.000000000000000000 ) ) ;
#50 = DIRECTION ( 'NONE',  ( 1.000000000000000000, 0.000000000000000000, 0.000000000000000000 ) ) ;
#51 = ADVANCED_BREP_SHAPE_REPRESENTATION ( '83748', ( #231, #109, #322 ), #93 ) ;
#52 = SURFACE_STYLE_FILL_AREA ( #229 ) ;
#53 = PRESENTATION_STYLE_ASSIGNMENT (( #328 ) ) ;
#54 = DIMENSIONAL_EXPONENTS ( 1.000000000000000000, 0.000000000000000000, 0.000000000000000000, 0.000000000000000000, 0.000000000000000000, 0.000000000000000000, 0.000000000000000000 ) ;
#55 = EDGE_CURVE ( 'NONE', #242, #19, #92, .T. ) ;
#56 = UNCERTAINTY_MEASURE_WITH_UNIT (LENGTH_MEASURE( 1.000000000000000082E-05 ), #334, 'distance_accuracy_value', 'NONE');
#57 =( CONVERSION_BASED_UNIT ( 'INCH', #327 ) LENGTH_UNIT ( ) NAMED_UNIT ( #269 ) );
#58 = AXIS2_PLACEMENT_3D ( 'NONE', #233, #119, #12 ) ;
#59 = FACE_OUTER_BOUND ( 'NONE', #316, .T. ) ;
#60 = PRODUCT ( '83748', '83748', '', ( #48 ) ) ;
#61 = DIRECTION ( 'NONE',  ( -1.000000000000000000, 0.000000000000000000, 0.000000000000000000 ) ) ;
#62 = STYLED_ITEM ( 'NONE', ( #86 ), #251 ) ;
#63 = SURFACE_STYLE_FILL_AREA ( #289 ) ;
#64 = CARTESIAN_POINT ( 'NONE',  ( -6.123233995736770966E-17, 3.000000000000000444, 0.000000000000000000 ) ) ;
#65 = UNCERTAINTY_MEASURE_WITH_UNIT (LENGTH_MEASURE( 1.000000000000000082E-05 ), #163, 'distance_accuracy_value', 'NONE');
#66 = CARTESIAN_POINT ( 'NONE',  ( 0.000000000000000000, 0.4330127018922180770, 0.000000000000000000 ) ) ;
#67 = PRESENTATION_LAYER_ASSIGNMENT (  '', '', ( #101 ) ) ;
#68 = ORIENTED_EDGE ( 'NONE', *, *, #104, .F. ) ;
#69 = CIRCLE ( 'NONE', #138, 0.2499999999999999722 ) ;
#70 = AXIS2_PLACEMENT_3D ( 'NONE', #222, #84, #198 ) ;
#71 = EDGE_LOOP ( 'NONE', ( #184, #17, #159, #100 ) ) ;
#72 = DIRECTION ( 'NONE',  ( -0.000000000000000000, -1.000000000000000000, -0.000000000000000000 ) ) ;
#73 = EDGE_LOOP ( 'NONE', ( #41, #235 ) ) ;
#74 = FACE_OUTER_BOUND ( 'NONE', #71, .T. ) ;
#75 = ORIENTED_EDGE ( 'NONE', *, *, #31, .F. ) ;
#76 = CLOSED_SHELL ( 'NONE', ( #165, #335, #251, #199, #114 ) ) ;
#77 = CARTESIAN_POINT ( 'NONE',  ( -0.2499999999999999722, 3.000000000000000444, 0.000000000000000000 ) ) ;
#78 = DIMENSIONAL_EXPONENTS ( 1.000000000000000000, 0.000000000000000000, 0.000000000000000000, 0.000000000000000000, 0.000000000000000000, 0.000000000000000000, 0.000000000000000000 ) ;
#79 = ORIENTED_EDGE ( 'NONE', *, *, #221, .F. ) ;
#80 =( NAMED_UNIT ( * ) PLANE_ANGLE_UNIT ( ) SI_UNIT ( $, .RADIAN. ) );
#81 = CARTESIAN_POINT ( 'NONE',  ( 0.000000000000000000, 39.37007874015748143, 0.000000000000000000 ) ) ;
#82 = SURFACE_STYLE_FILL_AREA ( #331 ) ;
#83 = PRESENTATION_STYLE_ASSIGNMENT (( #330 ) ) ;
#84 = DIRECTION ( 'NONE',  ( -1.245234447608929030E-16, 1.000000000000000000, -0.000000000000000000 ) ) ;
#85 = FACE_OUTER_BOUND ( 'NONE', #73, .T. ) ;
#86 = PRESENTATION_STYLE_ASSIGNMENT (( #200 ) ) ;
#87 = CARTESIAN_POINT ( 'NONE',  ( 0.2499999999999999722, 3.000000000000000444, 3.061616997868382402E-17 ) ) ;
#88 = VECTOR ( 'NONE', #72, 39.37007874015748143 ) ;
#89 = SURFACE_STYLE_USAGE ( .BOTH. , #234 ) ;
#90 = ADVANCED_FACE ( 'NONE', ( #39 ), #342, .F. ) ;
#91 =( NAMED_UNIT ( * ) SI_UNIT ( $, .STERADIAN. ) SOLID_ANGLE_UNIT ( ) );
#92 = CIRCLE ( 'NONE', #258, 0.2499999999999999722 ) ;
#93 =( GEOMETRIC_REPRESENTATION_CONTEXT ( 3 ) GLOBAL_UNCERTAINTY_ASSIGNED_CONTEXT ( ( #286 ) ) GLOBAL_UNIT_ASSIGNED_CONTEXT ( ( #182, #22, #185 ) ) REPRESENTATION_CONTEXT ( 'NONE', 'WORKASPACE' ) );
#94 = ORIENTED_EDGE ( 'NONE', *, *, #31, .T. ) ;
#95 =( LENGTH_UNIT ( ) NAMED_UNIT ( * ) SI_UNIT ( $, .METRE. ) );
#96 = VERTEX_POINT ( 'NONE', #167 ) ;
#97 = DIRECTION ( 'NONE',  ( 0.000000000000000000, 1.000000000000000000, 0.000000000000000000 ) ) ;
#98 = VERTEX_POINT ( 'NONE', #273 ) ;
#99 = SURFACE_STYLE_USAGE ( .BOTH. , #26 ) ;
#100 = ORIENTED_EDGE ( 'NONE', *, *, #329, .F. ) ;
#101 = STYLED_ITEM ( 'NONE', ( #247 ), #114 ) ;
#102 =( CONVERSION_BASED_UNIT ( 'INCH', #293 ) LENGTH_UNIT ( ) NAMED_UNIT ( #78 ) );
#103 = FILL_AREA_STYLE_COLOUR ( '', #307 ) ;
#104 = EDGE_CURVE ( 'NONE', #98, #21, #140, .T. ) ;
#105 = FILL_AREA_STYLE_COLOUR ( '', #45 ) ;
#106 = AXIS2_PLACEMENT_3D ( 'NONE', #66, #284, #281 ) ;
#107 = CARTESIAN_POINT ( 'NONE',  ( 3.061616997868382402E-17, 1.000000000000000000, 0.2499999999999999722 ) ) ;
#108 = FILL_AREA_STYLE_COLOUR ( '', #112 ) ;
#109 = MANIFOLD_SOLID_BREP ( 'Revolve - Tool Body (Straight Shanked)', #208 ) ;
#110 =( LENGTH_UNIT ( ) NAMED_UNIT ( * ) SI_UNIT ( $, .METRE. ) );
#111 = DIRECTION ( 'NONE',  ( -0.000000000000000000, -1.000000000000000000, -0.000000000000000000 ) ) ;
#112 = COLOUR_RGB ( '',1.000000000000000000, 0.000000000000000000, 0.000000000000000000 ) ;
#113 =( GEOMETRIC_REPRESENTATION_CONTEXT ( 3 ) GLOBAL_UNCERTAINTY_ASSIGNED_CONTEXT ( ( #56 ) ) GLOBAL_UNIT_ASSIGNED_CONTEXT ( ( #334, #202, #30 ) ) REPRESENTATION_CONTEXT ( 'NONE', 'WORKASPACE' ) );
#114 = ADVANCED_FACE ( 'NONE', ( #226 ), #179, .T. ) ;
#115 = UNCERTAINTY_MEASURE_WITH_UNIT (LENGTH_MEASURE( 1.000000000000000082E-05 ), #205, 'distance_accuracy_value', 'NONE');
#116 = DIRECTION ( 'NONE',  ( -1.000000000000000000, 0.000000000000000000, 0.000000000000000000 ) ) ;
#117 = COLOUR_RGB ( '',1.000000000000000000, 0.000000000000000000, 0.000000000000000000 ) ;
#118 = CARTESIAN_POINT ( 'NONE',  ( 3.061616997868382402E-17, 0.000000000000000000, 0.2499999999999999722 ) ) ;
#119 = DIRECTION ( 'NONE',  ( -1.245234447608929030E-16, 1.000000000000000000, 0.000000000000000000 ) ) ;
#120 = ORIENTED_EDGE ( 'NONE', *, *, #5, .T. ) ;
#121 = DIRECTION ( 'NONE',  ( -0.000000000000000000, -1.000000000000000000, -0.000000000000000000 ) ) ;
#122 = DIRECTION ( 'NONE',  ( -1.000000000000000000, 0.000000000000000000, 0.000000000000000000 ) ) ;
#123 = DIMENSIONAL_EXPONENTS ( 1.000000000000000000, 0.000000000000000000, 0.000000000000000000, 0.000000000000000000, 0.000000000000000000, 0.000000000000000000, 0.000000000000000000 ) ;
#124 =( GEOMETRIC_REPRESENTATION_CONTEXT ( 3 ) GLOBAL_UNCERTAINTY_ASSIGNED_CONTEXT ( ( #201 ) ) GLOBAL_UNIT_ASSIGNED_CONTEXT ( ( #102, #80, #130 ) ) REPRESENTATION_CONTEXT ( 'NONE', 'WORKASPACE' ) );
#125 = ORIENTED_EDGE ( 'NONE', *, *, #254, .F. ) ;
#126 = LENGTH_MEASURE_WITH_UNIT ( LENGTH_MEASURE( 0.02539999999999999897 ), #291 );
#127 = LINE ( 'NONE', #217, #171 ) ;
#128 = ORIENTED_EDGE ( 'NONE', *, *, #329, .T. ) ;
#129 = DIRECTION ( 'NONE',  ( 0.000000000000000000, 0.000000000000000000, -1.000000000000000000 ) ) ;
#130 =( NAMED_UNIT ( * ) SI_UNIT ( $, .STERADIAN. ) SOLID_ANGLE_UNIT ( ) );
#131 = EDGE_LOOP ( 'NONE', ( #318, #120, #157 ) ) ;
#132 = CARTESIAN_POINT ( 'NONE',  ( 0.000000000000000000, 0.000000000000000000, 0.000000000000000000 ) ) ;
#133 = CIRCLE ( 'NONE', #303, 0.2499999999999999722 ) ;
#134 =( GEOMETRIC_REPRESENTATION_CONTEXT ( 3 ) GLOBAL_UNCERTAINTY_ASSIGNED_CONTEXT ( ( #333 ) ) GLOBAL_UNIT_ASSIGNED_CONTEXT ( ( #137, #326, #170 ) ) REPRESENTATION_CONTEXT ( 'NONE', 'WORKASPACE' ) );
#135 =( LENGTH_UNIT ( ) NAMED_UNIT ( * ) SI_UNIT ( $, .METRE. ) );
#136 = PRODUCT_DEFINITION_CONTEXT ( 'detailed design', #14, 'design' ) ;
#137 =( CONVERSION_BASED_UNIT ( 'INCH', #1 ) LENGTH_UNIT ( ) NAMED_UNIT ( #54 ) );
#138 = AXIS2_PLACEMENT_3D ( 'NONE', #142, #33, #4 ) ;
#139 = FILL_AREA_STYLE_COLOUR ( '', #236 ) ;
#140 = CIRCLE ( 'NONE', #70, 0.2499999999999998057 ) ;
#141 = UNCERTAINTY_MEASURE_WITH_UNIT (LENGTH_MEASURE( 1.000000000000000082E-05 ), #35, 'distance_accuracy_value', 'NONE');
#142 = CARTESIAN_POINT ( 'NONE',  ( 0.000000000000000000, 0.4330127018922180770, 0.000000000000000000 ) ) ;
#143 = PLANE ( 'NONE',  #232 ) ;
#144 = DIRECTION ( 'NONE',  ( 0.000000000000000000, -0.000000000000000000, 1.000000000000000000 ) ) ;
#145 =( GEOMETRIC_REPRESENTATION_CONTEXT ( 3 ) GLOBAL_UNCERTAINTY_ASSIGNED_CONTEXT ( ( #180 ) ) GLOBAL_UNIT_ASSIGNED_CONTEXT ( ( #57, #306, #196 ) ) REPRESENTATION_CONTEXT ( 'NONE', 'WORKASPACE' ) );
#146 = EDGE_CURVE ( 'NONE', #21, #268, #300, .T. ) ;
#147 = CYLINDRICAL_SURFACE ( 'NONE', #257, 0.2499999999999998890 ) ;
#148 =( NAMED_UNIT ( * ) SI_UNIT ( $, .STERADIAN. ) SOLID_ANGLE_UNIT ( ) );
#149 = PLANE ( 'NONE',  #58 ) ;
#150 = PRESENTATION_LAYER_ASSIGNMENT (  '', '', ( #6 ) ) ;
#151 = MECHANICAL_DESIGN_GEOMETRIC_PRESENTATION_REPRESENTATION (  '', ( #62 ), #168 ) ;
#152 = PRESENTATION_LAYER_ASSIGNMENT (  '', '', ( #189 ) ) ;
#153 = ORIENTED_EDGE ( 'NONE', *, *, #341, .F. ) ;
#154 = EDGE_CURVE ( 'NONE', #98, #218, #127, .T. ) ;
#155 = CARTESIAN_POINT ( 'NONE',  ( 0.000000000000000000, 0.000000000000000000, 0.000000000000000000 ) ) ;
#156 = LENGTH_MEASURE_WITH_UNIT ( LENGTH_MEASURE( 0.02539999999999999897 ), #220 );
#157 = ORIENTED_EDGE ( 'NONE', *, *, #221, .T. ) ;
#158 = FILL_AREA_STYLE ('',( #103 ) ) ;
#159 = ORIENTED_EDGE ( 'NONE', *, *, #341, .T. ) ;
#160 = SURFACE_SIDE_STYLE ('',( #246 ) ) ;
#161 = EDGE_LOOP ( 'NONE', ( #294, #94 ) ) ;
#162 = CARTESIAN_POINT ( 'NONE',  ( 0.000000000000000000, 0.000000000000000000, 0.000000000000000000 ) ) ;
#163 =( CONVERSION_BASED_UNIT ( 'INCH', #156 ) LENGTH_UNIT ( ) NAMED_UNIT ( #123 ) );
#164 = ORIENTED_EDGE ( 'NONE', *, *, #283, .T. ) ;
#165 = ADVANCED_FACE ( 'NONE', ( #40 ), #224, .T. ) ;
#166 = DIRECTION ( 'NONE',  ( -1.245234447608929030E-16, 1.000000000000000000, -0.000000000000000000 ) ) ;
#167 = CARTESIAN_POINT ( 'NONE',  ( 0.000000000000000000, 0.4330127018922180770, -0.2499999999999999722 ) ) ;
#168 =( GEOMETRIC_REPRESENTATION_CONTEXT ( 3 ) GLOBAL_UNCERTAINTY_ASSIGNED_CONTEXT ( ( #115 ) ) GLOBAL_UNIT_ASSIGNED_CONTEXT ( ( #205, #287, #91 ) ) REPRESENTATION_CONTEXT ( 'NONE', 'WORKASPACE' ) );
#169 = SURFACE_SIDE_STYLE ('',( #52 ) ) ;
#170 =( NAMED_UNIT ( * ) SI_UNIT ( $, .STERADIAN. ) SOLID_ANGLE_UNIT ( ) );
#171 = VECTOR ( 'NONE', #42, 39.37007874015748143 ) ;
#172 = CIRCLE ( 'NONE', #244, 0.2500000000000000555 ) ;
#173 = CARTESIAN_POINT ( 'NONE',  ( 0.000000000000000000, 0.000000000000000000, 0.000000000000000000 ) ) ;
#174 = CARTESIAN_POINT ( 'NONE',  ( -0.2500000000000001110, 3.000000000000000444, 0.000000000000000000 ) ) ;
#175 = DIRECTION ( 'NONE',  ( -1.245234447608929030E-16, 1.000000000000000000, -0.000000000000000000 ) ) ;
#176 = FILL_AREA_STYLE_COLOUR ( '', #117 ) ;
#177 = AXIS2_PLACEMENT_3D ( 'NONE', #162, #121, #129 ) ;
#178 = DIRECTION ( 'NONE',  ( -1.245234447608929030E-16, 1.000000000000000000, -0.000000000000000000 ) ) ;
#179 = CONICAL_SURFACE ( 'NONE', #27, 22.73032555864674364, 0.5235987755983000369 ) ;
#180 = UNCERTAINTY_MEASURE_WITH_UNIT (LENGTH_MEASURE( 1.000000000000000082E-05 ), #57, 'distance_accuracy_value', 'NONE');
#181 = ORIENTED_EDGE ( 'NONE', *, *, #283, .F. ) ;
#182 =( CONVERSION_BASED_UNIT ( 'INCH', #126 ) LENGTH_UNIT ( ) NAMED_UNIT ( #239 ) );
#183 = ADVANCED_FACE ( 'NONE', ( #15 ), #321, .T. ) ;
#184 = ORIENTED_EDGE ( 'NONE', *, *, #312, .F. ) ;
#185 =( NAMED_UNIT ( * ) SI_UNIT ( $, .STERADIAN. ) SOLID_ANGLE_UNIT ( ) );
#186 = PRESENTATION_STYLE_ASSIGNMENT (( #99 ) ) ;
#187 = MECHANICAL_DESIGN_GEOMETRIC_PRESENTATION_REPRESENTATION (  '', ( #343 ), #113 ) ;
#188 = EDGE_LOOP ( 'NONE', ( #292, #43, #47, #75 ) ) ;
#189 = STYLED_ITEM ( 'NONE', ( #53 ), #109 ) ;
#190 =( LENGTH_UNIT ( ) NAMED_UNIT ( * ) SI_UNIT ( $, .METRE. ) );
#191 = DIRECTION ( 'NONE',  ( -1.000000000000000000, 0.000000000000000000, 0.000000000000000000 ) ) ;
#192 = DIRECTION ( 'NONE',  ( 0.000000000000000000, 0.000000000000000000, 1.000000000000000000 ) ) ;
#193 = SURFACE_STYLE_FILL_AREA ( #250 ) ;
#194 = FILL_AREA_STYLE ('',( #32 ) ) ;
#195 = AXIS2_PLACEMENT_3D ( 'NONE', #230, #175, #11 ) ;
#196 =( NAMED_UNIT ( * ) SI_UNIT ( $, .STERADIAN. ) SOLID_ANGLE_UNIT ( ) );
#197 = DIMENSIONAL_EXPONENTS ( 1.000000000000000000, 0.000000000000000000, 0.000000000000000000, 0.000000000000000000, 0.000000000000000000, 0.000000000000000000, 0.000000000000000000 ) ;
#198 = DIRECTION ( 'NONE',  ( -1.000000000000000000, 0.000000000000000000, 0.000000000000000000 ) ) ;
#199 = ADVANCED_FACE ( 'NONE', ( #74 ), #344, .T. ) ;
#200 = SURFACE_STYLE_USAGE ( .BOTH. , #169 ) ;
#201 = UNCERTAINTY_MEASURE_WITH_UNIT (LENGTH_MEASURE( 1.000000000000000082E-05 ), #102, 'distance_accuracy_value', 'NONE');
#202 =( NAMED_UNIT ( * ) PLANE_ANGLE_UNIT ( ) SI_UNIT ( $, .RADIAN. ) );
#203 = MECHANICAL_DESIGN_GEOMETRIC_PRESENTATION_REPRESENTATION (  '', ( #101 ), #245 ) ;
#204 =( NAMED_UNIT ( * ) PLANE_ANGLE_UNIT ( ) SI_UNIT ( $, .RADIAN. ) );
#205 =( CONVERSION_BASED_UNIT ( 'INCH', #340 ) LENGTH_UNIT ( ) NAMED_UNIT ( #197 ) );
#206 = PRESENTATION_LAYER_ASSIGNMENT (  '', '', ( #209 ) ) ;
#207 = PRODUCT_DEFINITION_FORMATION_WITH_SPECIFIED_SOURCE ( 'ANY', '', #60, .NOT_KNOWN. ) ;
#208 = CLOSED_SHELL ( 'NONE', ( #183, #262, #278, #90 ) ) ;
#209 = STYLED_ITEM ( 'NONE', ( #186 ), #199 ) ;
#210 =( GEOMETRIC_REPRESENTATION_CONTEXT ( 3 ) GLOBAL_UNCERTAINTY_ASSIGNED_CONTEXT ( ( #141 ) ) GLOBAL_UNIT_ASSIGNED_CONTEXT ( ( #35, #204, #148 ) ) REPRESENTATION_CONTEXT ( 'NONE', 'WORKASPACE' ) );
#211 = ORIENTED_EDGE ( 'NONE', *, *, #5, .F. ) ;
#212 = SURFACE_STYLE_FILL_AREA ( #271 ) ;
#213 = ORIENTED_EDGE ( 'NONE', *, *, #146, .F. ) ;
#214 = DIRECTION ( 'NONE',  ( 0.000000000000000000, 0.8660254037844380415, 0.5000000000000009992 ) ) ;
#215 = ORIENTED_EDGE ( 'NONE', *, *, #345, .T. ) ;
#216 = CARTESIAN_POINT ( 'NONE',  ( 0.000000000000000000, 0.000000000000000000, 0.000000000000000000 ) ) ;
#217 = CARTESIAN_POINT ( 'NONE',  ( 0.2499999999999998335, 3.000000000000000444, 3.061616997868381785E-17 ) ) ;
#218 = VERTEX_POINT ( 'NONE', #87 ) ;
#219 = CARTESIAN_POINT ( 'NONE',  ( -0.2499999999999995837, 1.000000000000000000, 0.000000000000000000 ) ) ;
#220 =( LENGTH_UNIT ( ) NAMED_UNIT ( * ) SI_UNIT ( $, .METRE. ) );
#221 = EDGE_CURVE ( 'NONE', #96, #266, #69, .T. ) ;
#222 = CARTESIAN_POINT ( 'NONE',  ( 1.878145495644181332E-16, 1.000000000000000000, 0.000000000000000000 ) ) ;
#223 = SURFACE_STYLE_USAGE ( .BOTH. , #301 ) ;
#224 = CONICAL_SURFACE ( 'NONE', #349, 22.73032555864674364, 0.5235987755983000369 ) ;
#225 = EDGE_CURVE ( 'NONE', #19, #242, #133, .T. ) ;
#226 = FACE_OUTER_BOUND ( 'NONE', #261, .T. ) ;
#227 = LENGTH_MEASURE_WITH_UNIT ( LENGTH_MEASURE( 0.02539999999999999897 ), #110 );
#228 = VECTOR ( 'NONE', #214, 39.37007874015748143 ) ;
#229 = FILL_AREA_STYLE ('',( #139 ) ) ;
#230 = CARTESIAN_POINT ( 'NONE',  ( 1.878145495644181332E-16, 1.000000000000000000, 0.000000000000000000 ) ) ;
#231 = MANIFOLD_SOLID_BREP ( 'Revolve - Cutting Edge', #76 ) ;
#232 = AXIS2_PLACEMENT_3D ( 'NONE', #309, #259, #144 ) ;
#233 = CARTESIAN_POINT ( 'NONE',  ( 1.878145495644180839E-16, 1.000000000000000000, 0.000000000000000000 ) ) ;
#234 = SURFACE_SIDE_STYLE ('',( #63 ) ) ;
#235 = ORIENTED_EDGE ( 'NONE', *, *, #55, .F. ) ;
#236 = COLOUR_RGB ( '',1.000000000000000000, 0.000000000000000000, 0.000000000000000000 ) ;
#237 = CARTESIAN_POINT ( 'NONE',  ( -6.123233995736772199E-17, 3.000000000000000444, 0.000000000000000000 ) ) ;
#238 = VERTEX_POINT ( 'NONE', #173 ) ;
#239 = DIMENSIONAL_EXPONENTS ( 1.000000000000000000, 0.000000000000000000, 0.000000000000000000, 0.000000000000000000, 0.000000000000000000, 0.000000000000000000, 0.000000000000000000 ) ;
#240 = APPLICATION_PROTOCOL_DEFINITION ( 'draft international standard', 'automotive_design', 1998, #14 ) ;
#241 = PRESENTATION_STYLE_ASSIGNMENT (( #18 ) ) ;
#242 = VERTEX_POINT ( 'NONE', #107 ) ;
#243 = MECHANICAL_DESIGN_GEOMETRIC_PRESENTATION_REPRESENTATION (  '', ( #6 ), #124 ) ;
#244 = AXIS2_PLACEMENT_3D ( 'NONE', #64, #313, #116 ) ;
#245 =( GEOMETRIC_REPRESENTATION_CONTEXT ( 3 ) GLOBAL_UNCERTAINTY_ASSIGNED_CONTEXT ( ( #65 ) ) GLOBAL_UNIT_ASSIGNED_CONTEXT ( ( #163, #351, #46 ) ) REPRESENTATION_CONTEXT ( 'NONE', 'WORKASPACE' ) );
#246 = SURFACE_STYLE_FILL_AREA ( #158 ) ;
#247 = PRESENTATION_STYLE_ASSIGNMENT (( #223 ) ) ;
#248 = SURFACE_SIDE_STYLE ('',( #193 ) ) ;
#249 = MECHANICAL_DESIGN_GEOMETRIC_PRESENTATION_REPRESENTATION (  '', ( #209 ), #145 ) ;
#250 = FILL_AREA_STYLE ('',( #105 ) ) ;
#251 = ADVANCED_FACE ( 'NONE', ( #85 ), #143, .T. ) ;
#252 = LINE ( 'NONE', #118, #7 ) ;
#253 = CYLINDRICAL_SURFACE ( 'NONE', #177, 0.2499999999999999722 ) ;
#254 = EDGE_CURVE ( 'NONE', #268, #218, #172, .T. ) ;
#255 = MECHANICAL_DESIGN_GEOMETRIC_PRESENTATION_REPRESENTATION (  '', ( #189 ), #134 ) ;
#256 = DIRECTION ( 'NONE',  ( -1.245234447608929030E-16, 1.000000000000000000, -0.000000000000000000 ) ) ;
#257 = AXIS2_PLACEMENT_3D ( 'NONE', #38, #256, #61 ) ;
#258 = AXIS2_PLACEMENT_3D ( 'NONE', #49, #260, #290 ) ;
#259 = DIRECTION ( 'NONE',  ( 0.000000000000000000, 1.000000000000000000, 0.000000000000000000 ) ) ;
#260 = DIRECTION ( 'NONE',  ( -0.000000000000000000, -1.000000000000000000, -0.000000000000000000 ) ) ;
#261 = EDGE_LOOP ( 'NONE', ( #211, #215, #128 ) ) ;
#262 = ADVANCED_FACE ( 'NONE', ( #288 ), #149, .F. ) ;
#263 = CIRCLE ( 'NONE', #106, 0.2499999999999999722 ) ;
#264 = DIRECTION ( 'NONE',  ( 0.000000000000000000, 1.000000000000000000, 0.000000000000000000 ) ) ;
#265 = EDGE_LOOP ( 'NONE', ( #181, #68 ) ) ;
#266 = VERTEX_POINT ( 'NONE', #310 ) ;
#267 = CARTESIAN_POINT ( 'NONE',  ( 0.000000000000000000, 0.000000000000000000, -0.2499999999999999722 ) ) ;
#268 = VERTEX_POINT ( 'NONE', #174 ) ;
#269 = DIMENSIONAL_EXPONENTS ( 1.000000000000000000, 0.000000000000000000, 0.000000000000000000, 0.000000000000000000, 0.000000000000000000, 0.000000000000000000, 0.000000000000000000 ) ;
#270 = LINE ( 'NONE', #155, #228 ) ;
#271 = FILL_AREA_STYLE ('',( #347 ) ) ;
#272 = PRESENTATION_LAYER_ASSIGNMENT (  '', '', ( #10 ) ) ;
#273 = CARTESIAN_POINT ( 'NONE',  ( 0.2500000000000000000, 1.000000000000000000, 3.061616997868382402E-17 ) ) ;
#274 = CARTESIAN_POINT ( 'NONE',  ( 0.000000000000000000, 1.000000000000000000, 0.000000000000000000 ) ) ;
#275 = DIRECTION ( 'NONE',  ( 1.245234447608929030E-16, -1.000000000000000000, 0.000000000000000000 ) ) ;
#276 = DIRECTION ( 'NONE',  ( 0.000000000000000000, 0.000000000000000000, -1.000000000000000000 ) ) ;
#277 = VECTOR ( 'NONE', #298, 39.37007874015748143 ) ;
#278 = ADVANCED_FACE ( 'NONE', ( #336 ), #147, .T. ) ;
#279 = PRESENTATION_LAYER_ASSIGNMENT (  '', '', ( #343 ) ) ;
#280 = CARTESIAN_POINT ( 'NONE',  ( 0.000000000000000000, 0.000000000000000000, 0.000000000000000000 ) ) ;
#281 = DIRECTION ( 'NONE',  ( 0.000000000000000000, 0.000000000000000000, -1.000000000000000000 ) ) ;
#282 = MECHANICAL_DESIGN_GEOMETRIC_PRESENTATION_REPRESENTATION (  '', ( #10 ), #210 ) ;
#283 = EDGE_CURVE ( 'NONE', #21, #98, #295, .T. ) ;
#284 = DIRECTION ( 'NONE',  ( -0.000000000000000000, -1.000000000000000000, -0.000000000000000000 ) ) ;
#285 = PRODUCT_RELATED_PRODUCT_CATEGORY ( 'part', '', ( #60 ) ) ;
#286 = UNCERTAINTY_MEASURE_WITH_UNIT (LENGTH_MEASURE( 1.000000000000000082E-05 ), #182, 'distance_accuracy_value', 'NONE');
#287 =( NAMED_UNIT ( * ) PLANE_ANGLE_UNIT ( ) SI_UNIT ( $, .RADIAN. ) );
#288 = FACE_OUTER_BOUND ( 'NONE', #265, .T. ) ;
#289 = FILL_AREA_STYLE ('',( #176 ) ) ;
#290 = DIRECTION ( 'NONE',  ( 0.000000000000000000, 0.000000000000000000, -1.000000000000000000 ) ) ;
#291 =( LENGTH_UNIT ( ) NAMED_UNIT ( * ) SI_UNIT ( $, .METRE. ) );
#292 = ORIENTED_EDGE ( 'NONE', *, *, #154, .F. ) ;
#293 = LENGTH_MEASURE_WITH_UNIT ( LENGTH_MEASURE( 0.02539999999999999897 ), #95 );
#294 = ORIENTED_EDGE ( 'NONE', *, *, #254, .T. ) ;
#295 = CIRCLE ( 'NONE', #195, 0.2499999999999998057 ) ;
#296 = AXIS2_PLACEMENT_3D ( 'NONE', #13, #178, #191 ) ;
#297 = EDGE_LOOP ( 'NONE', ( #164, #299, #125, #213 ) ) ;
#298 = DIRECTION ( 'NONE',  ( -1.245234447608929030E-16, 1.000000000000000000, -0.000000000000000000 ) ) ;
#299 = ORIENTED_EDGE ( 'NONE', *, *, #154, .T. ) ;
#300 = LINE ( 'NONE', #77, #277 ) ;
#301 = SURFACE_SIDE_STYLE ('',( #82 ) ) ;
#302 = APPLICATION_CONTEXT ( 'automotive_design' ) ;
#303 = AXIS2_PLACEMENT_3D ( 'NONE', #274, #2, #3 ) ;
#304 = DIRECTION ( 'NONE',  ( 1.000000000000000000, 1.245234447608929030E-16, 0.000000000000000000 ) ) ;
#305 = SURFACE_SIDE_STYLE ('',( #325 ) ) ;
#306 =( NAMED_UNIT ( * ) PLANE_ANGLE_UNIT ( ) SI_UNIT ( $, .RADIAN. ) );
#307 = COLOUR_RGB ( '',1.000000000000000000, 0.000000000000000000, 0.000000000000000000 ) ;
#308 =( LENGTH_UNIT ( ) NAMED_UNIT ( * ) SI_UNIT ( $, .METRE. ) );
#309 = CARTESIAN_POINT ( 'NONE',  ( 0.000000000000000000, 1.000000000000000000, 0.000000000000000000 ) ) ;
#310 = CARTESIAN_POINT ( 'NONE',  ( 3.061616997868382402E-17, 0.4330127018922180770, 0.2499999999999999722 ) ) ;
#311 =( LENGTH_UNIT ( ) NAMED_UNIT ( * ) SI_UNIT ( $, .METRE. ) );
#312 = EDGE_CURVE ( 'NONE', #242, #266, #252, .T. ) ;
#313 = DIRECTION ( 'NONE',  ( -1.245234447608929030E-16, 1.000000000000000000, -0.000000000000000000 ) ) ;
#314 = AXIS2_PLACEMENT_3D ( 'NONE', #28, #275, #304 ) ;
#315 = ORIENTED_EDGE ( 'NONE', *, *, #225, .T. ) ;
#316 = EDGE_LOOP ( 'NONE', ( #315, #23, #79, #153 ) ) ;
#317 = DIRECTION ( 'NONE',  ( 0.000000000000000000, 0.000000000000000000, 1.000000000000000000 ) ) ;
#318 = ORIENTED_EDGE ( 'NONE', *, *, #345, .F. ) ;
#319 = LINE ( 'NONE', #267, #88 ) ;
#320 = COLOUR_RGB ( '',0.7921568627450980005, 0.8196078431372548767, 0.9333333333333333481 ) ;
#321 = CYLINDRICAL_SURFACE ( 'NONE', #36, 0.2499999999999998890 ) ;
#322 = AXIS2_PLACEMENT_3D ( 'NONE', #216, #192, #50 ) ;
#323 = DIRECTION ( 'NONE',  ( 6.123233995736778362E-17, 0.8660254037844380415, -0.5000000000000009992 ) ) ;
#324 = CARTESIAN_POINT ( 'NONE',  ( 0.000000000000000000, 39.37007874015748143, 0.000000000000000000 ) ) ;
#325 = SURFACE_STYLE_FILL_AREA ( #194 ) ;
#326 =( NAMED_UNIT ( * ) PLANE_ANGLE_UNIT ( ) SI_UNIT ( $, .RADIAN. ) );
#327 = LENGTH_MEASURE_WITH_UNIT ( LENGTH_MEASURE( 0.02539999999999999897 ), #190 );
#328 = SURFACE_STYLE_USAGE ( .BOTH. , #305 ) ;
#329 = EDGE_CURVE ( 'NONE', #266, #96, #263, .T. ) ;
#330 = SURFACE_STYLE_USAGE ( .BOTH. , #248 ) ;
#331 = FILL_AREA_STYLE ('',( #108 ) ) ;
#332 = VECTOR ( 'NONE', #323, 39.37007874015748143 ) ;
#333 = UNCERTAINTY_MEASURE_WITH_UNIT (LENGTH_MEASURE( 1.000000000000000082E-05 ), #137, 'distance_accuracy_value', 'NONE');
#334 =( CONVERSION_BASED_UNIT ( 'INCH', #227 ) LENGTH_UNIT ( ) NAMED_UNIT ( #29 ) );
#335 = ADVANCED_FACE ( 'NONE', ( #59 ), #253, .T. ) ;
#336 = FACE_OUTER_BOUND ( 'NONE', #188, .T. ) ;
#337 = PRESENTATION_LAYER_ASSIGNMENT (  '', '', ( #62 ) ) ;
#338 = LENGTH_MEASURE_WITH_UNIT ( LENGTH_MEASURE( 0.02539999999999999897 ), #308 );
#339 = CIRCLE ( 'NONE', #296, 0.2500000000000000555 ) ;
#340 = LENGTH_MEASURE_WITH_UNIT ( LENGTH_MEASURE( 0.02539999999999999897 ), #311 );
#341 = EDGE_CURVE ( 'NONE', #19, #96, #319, .T. ) ;
#342 = PLANE ( 'NONE',  #314 ) ;
#343 = STYLED_ITEM ( 'NONE', ( #83 ), #231 ) ;
#344 = CYLINDRICAL_SURFACE ( 'NONE', #34, 0.2499999999999999722 ) ;
#345 = EDGE_CURVE ( 'NONE', #238, #266, #270, .T. ) ;
#346 = SHAPE_DEFINITION_REPRESENTATION ( #9, #51 ) ;
#347 = FILL_AREA_STYLE_COLOUR ( '', #25 ) ;
#348 = LINE ( 'NONE', #132, #332 ) ;
#349 = AXIS2_PLACEMENT_3D ( 'NONE', #324, #97, #317 ) ;
#350 = CARTESIAN_POINT ( 'NONE',  ( 0.000000000000000000, 1.000000000000000000, -0.2499999999999999722 ) ) ;
#351 =( NAMED_UNIT ( * ) PLANE_ANGLE_UNIT ( ) SI_UNIT ( $, .RADIAN. ) );
ENDSEC;
END-ISO-10303-21;
