ISO-10303-21;
HEADER;
FILE_DESCRIPTION (( 'STEP AP214' ),
    '1' );
FILE_NAME ('59777.STEP',
    '2023-07-24T15:37:53',
    ( '' ),
    ( '' ),
    'SwSTEP 2.0',
    'SolidWorks 2023',
    '' );
FILE_SCHEMA (( 'AUTOMOTIVE_DESIGN' ));
ENDSEC;

DATA;
#1 = AXIS2_PLACEMENT_3D ( 'NONE', #172, #298, #231 ) ;
#2 = EDGE_CURVE ( 'NONE', #265, #250, #100, .T. ) ;
#3 = CARTESIAN_POINT ( 'NONE',  ( -5.999999999999987566, 75.00000000000000000, 0.000000000000000000 ) ) ;
#4 = DIRECTION ( 'NONE',  ( -1.000000000000000000, 0.000000000000000000, 0.000000000000000000 ) ) ;
#5 = SHAPE_DEFINITION_REPRESENTATION ( #112, #296 ) ;
#6 =( GEOMETRIC_REPRESENTATION_CONTEXT ( 3 ) GLOBAL_UNCERTAINTY_ASSIGNED_CONTEXT ( ( #28 ) ) GLOBAL_UNIT_ASSIGNED_CONTEXT ( ( #274, #207, #339 ) ) REPRESENTATION_CONTEXT ( 'NONE', 'WORKASPACE' ) );
#7 = CARTESIAN_POINT ( 'NONE',  ( 0.000000000000000000, 0.000000000000000000, 0.000000000000000000 ) ) ;
#8 = CARTESIAN_POINT ( 'NONE',  ( 6.123233995736762930E-15, 75.00000000000000000, 0.000000000000000000 ) ) ;
#9 = MECHANICAL_DESIGN_GEOMETRIC_PRESENTATION_REPRESENTATION (  '', ( #61 ), #146 ) ;
#10 = FILL_AREA_STYLE_COLOUR ( '', #262 ) ;
#11 = CARTESIAN_POINT ( 'NONE',  ( 6.123233995736762930E-15, 75.00000000000000000, 0.000000000000000000 ) ) ;
#12 =( GEOMETRIC_REPRESENTATION_CONTEXT ( 3 ) GLOBAL_UNCERTAINTY_ASSIGNED_CONTEXT ( ( #55 ) ) GLOBAL_UNIT_ASSIGNED_CONTEXT ( ( #278, #150, #17 ) ) REPRESENTATION_CONTEXT ( 'NONE', 'WORKASPACE' ) );
#13 = DIRECTION ( 'NONE',  ( -0.000000000000000000, -1.000000000000000000, -0.000000000000000000 ) ) ;
#14 = EDGE_CURVE ( 'NONE', #143, #136, #178, .T. ) ;
#15 = DIRECTION ( 'NONE',  ( -0.000000000000000000, -1.000000000000000000, -0.000000000000000000 ) ) ;
#16 = DIRECTION ( 'NONE',  ( -0.000000000000000000, -1.000000000000000000, -0.000000000000000000 ) ) ;
#17 =( NAMED_UNIT ( * ) SI_UNIT ( $, .STERADIAN. ) SOLID_ANGLE_UNIT ( ) );
#18 =( NAMED_UNIT ( * ) SI_UNIT ( $, .STERADIAN. ) SOLID_ANGLE_UNIT ( ) );
#19 =( LENGTH_UNIT ( ) NAMED_UNIT ( * ) SI_UNIT ( .MILLI., .METRE. ) );
#20 = SURFACE_STYLE_FILL_AREA ( #312 ) ;
#21 = CARTESIAN_POINT ( 'NONE',  ( 7.347880794884119736E-16, 0.000000000000000000, 6.000000000000000000 ) ) ;
#22 = AXIS2_PLACEMENT_3D ( 'NONE', #70, #179, #74 ) ;
#23 = UNCERTAINTY_MEASURE_WITH_UNIT (LENGTH_MEASURE( 1.000000000000000082E-05 ), #355, 'distance_accuracy_value', 'NONE');
#24 = SURFACE_SIDE_STYLE ('',( #204 ) ) ;
#25 = AXIS2_PLACEMENT_3D ( 'NONE', #185, #366, #104 ) ;
#26 = DIRECTION ( 'NONE',  ( 1.560495851798313744E-17, 1.000000000000000000, -0.000000000000000000 ) ) ;
#27 = ORIENTED_EDGE ( 'NONE', *, *, #147, .F. ) ;
#28 = UNCERTAINTY_MEASURE_WITH_UNIT (LENGTH_MEASURE( 1.000000000000000082E-05 ), #274, 'distance_accuracy_value', 'NONE');
#29 = STYLED_ITEM ( 'NONE', ( #234 ), #275 ) ;
#30 = PRODUCT_DEFINITION_FORMATION_WITH_SPECIFIED_SOURCE ( 'ANY', '', #348, .NOT_KNOWN. ) ;
#31 = COLOUR_RGB ( '',1.000000000000000000, 0.000000000000000000, 0.000000000000000000 ) ;
#32 = CARTESIAN_POINT ( 'NONE',  ( 5.421010862427522170E-15, 30.00000000000000000, 0.000000000000000000 ) ) ;
#33 = DIRECTION ( 'NONE',  ( -0.000000000000000000, -1.000000000000000000, -0.000000000000000000 ) ) ;
#34 = EDGE_LOOP ( 'NONE', ( #195, #342, #328, #252 ) ) ;
#35 = EDGE_CURVE ( 'NONE', #250, #265, #151, .T. ) ;
#36 = MECHANICAL_DESIGN_GEOMETRIC_PRESENTATION_REPRESENTATION (  '', ( #29 ), #242 ) ;
#37 = SURFACE_STYLE_FILL_AREA ( #120 ) ;
#38 = DIRECTION ( 'NONE',  ( 1.000000000000000000, 0.000000000000000000, -1.224646799147353207E-16 ) ) ;
#39 = AXIS2_PLACEMENT_3D ( 'NONE', #307, #16, #205 ) ;
#40 = SURFACE_SIDE_STYLE ('',( #37 ) ) ;
#41 = FACE_OUTER_BOUND ( 'NONE', #62, .T. ) ;
#42 = CARTESIAN_POINT ( 'NONE',  ( 5.421010862427522170E-15, 30.00000000000000000, 0.000000000000000000 ) ) ;
#43 =( NAMED_UNIT ( * ) PLANE_ANGLE_UNIT ( ) SI_UNIT ( $, .RADIAN. ) );
#44 = SURFACE_STYLE_USAGE ( .BOTH. , #302 ) ;
#45 =( NAMED_UNIT ( * ) SI_UNIT ( $, .STERADIAN. ) SOLID_ANGLE_UNIT ( ) );
#46 = FILL_AREA_STYLE_COLOUR ( '', #197 ) ;
#47 = MECHANICAL_DESIGN_GEOMETRIC_PRESENTATION_REPRESENTATION (  '', ( #216 ), #6 ) ;
#48 = PLANE ( 'NONE',  #51 ) ;
#49 = PRESENTATION_STYLE_ASSIGNMENT (( #310 ) ) ;
#50 = PRESENTATION_STYLE_ASSIGNMENT (( #245 ) ) ;
#51 = AXIS2_PLACEMENT_3D ( 'NONE', #300, #239, #354 ) ;
#52 = EDGE_LOOP ( 'NONE', ( #171, #317 ) ) ;
#53 = DIRECTION ( 'NONE',  ( -1.000000000000000000, 0.000000000000000000, 0.000000000000000000 ) ) ;
#54 =( GEOMETRIC_REPRESENTATION_CONTEXT ( 3 ) GLOBAL_UNCERTAINTY_ASSIGNED_CONTEXT ( ( #23 ) ) GLOBAL_UNIT_ASSIGNED_CONTEXT ( ( #355, #333, #176 ) ) REPRESENTATION_CONTEXT ( 'NONE', 'WORKASPACE' ) );
#55 = UNCERTAINTY_MEASURE_WITH_UNIT (LENGTH_MEASURE( 1.000000000000000082E-05 ), #278, 'distance_accuracy_value', 'NONE');
#56 = VERTEX_POINT ( 'NONE', #121 ) ;
#57 =( LENGTH_UNIT ( ) NAMED_UNIT ( * ) SI_UNIT ( .MILLI., .METRE. ) );
#58 = ORIENTED_EDGE ( 'NONE', *, *, #230, .T. ) ;
#59 = DIRECTION ( 'NONE',  ( -1.000000000000000000, 0.000000000000000000, 0.000000000000000000 ) ) ;
#60 = UNCERTAINTY_MEASURE_WITH_UNIT (LENGTH_MEASURE( 1.000000000000000082E-05 ), #148, 'distance_accuracy_value', 'NONE');
#61 = STYLED_ITEM ( 'NONE', ( #356 ), #88 ) ;
#62 = EDGE_LOOP ( 'NONE', ( #77, #233 ) ) ;
#63 = ADVANCED_FACE ( 'NONE', ( #236 ), #170, .T. ) ;
#64 = PRESENTATION_STYLE_ASSIGNMENT (( #227 ) ) ;
#65 = STYLED_ITEM ( 'NONE', ( #50 ), #219 ) ;
#66 = ORIENTED_EDGE ( 'NONE', *, *, #353, .F. ) ;
#67 = CARTESIAN_POINT ( 'NONE',  ( 6.123233995736766282E-16, 1.000000000000000000, 5.000000000000000000 ) ) ;
#68 = CARTESIAN_POINT ( 'NONE',  ( 0.000000000000000000, 0.000000000000000000, 0.000000000000000000 ) ) ;
#69 = COLOUR_RGB ( '',0.7921568627450980005, 0.8196078431372548767, 0.9333333333333333481 ) ;
#70 = CARTESIAN_POINT ( 'NONE',  ( 0.000000000000000000, 30.00000000000000000, 0.000000000000000000 ) ) ;
#71 = DIRECTION ( 'NONE',  ( 1.560495851798313744E-17, 1.000000000000000000, -0.000000000000000000 ) ) ;
#72 =( LENGTH_UNIT ( ) NAMED_UNIT ( * ) SI_UNIT ( .MILLI., .METRE. ) );
#73 = PRESENTATION_LAYER_ASSIGNMENT (  '', '', ( #181 ) ) ;
#74 = DIRECTION ( 'NONE',  ( 0.000000000000000000, 0.000000000000000000, -1.000000000000000000 ) ) ;
#75 = DIRECTION ( 'NONE',  ( 0.000000000000000000, 0.000000000000000000, -1.000000000000000000 ) ) ;
#76 = EDGE_CURVE ( 'NONE', #111, #103, #335, .T. ) ;
#77 = ORIENTED_EDGE ( 'NONE', *, *, #133, .F. ) ;
#78 = FACE_OUTER_BOUND ( 'NONE', #34, .T. ) ;
#79 = ORIENTED_EDGE ( 'NONE', *, *, #2, .T. ) ;
#80 = PRODUCT_CONTEXT ( 'NONE', #196, 'mechanical' ) ;
#81 = ORIENTED_EDGE ( 'NONE', *, *, #230, .F. ) ;
#82 = APPLICATION_PROTOCOL_DEFINITION ( 'draft international standard', 'automotive_design', 1998, #84 ) ;
#83 = CIRCLE ( 'NONE', #159, 5.000000000000000000 ) ;
#84 = APPLICATION_CONTEXT ( 'automotive_design' ) ;
#85 = ORIENTED_EDGE ( 'NONE', *, *, #304, .F. ) ;
#86 =( GEOMETRIC_REPRESENTATION_CONTEXT ( 3 ) GLOBAL_UNCERTAINTY_ASSIGNED_CONTEXT ( ( #285 ) ) GLOBAL_UNIT_ASSIGNED_CONTEXT ( ( #19, #127, #45 ) ) REPRESENTATION_CONTEXT ( 'NONE', 'WORKASPACE' ) );
#87 =( NAMED_UNIT ( * ) SI_UNIT ( $, .STERADIAN. ) SOLID_ANGLE_UNIT ( ) );
#88 = MANIFOLD_SOLID_BREP ( 'Revolve - Cutting Edge', #138 ) ;
#89 = FILL_AREA_STYLE ('',( #238 ) ) ;
#90 = CIRCLE ( 'NONE', #22, 6.000000000000000000 ) ;
#91 = CARTESIAN_POINT ( 'NONE',  ( 6.000000000000000000, 75.00000000000000000, 0.000000000000000000 ) ) ;
#92 = DIRECTION ( 'NONE',  ( -1.224646799147352468E-16, 0.000000000000000000, -1.000000000000000000 ) ) ;
#93 = SURFACE_STYLE_FILL_AREA ( #135 ) ;
#94 = COLOUR_RGB ( '',1.000000000000000000, 0.000000000000000000, 0.000000000000000000 ) ;
#95 =( NAMED_UNIT ( * ) PLANE_ANGLE_UNIT ( ) SI_UNIT ( $, .RADIAN. ) );
#96 = EDGE_CURVE ( 'NONE', #103, #288, #194, .T. ) ;
#97 = SURFACE_SIDE_STYLE ('',( #309 ) ) ;
#98 = SURFACE_STYLE_USAGE ( .BOTH. , #208 ) ;
#99 = DIRECTION ( 'NONE',  ( -1.000000000000000000, 0.000000000000000000, 0.000000000000000000 ) ) ;
#100 = CIRCLE ( 'NONE', #313, 5.999999999999993783 ) ;
#101 = EDGE_CURVE ( 'NONE', #111, #56, #184, .T. ) ;
#102 = STYLED_ITEM ( 'NONE', ( #360 ), #211 ) ;
#103 = VERTEX_POINT ( 'NONE', #243 ) ;
#104 = DIRECTION ( 'NONE',  ( 0.000000000000000000, 0.000000000000000000, -1.000000000000000000 ) ) ;
#105 = VECTOR ( 'NONE', #15, 1000.000000000000000 ) ;
#106 =( NAMED_UNIT ( * ) PLANE_ANGLE_UNIT ( ) SI_UNIT ( $, .RADIAN. ) );
#107 = AXIS2_PLACEMENT_3D ( 'NONE', #272, #270, #202 ) ;
#108 = EDGE_CURVE ( 'NONE', #297, #217, #83, .T. ) ;
#109 = AXIS2_PLACEMENT_3D ( 'NONE', #218, #276, #75 ) ;
#110 = PRESENTATION_LAYER_ASSIGNMENT (  '', '', ( #209 ) ) ;
#111 = VERTEX_POINT ( 'NONE', #126 ) ;
#112 = PRODUCT_DEFINITION_SHAPE ( 'NONE', 'NONE',  #341 ) ;
#113 = ADVANCED_FACE ( 'NONE', ( #123 ), #48, .F. ) ;
#114 =( NAMED_UNIT ( * ) PLANE_ANGLE_UNIT ( ) SI_UNIT ( $, .RADIAN. ) );
#115 = AXIS2_PLACEMENT_3D ( 'NONE', #7, #33, #323 ) ;
#116 = SURFACE_STYLE_FILL_AREA ( #351 ) ;
#117 = FACE_OUTER_BOUND ( 'NONE', #140, .T. ) ;
#118 = CARTESIAN_POINT ( 'NONE',  ( 6.735557395310443009E-16, 0.000000000000000000, 5.000000000000000000 ) ) ;
#119 =( GEOMETRIC_REPRESENTATION_CONTEXT ( 3 ) GLOBAL_UNCERTAINTY_ASSIGNED_CONTEXT ( ( #251 ) ) GLOBAL_UNIT_ASSIGNED_CONTEXT ( ( #173, #114, #87 ) ) REPRESENTATION_CONTEXT ( 'NONE', 'WORKASPACE' ) );
#120 = FILL_AREA_STYLE ('',( #10 ) ) ;
#121 = CARTESIAN_POINT ( 'NONE',  ( 0.000000000000000000, 30.00000000000000000, -6.000000000000000000 ) ) ;
#122 = CYLINDRICAL_SURFACE ( 'NONE', #139, 6.000000000000000000 ) ;
#123 = FACE_OUTER_BOUND ( 'NONE', #292, .T. ) ;
#124 = DIRECTION ( 'NONE',  ( -0.000000000000000000, -1.000000000000000000, -0.000000000000000000 ) ) ;
#125 = ADVANCED_FACE ( 'NONE', ( #156 ), #362, .F. ) ;
#126 = CARTESIAN_POINT ( 'NONE',  ( 7.347880794884119736E-16, 30.00000000000000000, 6.000000000000000000 ) ) ;
#127 =( NAMED_UNIT ( * ) PLANE_ANGLE_UNIT ( ) SI_UNIT ( $, .RADIAN. ) );
#128 = FILL_AREA_STYLE_COLOUR ( '', #69 ) ;
#129 = CIRCLE ( 'NONE', #109, 5.000000000000000000 ) ;
#130 = DIRECTION ( 'NONE',  ( 0.000000000000000000, 0.000000000000000000, -1.000000000000000000 ) ) ;
#131 = CARTESIAN_POINT ( 'NONE',  ( 0.000000000000000000, 30.00000000000000000, 0.000000000000000000 ) ) ;
#132 = SURFACE_SIDE_STYLE ('',( #20 ) ) ;
#133 = EDGE_CURVE ( 'NONE', #56, #111, #90, .T. ) ;
#134 = FILL_AREA_STYLE ('',( #329 ) ) ;
#135 = FILL_AREA_STYLE ('',( #46 ) ) ;
#136 = VERTEX_POINT ( 'NONE', #213 ) ;
#137 = FACE_OUTER_BOUND ( 'NONE', #279, .T. ) ;
#138 = CLOSED_SHELL ( 'NONE', ( #163, #211, #63, #344, #275, #320 ) ) ;
#139 = AXIS2_PLACEMENT_3D ( 'NONE', #340, #124, #248 ) ;
#140 = EDGE_LOOP ( 'NONE', ( #145, #256, #58, #291 ) ) ;
#141 = EDGE_CURVE ( 'NONE', #136, #143, #193, .T. ) ;
#142 = ORIENTED_EDGE ( 'NONE', *, *, #350, .F. ) ;
#143 = VERTEX_POINT ( 'NONE', #180 ) ;
#144 = AXIS2_PLACEMENT_3D ( 'NONE', #67, #38, #92 ) ;
#145 = ORIENTED_EDGE ( 'NONE', *, *, #369, .F. ) ;
#146 =( GEOMETRIC_REPRESENTATION_CONTEXT ( 3 ) GLOBAL_UNCERTAINTY_ASSIGNED_CONTEXT ( ( #158 ) ) GLOBAL_UNIT_ASSIGNED_CONTEXT ( ( #72, #95, #18 ) ) REPRESENTATION_CONTEXT ( 'NONE', 'WORKASPACE' ) );
#147 = EDGE_CURVE ( 'NONE', #56, #288, #299, .T. ) ;
#148 =( LENGTH_UNIT ( ) NAMED_UNIT ( * ) SI_UNIT ( .MILLI., .METRE. ) );
#149 = CARTESIAN_POINT ( 'NONE',  ( 0.000000000000000000, 0.000000000000000000, -6.000000000000000000 ) ) ;
#150 =( NAMED_UNIT ( * ) PLANE_ANGLE_UNIT ( ) SI_UNIT ( $, .RADIAN. ) );
#151 = CIRCLE ( 'NONE', #232, 5.999999999999993783 ) ;
#152 = DIRECTION ( 'NONE',  ( -0.000000000000000000, -1.000000000000000000, -0.000000000000000000 ) ) ;
#153 = CARTESIAN_POINT ( 'NONE',  ( 6.123233995736762930E-15, 75.00000000000000000, 0.000000000000000000 ) ) ;
#154 = DIRECTION ( 'NONE',  ( -0.000000000000000000, -1.000000000000000000, -0.000000000000000000 ) ) ;
#155 = AXIS2_PLACEMENT_3D ( 'NONE', #314, #53, #160 ) ;
#156 = FACE_OUTER_BOUND ( 'NONE', #191, .T. ) ;
#157 = FACE_OUTER_BOUND ( 'NONE', #321, .T. ) ;
#158 = UNCERTAINTY_MEASURE_WITH_UNIT (LENGTH_MEASURE( 1.000000000000000082E-05 ), #72, 'distance_accuracy_value', 'NONE');
#159 = AXIS2_PLACEMENT_3D ( 'NONE', #68, #273, #246 ) ;
#160 = DIRECTION ( 'NONE',  ( 0.000000000000000000, 0.000000000000000000, 1.000000000000000000 ) ) ;
#161 = VECTOR ( 'NONE', #13, 1000.000000000000000 ) ;
#162 = CIRCLE ( 'NONE', #144, 1.000000000000000000 ) ;
#163 = ADVANCED_FACE ( 'NONE', ( #174 ), #122, .T. ) ;
#164 = CARTESIAN_POINT ( 'NONE',  ( 0.000000000000000000, 0.000000000000000000, 0.000000000000000000 ) ) ;
#165 = CLOSED_SHELL ( 'NONE', ( #186, #113, #287, #125 ) ) ;
#166 = MECHANICAL_DESIGN_GEOMETRIC_PRESENTATION_REPRESENTATION (  '', ( #189 ), #12 ) ;
#167 = EDGE_LOOP ( 'NONE', ( #324, #220, #142, #66 ) ) ;
#168 = DIRECTION ( 'NONE',  ( 1.000000000000000000, 0.000000000000000000, 0.000000000000000000 ) ) ;
#169 = DIRECTION ( 'NONE',  ( -1.000000000000000000, 0.000000000000000000, 0.000000000000000000 ) ) ;
#170 = PLANE ( 'NONE',  #361 ) ;
#171 = ORIENTED_EDGE ( 'NONE', *, *, #350, .T. ) ;
#172 = CARTESIAN_POINT ( 'NONE',  ( 0.000000000000000000, 1.000000000000000000, 0.000000000000000000 ) ) ;
#173 =( LENGTH_UNIT ( ) NAMED_UNIT ( * ) SI_UNIT ( .MILLI., .METRE. ) );
#174 = FACE_OUTER_BOUND ( 'NONE', #295, .T. ) ;
#175 = FILL_AREA_STYLE_COLOUR ( '', #334 ) ;
#176 =( NAMED_UNIT ( * ) SI_UNIT ( $, .STERADIAN. ) SOLID_ANGLE_UNIT ( ) );
#177 = AXIS2_PLACEMENT_3D ( 'NONE', #42, #305, #99 ) ;
#178 = CIRCLE ( 'NONE', #226, 5.999999999999994671 ) ;
#179 = DIRECTION ( 'NONE',  ( -0.000000000000000000, -1.000000000000000000, -0.000000000000000000 ) ) ;
#180 = CARTESIAN_POINT ( 'NONE',  ( -5.999999999999989342, 30.00000000000000000, 0.000000000000000000 ) ) ;
#181 = STYLED_ITEM ( 'NONE', ( #303 ), #320 ) ;
#182 = SURFACE_STYLE_FILL_AREA ( #134 ) ;
#183 = LINE ( 'NONE', #284, #357 ) ;
#184 = CIRCLE ( 'NONE', #203, 6.000000000000000000 ) ;
#185 = CARTESIAN_POINT ( 'NONE',  ( 0.000000000000000000, 1.000000000000000000, 0.000000000000000000 ) ) ;
#186 = ADVANCED_FACE ( 'NONE', ( #157 ), #306, .T. ) ;
#187 = ORIENTED_EDGE ( 'NONE', *, *, #141, .F. ) ;
#188 =( LENGTH_UNIT ( ) NAMED_UNIT ( * ) SI_UNIT ( .MILLI., .METRE. ) );
#189 = STYLED_ITEM ( 'NONE', ( #49 ), #163 ) ;
#190 = MECHANICAL_DESIGN_GEOMETRIC_PRESENTATION_REPRESENTATION (  '', ( #102 ), #54 ) ;
#191 = EDGE_LOOP ( 'NONE', ( #79, #370 ) ) ;
#192 = ORIENTED_EDGE ( 'NONE', *, *, #2, .F. ) ;
#193 = CIRCLE ( 'NONE', #177, 5.999999999999994671 ) ;
#194 = CIRCLE ( 'NONE', #39, 6.000000000000000000 ) ;
#195 = ORIENTED_EDGE ( 'NONE', *, *, #76, .F. ) ;
#196 = APPLICATION_CONTEXT ( 'automotive_design' ) ;
#197 = COLOUR_RGB ( '',1.000000000000000000, 0.000000000000000000, 0.000000000000000000 ) ;
#198 = CYLINDRICAL_SURFACE ( 'NONE', #115, 6.000000000000000000 ) ;
#199 = ORIENTED_EDGE ( 'NONE', *, *, #96, .T. ) ;
#200 = PRODUCT_RELATED_PRODUCT_CATEGORY ( 'part', '', ( #348 ) ) ;
#201 = AXIS2_PLACEMENT_3D ( 'NONE', #153, #71, #240 ) ;
#202 = DIRECTION ( 'NONE',  ( -1.000000000000000000, 0.000000000000000000, 0.000000000000000000 ) ) ;
#203 = AXIS2_PLACEMENT_3D ( 'NONE', #359, #152, #130 ) ;
#204 = SURFACE_STYLE_FILL_AREA ( #89 ) ;
#205 = DIRECTION ( 'NONE',  ( 0.000000000000000000, 0.000000000000000000, -1.000000000000000000 ) ) ;
#206 = TOROIDAL_SURFACE ( 'NONE', #229, 5.000000000000000000, 0.9999999999999995559 ) ;
#207 =( NAMED_UNIT ( * ) PLANE_ANGLE_UNIT ( ) SI_UNIT ( $, .RADIAN. ) );
#208 = SURFACE_SIDE_STYLE ('',( #93 ) ) ;
#209 = STYLED_ITEM ( 'NONE', ( #64 ), #63 ) ;
#210 = DIRECTION ( 'NONE',  ( 0.000000000000000000, -1.000000000000000000, -0.000000000000000000 ) ) ;
#211 = ADVANCED_FACE ( 'NONE', ( #212 ), #206, .T. ) ;
#212 = FACE_OUTER_BOUND ( 'NONE', #167, .T. ) ;
#213 = CARTESIAN_POINT ( 'NONE',  ( 6.000000000000000000, 30.00000000000000000, 7.347880794884112834E-16 ) ) ;
#214 = DIRECTION ( 'NONE',  ( 0.000000000000000000, 1.000000000000000000, 0.000000000000000000 ) ) ;
#215 = CARTESIAN_POINT ( 'NONE',  ( 0.000000000000000000, 1.000000000000000000, 0.000000000000000000 ) ) ;
#216 = STYLED_ITEM ( 'NONE', ( #241 ), #344 ) ;
#217 = VERTEX_POINT ( 'NONE', #337 ) ;
#218 = CARTESIAN_POINT ( 'NONE',  ( 0.000000000000000000, 0.000000000000000000, 0.000000000000000000 ) ) ;
#219 = MANIFOLD_SOLID_BREP ( 'Revolve - Tool Body (Straight Shanked)', #165 ) ;
#220 = ORIENTED_EDGE ( 'NONE', *, *, #293, .T. ) ;
#221 = CARTESIAN_POINT ( 'NONE',  ( 6.000000000000000888, 75.00000000000000000, 7.347880794884112834E-16 ) ) ;
#222 = ORIENTED_EDGE ( 'NONE', *, *, #14, .F. ) ;
#223 = PRESENTATION_LAYER_ASSIGNMENT (  '', '', ( #102 ) ) ;
#224 = ORIENTED_EDGE ( 'NONE', *, *, #108, .F. ) ;
#225 =( NAMED_UNIT ( * ) PLANE_ANGLE_UNIT ( ) SI_UNIT ( $, .RADIAN. ) );
#226 = AXIS2_PLACEMENT_3D ( 'NONE', #32, #266, #169 ) ;
#227 = SURFACE_STYLE_USAGE ( .BOTH. , #346 ) ;
#228 = DIRECTION ( 'NONE',  ( 1.560495851798313744E-17, 1.000000000000000000, -0.000000000000000000 ) ) ;
#229 = AXIS2_PLACEMENT_3D ( 'NONE', #215, #154, #358 ) ;
#230 = EDGE_CURVE ( 'NONE', #143, #265, #183, .T. ) ;
#231 = DIRECTION ( 'NONE',  ( 0.000000000000000000, 0.000000000000000000, -1.000000000000000000 ) ) ;
#232 = AXIS2_PLACEMENT_3D ( 'NONE', #11, #260, #4 ) ;
#233 = ORIENTED_EDGE ( 'NONE', *, *, #101, .F. ) ;
#234 = PRESENTATION_STYLE_ASSIGNMENT (( #325 ) ) ;
#235 = CARTESIAN_POINT ( 'NONE',  ( 0.000000000000000000, 1.000000000000000000, -6.000000000000000000 ) ) ;
#236 = FACE_OUTER_BOUND ( 'NONE', #52, .T. ) ;
#237 = PRESENTATION_LAYER_ASSIGNMENT (  '', '', ( #29 ) ) ;
#238 = FILL_AREA_STYLE_COLOUR ( '', #94 ) ;
#239 = DIRECTION ( 'NONE',  ( 1.560495851798313744E-17, 1.000000000000000000, -0.000000000000000000 ) ) ;
#240 = DIRECTION ( 'NONE',  ( -1.000000000000000000, 0.000000000000000000, 0.000000000000000000 ) ) ;
#241 = PRESENTATION_STYLE_ASSIGNMENT (( #368 ) ) ;
#242 =( GEOMETRIC_REPRESENTATION_CONTEXT ( 3 ) GLOBAL_UNCERTAINTY_ASSIGNED_CONTEXT ( ( #60 ) ) GLOBAL_UNIT_ASSIGNED_CONTEXT ( ( #148, #43, #294 ) ) REPRESENTATION_CONTEXT ( 'NONE', 'WORKASPACE' ) );
#243 = CARTESIAN_POINT ( 'NONE',  ( 7.347880794884118750E-16, 1.000000000000000000, 6.000000000000000000 ) ) ;
#244 = FILL_AREA_STYLE ('',( #332 ) ) ;
#245 = SURFACE_STYLE_USAGE ( .BOTH. , #132 ) ;
#246 = DIRECTION ( 'NONE',  ( 0.000000000000000000, 0.000000000000000000, -1.000000000000000000 ) ) ;
#247 = SURFACE_STYLE_USAGE ( .BOTH. , #363 ) ;
#248 = DIRECTION ( 'NONE',  ( 0.000000000000000000, 0.000000000000000000, -1.000000000000000000 ) ) ;
#249 = COLOUR_RGB ( '',1.000000000000000000, 0.000000000000000000, 0.000000000000000000 ) ;
#250 = VERTEX_POINT ( 'NONE', #289 ) ;
#251 = UNCERTAINTY_MEASURE_WITH_UNIT (LENGTH_MEASURE( 1.000000000000000082E-05 ), #173, 'distance_accuracy_value', 'NONE');
#252 = ORIENTED_EDGE ( 'NONE', *, *, #96, .F. ) ;
#253 = ORIENTED_EDGE ( 'NONE', *, *, #14, .T. ) ;
#254 = APPLICATION_PROTOCOL_DEFINITION ( 'draft international standard', 'automotive_design', 1998, #196 ) ;
#255 = PRESENTATION_LAYER_ASSIGNMENT (  '', '', ( #65 ) ) ;
#256 = ORIENTED_EDGE ( 'NONE', *, *, #141, .T. ) ;
#257 = ORIENTED_EDGE ( 'NONE', *, *, #293, .F. ) ;
#258 = AXIS2_PLACEMENT_3D ( 'NONE', #91, #277, #331 ) ;
#259 =( NAMED_UNIT ( * ) SI_UNIT ( $, .STERADIAN. ) SOLID_ANGLE_UNIT ( ) );
#260 = DIRECTION ( 'NONE',  ( 1.560495851798313744E-17, 1.000000000000000000, -0.000000000000000000 ) ) ;
#261 = DIRECTION ( 'NONE',  ( 0.000000000000000000, 0.000000000000000000, 1.000000000000000000 ) ) ;
#262 = COLOUR_RGB ( '',1.000000000000000000, 0.000000000000000000, 0.000000000000000000 ) ;
#263 = VECTOR ( 'NONE', #26, 1000.000000000000000 ) ;
#264 = FILL_AREA_STYLE_COLOUR ( '', #31 ) ;
#265 = VERTEX_POINT ( 'NONE', #3 ) ;
#266 = DIRECTION ( 'NONE',  ( 1.560495851798313744E-17, 1.000000000000000000, -0.000000000000000000 ) ) ;
#267 = PRODUCT_DEFINITION_CONTEXT ( 'detailed design', #84, 'design' ) ;
#268 = PLANE ( 'NONE',  #301 ) ;
#269 = FILL_AREA_STYLE ('',( #175 ) ) ;
#270 = DIRECTION ( 'NONE',  ( 1.560495851798313744E-17, 1.000000000000000000, -0.000000000000000000 ) ) ;
#271 = DIRECTION ( 'NONE',  ( 0.000000000000000000, 0.000000000000000000, -1.000000000000000000 ) ) ;
#272 = CARTESIAN_POINT ( 'NONE',  ( 6.123233995736762930E-15, 75.00000000000000000, 0.000000000000000000 ) ) ;
#273 = DIRECTION ( 'NONE',  ( -0.000000000000000000, -1.000000000000000000, -0.000000000000000000 ) ) ;
#274 =( LENGTH_UNIT ( ) NAMED_UNIT ( * ) SI_UNIT ( .MILLI., .METRE. ) );
#275 = ADVANCED_FACE ( 'NONE', ( #78 ), #198, .T. ) ;
#276 = DIRECTION ( 'NONE',  ( -0.000000000000000000, -1.000000000000000000, -0.000000000000000000 ) ) ;
#277 = DIRECTION ( 'NONE',  ( -1.560495851798313744E-17, -1.000000000000000000, 0.000000000000000000 ) ) ;
#278 =( LENGTH_UNIT ( ) NAMED_UNIT ( * ) SI_UNIT ( .MILLI., .METRE. ) );
#279 = EDGE_LOOP ( 'NONE', ( #257, #199, #338, #224 ) ) ;
#280 = LINE ( 'NONE', #221, #263 ) ;
#281 = TOROIDAL_SURFACE ( 'NONE', #25, 5.000000000000000000, 0.9999999999999995559 ) ;
#282 = ORIENTED_EDGE ( 'NONE', *, *, #369, .T. ) ;
#283 =( NAMED_UNIT ( * ) SI_UNIT ( $, .STERADIAN. ) SOLID_ANGLE_UNIT ( ) );
#284 = CARTESIAN_POINT ( 'NONE',  ( -5.999999999999988454, 75.00000000000000000, 0.000000000000000000 ) ) ;
#285 = UNCERTAINTY_MEASURE_WITH_UNIT (LENGTH_MEASURE( 1.000000000000000082E-05 ), #19, 'distance_accuracy_value', 'NONE');
#286 = MECHANICAL_DESIGN_GEOMETRIC_PRESENTATION_REPRESENTATION (  '', ( #209 ), #119 ) ;
#287 = ADVANCED_FACE ( 'NONE', ( #117 ), #347, .T. ) ;
#288 = VERTEX_POINT ( 'NONE', #235 ) ;
#289 = CARTESIAN_POINT ( 'NONE',  ( 6.000000000000000000, 75.00000000000000000, 7.347880794884112834E-16 ) ) ;
#290 = COLOUR_RGB ( '',1.000000000000000000, 0.000000000000000000, 0.000000000000000000 ) ;
#291 = ORIENTED_EDGE ( 'NONE', *, *, #35, .F. ) ;
#292 = EDGE_LOOP ( 'NONE', ( #222, #187 ) ) ;
#293 = EDGE_CURVE ( 'NONE', #103, #297, #162, .T. ) ;
#294 =( NAMED_UNIT ( * ) SI_UNIT ( $, .STERADIAN. ) SOLID_ANGLE_UNIT ( ) );
#295 = EDGE_LOOP ( 'NONE', ( #315, #365, #85, #27 ) ) ;
#296 = ADVANCED_BREP_SHAPE_REPRESENTATION ( '59777', ( #88, #219, #367 ), #343 ) ;
#297 = VERTEX_POINT ( 'NONE', #118 ) ;
#298 = DIRECTION ( 'NONE',  ( -0.000000000000000000, -1.000000000000000000, -0.000000000000000000 ) ) ;
#299 = LINE ( 'NONE', #149, #161 ) ;
#300 = CARTESIAN_POINT ( 'NONE',  ( 5.421010862427522170E-15, 30.00000000000000000, 0.000000000000000000 ) ) ;
#301 = AXIS2_PLACEMENT_3D ( 'NONE', #131, #214, #311 ) ;
#302 = SURFACE_SIDE_STYLE ('',( #352 ) ) ;
#303 = PRESENTATION_STYLE_ASSIGNMENT (( #247 ) ) ;
#304 = EDGE_CURVE ( 'NONE', #288, #103, #364, .T. ) ;
#305 = DIRECTION ( 'NONE',  ( 1.560495851798313744E-17, 1.000000000000000000, -0.000000000000000000 ) ) ;
#306 = CYLINDRICAL_SURFACE ( 'NONE', #201, 5.999999999999994671 ) ;
#307 = CARTESIAN_POINT ( 'NONE',  ( 0.000000000000000000, 1.000000000000000000, 0.000000000000000000 ) ) ;
#308 =( GEOMETRIC_REPRESENTATION_CONTEXT ( 3 ) GLOBAL_UNCERTAINTY_ASSIGNED_CONTEXT ( ( #345 ) ) GLOBAL_UNIT_ASSIGNED_CONTEXT ( ( #188, #106, #259 ) ) REPRESENTATION_CONTEXT ( 'NONE', 'WORKASPACE' ) );
#309 = SURFACE_STYLE_FILL_AREA ( #244 ) ;
#310 = SURFACE_STYLE_USAGE ( .BOTH. , #24 ) ;
#311 = DIRECTION ( 'NONE',  ( 0.000000000000000000, -0.000000000000000000, 1.000000000000000000 ) ) ;
#312 = FILL_AREA_STYLE ('',( #128 ) ) ;
#313 = AXIS2_PLACEMENT_3D ( 'NONE', #8, #349, #59 ) ;
#314 = CARTESIAN_POINT ( 'NONE',  ( 0.000000000000000000, 1.000000000000000000, -5.000000000000000000 ) ) ;
#315 = ORIENTED_EDGE ( 'NONE', *, *, #133, .T. ) ;
#316 = MECHANICAL_DESIGN_GEOMETRIC_PRESENTATION_REPRESENTATION (  '', ( #65 ), #308 ) ;
#317 = ORIENTED_EDGE ( 'NONE', *, *, #108, .T. ) ;
#318 = PRESENTATION_LAYER_ASSIGNMENT (  '', '', ( #61 ) ) ;
#319 = MECHANICAL_DESIGN_GEOMETRIC_PRESENTATION_REPRESENTATION (  '', ( #181 ), #86 ) ;
#320 = ADVANCED_FACE ( 'NONE', ( #41 ), #268, .T. ) ;
#321 = EDGE_LOOP ( 'NONE', ( #253, #282, #192, #81 ) ) ;
#322 = UNCERTAINTY_MEASURE_WITH_UNIT (LENGTH_MEASURE( 1.000000000000000082E-05 ), #57, 'distance_accuracy_value', 'NONE');
#323 = DIRECTION ( 'NONE',  ( 0.000000000000000000, 0.000000000000000000, -1.000000000000000000 ) ) ;
#324 = ORIENTED_EDGE ( 'NONE', *, *, #304, .T. ) ;
#325 = SURFACE_STYLE_USAGE ( .BOTH. , #40 ) ;
#326 = PRESENTATION_LAYER_ASSIGNMENT (  '', '', ( #216 ) ) ;
#327 = CIRCLE ( 'NONE', #155, 1.000000000000000000 ) ;
#328 = ORIENTED_EDGE ( 'NONE', *, *, #147, .T. ) ;
#329 = FILL_AREA_STYLE_COLOUR ( '', #249 ) ;
#330 = CARTESIAN_POINT ( 'NONE',  ( 0.000000000000000000, 0.000000000000000000, 0.000000000000000000 ) ) ;
#331 = DIRECTION ( 'NONE',  ( 1.000000000000000000, -1.560495851798313744E-17, 0.000000000000000000 ) ) ;
#332 = FILL_AREA_STYLE_COLOUR ( '', #290 ) ;
#333 =( NAMED_UNIT ( * ) PLANE_ANGLE_UNIT ( ) SI_UNIT ( $, .RADIAN. ) );
#334 = COLOUR_RGB ( '',0.7921568627450980005, 0.8196078431372548767, 0.9333333333333333481 ) ;
#335 = LINE ( 'NONE', #21, #105 ) ;
#336 = PRESENTATION_LAYER_ASSIGNMENT (  '', '', ( #189 ) ) ;
#337 = CARTESIAN_POINT ( 'NONE',  ( 0.000000000000000000, 0.000000000000000000, -5.000000000000000000 ) ) ;
#338 = ORIENTED_EDGE ( 'NONE', *, *, #353, .T. ) ;
#339 =( NAMED_UNIT ( * ) SI_UNIT ( $, .STERADIAN. ) SOLID_ANGLE_UNIT ( ) );
#340 = CARTESIAN_POINT ( 'NONE',  ( 0.000000000000000000, 0.000000000000000000, 0.000000000000000000 ) ) ;
#341 = PRODUCT_DEFINITION ( 'UNKNOWN', '', #30, #267 ) ;
#342 = ORIENTED_EDGE ( 'NONE', *, *, #101, .T. ) ;
#343 =( GEOMETRIC_REPRESENTATION_CONTEXT ( 3 ) GLOBAL_UNCERTAINTY_ASSIGNED_CONTEXT ( ( #322 ) ) GLOBAL_UNIT_ASSIGNED_CONTEXT ( ( #57, #225, #283 ) ) REPRESENTATION_CONTEXT ( 'NONE', 'WORKASPACE' ) );
#344 = ADVANCED_FACE ( 'NONE', ( #137 ), #281, .T. ) ;
#345 = UNCERTAINTY_MEASURE_WITH_UNIT (LENGTH_MEASURE( 1.000000000000000082E-05 ), #188, 'distance_accuracy_value', 'NONE');
#346 = SURFACE_SIDE_STYLE ('',( #116 ) ) ;
#347 = CYLINDRICAL_SURFACE ( 'NONE', #107, 5.999999999999994671 ) ;
#348 = PRODUCT ( '59777', '59777', '', ( #80 ) ) ;
#349 = DIRECTION ( 'NONE',  ( 1.560495851798313744E-17, 1.000000000000000000, -0.000000000000000000 ) ) ;
#350 = EDGE_CURVE ( 'NONE', #217, #297, #129, .T. ) ;
#351 = FILL_AREA_STYLE ('',( #264 ) ) ;
#352 = SURFACE_STYLE_FILL_AREA ( #269 ) ;
#353 = EDGE_CURVE ( 'NONE', #288, #217, #327, .T. ) ;
#354 = DIRECTION ( 'NONE',  ( -1.000000000000000000, 1.560495851798313744E-17, 0.000000000000000000 ) ) ;
#355 =( LENGTH_UNIT ( ) NAMED_UNIT ( * ) SI_UNIT ( .MILLI., .METRE. ) );
#356 = PRESENTATION_STYLE_ASSIGNMENT (( #44 ) ) ;
#357 = VECTOR ( 'NONE', #228, 1000.000000000000000 ) ;
#358 = DIRECTION ( 'NONE',  ( 0.000000000000000000, 0.000000000000000000, -1.000000000000000000 ) ) ;
#359 = CARTESIAN_POINT ( 'NONE',  ( 0.000000000000000000, 30.00000000000000000, 0.000000000000000000 ) ) ;
#360 = PRESENTATION_STYLE_ASSIGNMENT (( #98 ) ) ;
#361 = AXIS2_PLACEMENT_3D ( 'NONE', #330, #210, #271 ) ;
#362 = PLANE ( 'NONE',  #258 ) ;
#363 = SURFACE_SIDE_STYLE ('',( #182 ) ) ;
#364 = CIRCLE ( 'NONE', #1, 6.000000000000000000 ) ;
#365 = ORIENTED_EDGE ( 'NONE', *, *, #76, .T. ) ;
#366 = DIRECTION ( 'NONE',  ( -0.000000000000000000, -1.000000000000000000, -0.000000000000000000 ) ) ;
#367 = AXIS2_PLACEMENT_3D ( 'NONE', #164, #261, #168 ) ;
#368 = SURFACE_STYLE_USAGE ( .BOTH. , #97 ) ;
#369 = EDGE_CURVE ( 'NONE', #136, #250, #280, .T. ) ;
#370 = ORIENTED_EDGE ( 'NONE', *, *, #35, .T. ) ;
ENDSEC;
END-ISO-10303-21;
