ISO-10303-21;
HEADER;
FILE_DESCRIPTION (( 'STEP AP214' ),
    '1' );
FILE_NAME ('59736.STEP',
    '2023-07-24T15:31:09',
    ( '' ),
    ( '' ),
    'SwSTEP 2.0',
    'SolidWorks 2023',
    '' );
FILE_SCHEMA (( 'AUTOMOTIVE_DESIGN' ));
ENDSEC;

DATA;
#1 = PLANE ( 'NONE',  #117 ) ;
#2 = SHAPE_DEFINITION_REPRESENTATION ( #269, #230 ) ;
#3 = EDGE_LOOP ( 'NONE', ( #328, #299, #302, #325 ) ) ;
#4 = EDGE_CURVE ( 'NONE', #36, #347, #32, .T. ) ;
#5 = SURFACE_SIDE_STYLE ('',( #303 ) ) ;
#6 = FACE_OUTER_BOUND ( 'NONE', #156, .T. ) ;
#7 = MECHANICAL_DESIGN_GEOMETRIC_PRESENTATION_REPRESENTATION (  '', ( #162 ), #339 ) ;
#8 =( NAMED_UNIT ( * ) PLANE_ANGLE_UNIT ( ) SI_UNIT ( $, .RADIAN. ) );
#9 = ORIENTED_EDGE ( 'NONE', *, *, #336, .F. ) ;
#10 = CARTESIAN_POINT ( 'NONE',  ( 0.000000000000000000, 0.000000000000000000, 0.000000000000000000 ) ) ;
#11 = CARTESIAN_POINT ( 'NONE',  ( 0.000000000000000000, 16.00000000000000000, -4.000000000000000000 ) ) ;
#12 = DIRECTION ( 'NONE',  ( 0.000000000000000000, 0.000000000000000000, -1.000000000000000000 ) ) ;
#13 = EDGE_LOOP ( 'NONE', ( #368, #186, #74, #259 ) ) ;
#14 =( NAMED_UNIT ( * ) SI_UNIT ( $, .STERADIAN. ) SOLID_ANGLE_UNIT ( ) );
#15 = DIRECTION ( 'NONE',  ( -5.682149050294907483E-17, 1.000000000000000000, -0.000000000000000000 ) ) ;
#16 = STYLED_ITEM ( 'NONE', ( #342 ), #341 ) ;
#17 = ORIENTED_EDGE ( 'NONE', *, *, #163, .T. ) ;
#18 = PRESENTATION_LAYER_ASSIGNMENT (  '', '', ( #294 ) ) ;
#19 = AXIS2_PLACEMENT_3D ( 'NONE', #340, #293, #113 ) ;
#20 = SURFACE_STYLE_FILL_AREA ( #261 ) ;
#21 = PRESENTATION_LAYER_ASSIGNMENT (  '', '', ( #305 ) ) ;
#22 =( GEOMETRIC_REPRESENTATION_CONTEXT ( 3 ) GLOBAL_UNCERTAINTY_ASSIGNED_CONTEXT ( ( #198 ) ) GLOBAL_UNIT_ASSIGNED_CONTEXT ( ( #57, #86, #146 ) ) REPRESENTATION_CONTEXT ( 'NONE', 'WORKASPACE' ) );
#23 = SURFACE_SIDE_STYLE ('',( #312 ) ) ;
#24 = CARTESIAN_POINT ( 'NONE',  ( 4.000000000000000000, 16.00000000000000000, 4.898587196589407898E-16 ) ) ;
#25 = DIRECTION ( 'NONE',  ( -1.000000000000000000, 0.000000000000000000, 0.000000000000000000 ) ) ;
#26 = FACE_OUTER_BOUND ( 'NONE', #103, .T. ) ;
#27 = CARTESIAN_POINT ( 'NONE',  ( 0.000000000000000000, 0.000000000000000000, 0.000000000000000000 ) ) ;
#28 = EDGE_CURVE ( 'NONE', #247, #39, #351, .T. ) ;
#29 = ORIENTED_EDGE ( 'NONE', *, *, #90, .F. ) ;
#30 = CARTESIAN_POINT ( 'NONE',  ( 4.898587196589412829E-16, 16.00000000000000000, 4.000000000000000000 ) ) ;
#31 =( NAMED_UNIT ( * ) SI_UNIT ( $, .STERADIAN. ) SOLID_ANGLE_UNIT ( ) );
#32 = LINE ( 'NONE', #244, #110 ) ;
#33 = CARTESIAN_POINT ( 'NONE',  ( 5.854691731421723944E-15, 16.00000000000000000, 0.000000000000000000 ) ) ;
#34 = CIRCLE ( 'NONE', #209, 3.000000000000000000 ) ;
#35 = COLOUR_RGB ( '',1.000000000000000000, 0.000000000000000000, 0.000000000000000000 ) ;
#36 = VERTEX_POINT ( 'NONE', #11 ) ;
#37 = CARTESIAN_POINT ( 'NONE',  ( 3.999999999999998224, 63.00000000000000000, 4.898587196589406912E-16 ) ) ;
#38 = PRODUCT ( '59736', '59736', '', ( #148 ) ) ;
#39 = VERTEX_POINT ( 'NONE', #128 ) ;
#40 = ORIENTED_EDGE ( 'NONE', *, *, #90, .T. ) ;
#41 = MECHANICAL_DESIGN_GEOMETRIC_PRESENTATION_REPRESENTATION (  '', ( #58 ), #334 ) ;
#42 = AXIS2_PLACEMENT_3D ( 'NONE', #52, #286, #338 ) ;
#43 = ADVANCED_FACE ( 'NONE', ( #216 ), #354, .T. ) ;
#44 = UNCERTAINTY_MEASURE_WITH_UNIT (LENGTH_MEASURE( 1.000000000000000082E-05 ), #129, 'distance_accuracy_value', 'NONE');
#45 = PRODUCT_RELATED_PRODUCT_CATEGORY ( 'part', '', ( #38 ) ) ;
#46 = MECHANICAL_DESIGN_GEOMETRIC_PRESENTATION_REPRESENTATION (  '', ( #305 ), #66 ) ;
#47 = DIRECTION ( 'NONE',  ( -0.000000000000000000, -1.000000000000000000, -0.000000000000000000 ) ) ;
#48 = CIRCLE ( 'NONE', #270, 3.999999999999996447 ) ;
#49 =( LENGTH_UNIT ( ) NAMED_UNIT ( * ) SI_UNIT ( .MILLI., .METRE. ) );
#50 = PRESENTATION_STYLE_ASSIGNMENT (( #332 ) ) ;
#51 = EDGE_CURVE ( 'NONE', #132, #347, #323, .T. ) ;
#52 = CARTESIAN_POINT ( 'NONE',  ( 0.000000000000000000, 0.000000000000000000, 0.000000000000000000 ) ) ;
#53 = CLOSED_SHELL ( 'NONE', ( #282, #188, #81, #361 ) ) ;
#54 = CIRCLE ( 'NONE', #203, 3.000000000000000000 ) ;
#55 = DIRECTION ( 'NONE',  ( -0.000000000000000000, -1.000000000000000000, -0.000000000000000000 ) ) ;
#56 = LINE ( 'NONE', #345, #237 ) ;
#57 =( LENGTH_UNIT ( ) NAMED_UNIT ( * ) SI_UNIT ( .MILLI., .METRE. ) );
#58 = STYLED_ITEM ( 'NONE', ( #220 ), #252 ) ;
#59 = CIRCLE ( 'NONE', #181, 1.000000000000000000 ) ;
#60 = DIRECTION ( 'NONE',  ( -0.000000000000000000, -1.000000000000000000, -0.000000000000000000 ) ) ;
#61 = CYLINDRICAL_SURFACE ( 'NONE', #80, 3.999999999999994671 ) ;
#62 = SURFACE_SIDE_STYLE ('',( #165 ) ) ;
#63 = FILL_AREA_STYLE_COLOUR ( '', #227 ) ;
#64 = ORIENTED_EDGE ( 'NONE', *, *, #4, .T. ) ;
#65 =( LENGTH_UNIT ( ) NAMED_UNIT ( * ) SI_UNIT ( .MILLI., .METRE. ) );
#66 =( GEOMETRIC_REPRESENTATION_CONTEXT ( 3 ) GLOBAL_UNCERTAINTY_ASSIGNED_CONTEXT ( ( #362 ) ) GLOBAL_UNIT_ASSIGNED_CONTEXT ( ( #285, #225, #192 ) ) REPRESENTATION_CONTEXT ( 'NONE', 'WORKASPACE' ) );
#67 = CIRCLE ( 'NONE', #370, 4.000000000000000000 ) ;
#68 = STYLED_ITEM ( 'NONE', ( #88 ), #291 ) ;
#69 = SURFACE_STYLE_FILL_AREA ( #245 ) ;
#70 = FILL_AREA_STYLE ('',( #219 ) ) ;
#71 = DIRECTION ( 'NONE',  ( -5.682149050294907483E-17, 1.000000000000000000, -0.000000000000000000 ) ) ;
#72 = ORIENTED_EDGE ( 'NONE', *, *, #144, .F. ) ;
#73 = FACE_OUTER_BOUND ( 'NONE', #250, .T. ) ;
#74 = ORIENTED_EDGE ( 'NONE', *, *, #130, .T. ) ;
#75 = EDGE_CURVE ( 'NONE', #112, #213, #34, .T. ) ;
#76 = PRESENTATION_LAYER_ASSIGNMENT (  '', '', ( #99 ) ) ;
#77 = CARTESIAN_POINT ( 'NONE',  ( 0.000000000000000000, 16.00000000000000000, 0.000000000000000000 ) ) ;
#78 = PRODUCT_DEFINITION_CONTEXT ( 'detailed design', #206, 'design' ) ;
#79 = CARTESIAN_POINT ( 'NONE',  ( 5.854691731421723944E-15, 16.00000000000000000, 0.000000000000000000 ) ) ;
#80 = AXIS2_PLACEMENT_3D ( 'NONE', #127, #15, #97 ) ;
#81 = ADVANCED_FACE ( 'NONE', ( #322 ), #61, .T. ) ;
#82 =( LENGTH_UNIT ( ) NAMED_UNIT ( * ) SI_UNIT ( .MILLI., .METRE. ) );
#83 = DIRECTION ( 'NONE',  ( 1.000000000000000000, 0.000000000000000000, -1.224646799147353207E-16 ) ) ;
#84 = SURFACE_STYLE_FILL_AREA ( #316 ) ;
#85 =( GEOMETRIC_REPRESENTATION_CONTEXT ( 3 ) GLOBAL_UNCERTAINTY_ASSIGNED_CONTEXT ( ( #253 ) ) GLOBAL_UNIT_ASSIGNED_CONTEXT ( ( #212, #243, #157 ) ) REPRESENTATION_CONTEXT ( 'NONE', 'WORKASPACE' ) );
#86 =( NAMED_UNIT ( * ) PLANE_ANGLE_UNIT ( ) SI_UNIT ( $, .RADIAN. ) );
#87 = SURFACE_SIDE_STYLE ('',( #69 ) ) ;
#88 = PRESENTATION_STYLE_ASSIGNMENT (( #174 ) ) ;
#89 = DIRECTION ( 'NONE',  ( -1.000000000000000000, 0.000000000000000000, 0.000000000000000000 ) ) ;
#90 = EDGE_CURVE ( 'NONE', #213, #112, #54, .T. ) ;
#91 = DIRECTION ( 'NONE',  ( 0.000000000000000000, 0.000000000000000000, -1.000000000000000000 ) ) ;
#92 = ORIENTED_EDGE ( 'NONE', *, *, #313, .T. ) ;
#93 = CARTESIAN_POINT ( 'NONE',  ( 0.000000000000000000, 16.00000000000000000, 0.000000000000000000 ) ) ;
#94 = DIRECTION ( 'NONE',  ( 0.000000000000000000, 0.000000000000000000, 1.000000000000000000 ) ) ;
#95 = CARTESIAN_POINT ( 'NONE',  ( -3.999999999999991562, 63.00000000000000000, 0.000000000000000000 ) ) ;
#96 = PRESENTATION_STYLE_ASSIGNMENT (( #352 ) ) ;
#97 = DIRECTION ( 'NONE',  ( -1.000000000000000000, 0.000000000000000000, 0.000000000000000000 ) ) ;
#98 = EDGE_LOOP ( 'NONE', ( #241, #137, #64, #153 ) ) ;
#99 = STYLED_ITEM ( 'NONE', ( #96 ), #260 ) ;
#100 = SURFACE_STYLE_FILL_AREA ( #70 ) ;
#101 =( NAMED_UNIT ( * ) SI_UNIT ( $, .STERADIAN. ) SOLID_ANGLE_UNIT ( ) );
#102 = UNCERTAINTY_MEASURE_WITH_UNIT (LENGTH_MEASURE( 1.000000000000000082E-05 ), #82, 'distance_accuracy_value', 'NONE');
#103 = EDGE_LOOP ( 'NONE', ( #320, #189 ) ) ;
#104 = COLOUR_RGB ( '',1.000000000000000000, 0.000000000000000000, 0.000000000000000000 ) ;
#105 = UNCERTAINTY_MEASURE_WITH_UNIT (LENGTH_MEASURE( 1.000000000000000082E-05 ), #65, 'distance_accuracy_value', 'NONE');
#106 = CIRCLE ( 'NONE', #290, 3.999999999999994227 ) ;
#107 =( NAMED_UNIT ( * ) SI_UNIT ( $, .STERADIAN. ) SOLID_ANGLE_UNIT ( ) );
#108 = ADVANCED_FACE ( 'NONE', ( #131 ), #273, .T. ) ;
#109 = FILL_AREA_STYLE_COLOUR ( '', #35 ) ;
#110 = VECTOR ( 'NONE', #275, 1000.000000000000000 ) ;
#111 = AXIS2_PLACEMENT_3D ( 'NONE', #367, #231, #122 ) ;
#112 = VERTEX_POINT ( 'NONE', #218 ) ;
#113 = DIRECTION ( 'NONE',  ( 0.000000000000000000, 0.000000000000000000, -1.000000000000000000 ) ) ;
#114 = DIRECTION ( 'NONE',  ( 0.000000000000000000, 0.000000000000000000, -1.000000000000000000 ) ) ;
#115 =( NAMED_UNIT ( * ) SI_UNIT ( $, .STERADIAN. ) SOLID_ANGLE_UNIT ( ) );
#116 = CIRCLE ( 'NONE', #221, 4.000000000000000000 ) ;
#117 = AXIS2_PLACEMENT_3D ( 'NONE', #264, #348, #263 ) ;
#118 = DIRECTION ( 'NONE',  ( 1.000000000000000000, 0.000000000000000000, 0.000000000000000000 ) ) ;
#119 = EDGE_CURVE ( 'NONE', #161, #318, #182, .T. ) ;
#120 = MANIFOLD_SOLID_BREP ( 'Revolve - Cutting Edge', #179 ) ;
#121 = ORIENTED_EDGE ( 'NONE', *, *, #163, .F. ) ;
#122 = DIRECTION ( 'NONE',  ( -1.000000000000000000, -5.682149050294907483E-17, 0.000000000000000000 ) ) ;
#123 = TOROIDAL_SURFACE ( 'NONE', #19, 3.000000000000000000, 1.000000000000000000 ) ;
#124 = FILL_AREA_STYLE_COLOUR ( '', #255 ) ;
#125 = ORIENTED_EDGE ( 'NONE', *, *, #75, .T. ) ;
#126 = SURFACE_SIDE_STYLE ('',( #133 ) ) ;
#127 = CARTESIAN_POINT ( 'NONE',  ( 3.184081677783117402E-15, 63.00000000000000000, 0.000000000000000000 ) ) ;
#128 = CARTESIAN_POINT ( 'NONE',  ( -3.999999999999993339, 63.00000000000000000, 0.000000000000000000 ) ) ;
#129 =( LENGTH_UNIT ( ) NAMED_UNIT ( * ) SI_UNIT ( .MILLI., .METRE. ) );
#130 = EDGE_CURVE ( 'NONE', #347, #213, #262, .T. ) ;
#131 = FACE_OUTER_BOUND ( 'NONE', #271, .T. ) ;
#132 = VERTEX_POINT ( 'NONE', #369 ) ;
#133 = SURFACE_STYLE_FILL_AREA ( #280 ) ;
#134 = VECTOR ( 'NONE', #277, 1000.000000000000000 ) ;
#135 = AXIS2_PLACEMENT_3D ( 'NONE', #93, #300, #355 ) ;
#136 = CARTESIAN_POINT ( 'NONE',  ( 0.000000000000000000, 0.000000000000000000, 0.000000000000000000 ) ) ;
#137 = ORIENTED_EDGE ( 'NONE', *, *, #211, .T. ) ;
#138 = DIRECTION ( 'NONE',  ( -0.000000000000000000, -1.000000000000000000, -0.000000000000000000 ) ) ;
#139 = AXIS2_PLACEMENT_3D ( 'NONE', #191, #155, #307 ) ;
#140 = SURFACE_SIDE_STYLE ('',( #84 ) ) ;
#141 = CARTESIAN_POINT ( 'NONE',  ( 4.000000000000000000, 63.00000000000000000, 4.898587196589407898E-16 ) ) ;
#142 = PLANE ( 'NONE',  #111 ) ;
#143 = CIRCLE ( 'NONE', #135, 4.000000000000000000 ) ;
#144 = EDGE_CURVE ( 'NONE', #36, #233, #67, .T. ) ;
#145 = DIRECTION ( 'NONE',  ( -1.000000000000000000, 0.000000000000000000, 0.000000000000000000 ) ) ;
#146 =( NAMED_UNIT ( * ) SI_UNIT ( $, .STERADIAN. ) SOLID_ANGLE_UNIT ( ) );
#147 = MECHANICAL_DESIGN_GEOMETRIC_PRESENTATION_REPRESENTATION (  '', ( #346 ), #190 ) ;
#148 = PRODUCT_CONTEXT ( 'NONE', #223, 'mechanical' ) ;
#149 =( LENGTH_UNIT ( ) NAMED_UNIT ( * ) SI_UNIT ( .MILLI., .METRE. ) );
#150 = EDGE_LOOP ( 'NONE', ( #222, #178, #121, #296 ) ) ;
#151 = CARTESIAN_POINT ( 'NONE',  ( -3.999999999999988010, 16.00000000000000000, 0.000000000000000000 ) ) ;
#152 = APPLICATION_PROTOCOL_DEFINITION ( 'draft international standard', 'automotive_design', 1998, #223 ) ;
#153 = ORIENTED_EDGE ( 'NONE', *, *, #51, .F. ) ;
#154 =( GEOMETRIC_REPRESENTATION_CONTEXT ( 3 ) GLOBAL_UNCERTAINTY_ASSIGNED_CONTEXT ( ( #201 ) ) GLOBAL_UNIT_ASSIGNED_CONTEXT ( ( #214, #205, #31 ) ) REPRESENTATION_CONTEXT ( 'NONE', 'WORKASPACE' ) );
#155 = DIRECTION ( 'NONE',  ( -5.682149050294907483E-17, 1.000000000000000000, -0.000000000000000000 ) ) ;
#156 = EDGE_LOOP ( 'NONE', ( #9, #304 ) ) ;
#157 =( NAMED_UNIT ( * ) SI_UNIT ( $, .STERADIAN. ) SOLID_ANGLE_UNIT ( ) );
#158 = FACE_OUTER_BOUND ( 'NONE', #3, .T. ) ;
#159 = SURFACE_STYLE_USAGE ( .BOTH. , #184 ) ;
#160 = CARTESIAN_POINT ( 'NONE',  ( 0.000000000000000000, 0.000000000000000000, 0.000000000000000000 ) ) ;
#161 = VERTEX_POINT ( 'NONE', #24 ) ;
#162 = STYLED_ITEM ( 'NONE', ( #268 ), #120 ) ;
#163 = EDGE_CURVE ( 'NONE', #347, #132, #116, .T. ) ;
#164 = PRESENTATION_STYLE_ASSIGNMENT (( #159 ) ) ;
#165 = SURFACE_STYLE_FILL_AREA ( #274 ) ;
#166 = AXIS2_PLACEMENT_3D ( 'NONE', #238, #55, #343 ) ;
#167 = DIRECTION ( 'NONE',  ( -5.682149050294907483E-17, 1.000000000000000000, -0.000000000000000000 ) ) ;
#168 = COLOUR_RGB ( '',0.7921568627450980005, 0.8196078431372548767, 0.9333333333333333481 ) ;
#169 = PRODUCT_DEFINITION_FORMATION_WITH_SPECIFIED_SOURCE ( 'ANY', '', #38, .NOT_KNOWN. ) ;
#170 = SURFACE_STYLE_USAGE ( .BOTH. , #23 ) ;
#171 = EDGE_CURVE ( 'NONE', #39, #318, #48, .T. ) ;
#172 = AXIS2_PLACEMENT_3D ( 'NONE', #33, #71, #248 ) ;
#173 =( GEOMETRIC_REPRESENTATION_CONTEXT ( 3 ) GLOBAL_UNCERTAINTY_ASSIGNED_CONTEXT ( ( #284 ) ) GLOBAL_UNIT_ASSIGNED_CONTEXT ( ( #49, #207, #115 ) ) REPRESENTATION_CONTEXT ( 'NONE', 'WORKASPACE' ) );
#174 = SURFACE_STYLE_USAGE ( .BOTH. , #62 ) ;
#175 = PRESENTATION_STYLE_ASSIGNMENT (( #215 ) ) ;
#176 = ORIENTED_EDGE ( 'NONE', *, *, #119, .F. ) ;
#177 = DIRECTION ( 'NONE',  ( 0.000000000000000000, 0.000000000000000000, -1.000000000000000000 ) ) ;
#178 = ORIENTED_EDGE ( 'NONE', *, *, #349, .T. ) ;
#179 = CLOSED_SHELL ( 'NONE', ( #43, #341, #108, #193, #291, #260 ) ) ;
#180 = CARTESIAN_POINT ( 'NONE',  ( 0.000000000000000000, 0.000000000000000000, -3.000000000000000000 ) ) ;
#181 = AXIS2_PLACEMENT_3D ( 'NONE', #258, #83, #331 ) ;
#182 = LINE ( 'NONE', #37, #329 ) ;
#183 = FACE_OUTER_BOUND ( 'NONE', #98, .T. ) ;
#184 = SURFACE_SIDE_STYLE ('',( #100 ) ) ;
#185 = PLANE ( 'NONE',  #306 ) ;
#186 = ORIENTED_EDGE ( 'NONE', *, *, #51, .T. ) ;
#187 = CARTESIAN_POINT ( 'NONE',  ( 0.000000000000000000, 1.000000000000000000, 0.000000000000000000 ) ) ;
#188 = ADVANCED_FACE ( 'NONE', ( #6 ), #142, .F. ) ;
#189 = ORIENTED_EDGE ( 'NONE', *, *, #197, .T. ) ;
#190 =( GEOMETRIC_REPRESENTATION_CONTEXT ( 3 ) GLOBAL_UNCERTAINTY_ASSIGNED_CONTEXT ( ( #105 ) ) GLOBAL_UNIT_ASSIGNED_CONTEXT ( ( #65, #359, #101 ) ) REPRESENTATION_CONTEXT ( 'NONE', 'WORKASPACE' ) );
#191 = CARTESIAN_POINT ( 'NONE',  ( 3.184081677783117402E-15, 63.00000000000000000, 0.000000000000000000 ) ) ;
#192 =( NAMED_UNIT ( * ) SI_UNIT ( $, .STERADIAN. ) SOLID_ANGLE_UNIT ( ) );
#193 = ADVANCED_FACE ( 'NONE', ( #210 ), #196, .T. ) ;
#194 = CIRCLE ( 'NONE', #240, 3.999999999999996447 ) ;
#195 = FACE_OUTER_BOUND ( 'NONE', #266, .T. ) ;
#196 = TOROIDAL_SURFACE ( 'NONE', #356, 3.000000000000000000, 1.000000000000000000 ) ;
#197 = EDGE_CURVE ( 'NONE', #318, #39, #194, .T. ) ;
#198 = UNCERTAINTY_MEASURE_WITH_UNIT (LENGTH_MEASURE( 1.000000000000000082E-05 ), #57, 'distance_accuracy_value', 'NONE');
#199 =( NAMED_UNIT ( * ) SI_UNIT ( $, .STERADIAN. ) SOLID_ANGLE_UNIT ( ) );
#200 = DIRECTION ( 'NONE',  ( -5.682149050294907483E-17, 1.000000000000000000, -0.000000000000000000 ) ) ;
#201 = UNCERTAINTY_MEASURE_WITH_UNIT (LENGTH_MEASURE( 1.000000000000000082E-05 ), #214, 'distance_accuracy_value', 'NONE');
#202 = DIRECTION ( 'NONE',  ( -0.000000000000000000, -1.000000000000000000, -0.000000000000000000 ) ) ;
#203 = AXIS2_PLACEMENT_3D ( 'NONE', #136, #249, #91 ) ;
#204 = MECHANICAL_DESIGN_GEOMETRIC_PRESENTATION_REPRESENTATION (  '', ( #68 ), #310 ) ;
#205 =( NAMED_UNIT ( * ) PLANE_ANGLE_UNIT ( ) SI_UNIT ( $, .RADIAN. ) );
#206 = APPLICATION_CONTEXT ( 'automotive_design' ) ;
#207 =( NAMED_UNIT ( * ) PLANE_ANGLE_UNIT ( ) SI_UNIT ( $, .RADIAN. ) );
#208 = APPLICATION_PROTOCOL_DEFINITION ( 'draft international standard', 'automotive_design', 1998, #206 ) ;
#209 = AXIS2_PLACEMENT_3D ( 'NONE', #160, #350, #301 ) ;
#210 = FACE_OUTER_BOUND ( 'NONE', #13, .T. ) ;
#211 = EDGE_CURVE ( 'NONE', #233, #36, #143, .T. ) ;
#212 =( LENGTH_UNIT ( ) NAMED_UNIT ( * ) SI_UNIT ( .MILLI., .METRE. ) );
#213 = VERTEX_POINT ( 'NONE', #180 ) ;
#214 =( LENGTH_UNIT ( ) NAMED_UNIT ( * ) SI_UNIT ( .MILLI., .METRE. ) );
#215 = SURFACE_STYLE_USAGE ( .BOTH. , #87 ) ;
#216 = FACE_OUTER_BOUND ( 'NONE', #150, .T. ) ;
#217 = FILL_AREA_STYLE ('',( #63 ) ) ;
#218 = CARTESIAN_POINT ( 'NONE',  ( 4.286263797015736595E-16, 0.000000000000000000, 3.000000000000000000 ) ) ;
#219 = FILL_AREA_STYLE_COLOUR ( '', #344 ) ;
#220 = PRESENTATION_STYLE_ASSIGNMENT (( #267 ) ) ;
#221 = AXIS2_PLACEMENT_3D ( 'NONE', #335, #202, #235 ) ;
#222 = ORIENTED_EDGE ( 'NONE', *, *, #144, .T. ) ;
#223 = APPLICATION_CONTEXT ( 'automotive_design' ) ;
#224 = ORIENTED_EDGE ( 'NONE', *, *, #211, .F. ) ;
#225 =( NAMED_UNIT ( * ) PLANE_ANGLE_UNIT ( ) SI_UNIT ( $, .RADIAN. ) );
#226 = COLOUR_RGB ( '',1.000000000000000000, 0.000000000000000000, 0.000000000000000000 ) ;
#227 = COLOUR_RGB ( '',0.7921568627450980005, 0.8196078431372548767, 0.9333333333333333481 ) ;
#228 = MECHANICAL_DESIGN_GEOMETRIC_PRESENTATION_REPRESENTATION (  '', ( #16 ), #154 ) ;
#229 = EDGE_CURVE ( 'NONE', #161, #247, #333, .T. ) ;
#230 = ADVANCED_BREP_SHAPE_REPRESENTATION ( '59736', ( #120, #252, #364 ), #22 ) ;
#231 = DIRECTION ( 'NONE',  ( -5.682149050294907483E-17, 1.000000000000000000, 0.000000000000000000 ) ) ;
#232 = FILL_AREA_STYLE_COLOUR ( '', #168 ) ;
#233 = VERTEX_POINT ( 'NONE', #30 ) ;
#234 = DIRECTION ( 'NONE',  ( 0.000000000000000000, 0.000000000000000000, 1.000000000000000000 ) ) ;
#235 = DIRECTION ( 'NONE',  ( 0.000000000000000000, 0.000000000000000000, -1.000000000000000000 ) ) ;
#236 = MECHANICAL_DESIGN_GEOMETRIC_PRESENTATION_REPRESENTATION (  '', ( #294 ), #85 ) ;
#237 = VECTOR ( 'NONE', #60, 1000.000000000000000 ) ;
#238 = CARTESIAN_POINT ( 'NONE',  ( 0.000000000000000000, 1.000000000000000000, 0.000000000000000000 ) ) ;
#239 = DIRECTION ( 'NONE',  ( 0.000000000000000000, 1.000000000000000000, 0.000000000000000000 ) ) ;
#240 = AXIS2_PLACEMENT_3D ( 'NONE', #242, #321, #295 ) ;
#241 = ORIENTED_EDGE ( 'NONE', *, *, #349, .F. ) ;
#242 = CARTESIAN_POINT ( 'NONE',  ( 3.184081677783117402E-15, 63.00000000000000000, 0.000000000000000000 ) ) ;
#243 =( NAMED_UNIT ( * ) PLANE_ANGLE_UNIT ( ) SI_UNIT ( $, .RADIAN. ) );
#244 = CARTESIAN_POINT ( 'NONE',  ( 0.000000000000000000, 0.000000000000000000, -4.000000000000000000 ) ) ;
#245 = FILL_AREA_STYLE ('',( #124 ) ) ;
#246 = FILL_AREA_STYLE_COLOUR ( '', #226 ) ;
#247 = VERTEX_POINT ( 'NONE', #151 ) ;
#248 = DIRECTION ( 'NONE',  ( -1.000000000000000000, 0.000000000000000000, 0.000000000000000000 ) ) ;
#249 = DIRECTION ( 'NONE',  ( -0.000000000000000000, -1.000000000000000000, -0.000000000000000000 ) ) ;
#250 = EDGE_LOOP ( 'NONE', ( #72, #224 ) ) ;
#251 = AXIS2_PLACEMENT_3D ( 'NONE', #283, #25, #94 ) ;
#252 = MANIFOLD_SOLID_BREP ( 'Revolve - Tool Body (Straight Shanked)', #53 ) ;
#253 = UNCERTAINTY_MEASURE_WITH_UNIT (LENGTH_MEASURE( 1.000000000000000082E-05 ), #212, 'distance_accuracy_value', 'NONE');
#254 = EDGE_LOOP ( 'NONE', ( #176, #279, #327, #357 ) ) ;
#255 = COLOUR_RGB ( '',1.000000000000000000, 0.000000000000000000, 0.000000000000000000 ) ;
#256 = PRESENTATION_LAYER_ASSIGNMENT (  '', '', ( #68 ) ) ;
#257 = CARTESIAN_POINT ( 'NONE',  ( 0.000000000000000000, 0.000000000000000000, 0.000000000000000000 ) ) ;
#258 = CARTESIAN_POINT ( 'NONE',  ( 3.673940397442059868E-16, 1.000000000000000000, 3.000000000000000000 ) ) ;
#259 = ORIENTED_EDGE ( 'NONE', *, *, #75, .F. ) ;
#260 = ADVANCED_FACE ( 'NONE', ( #73 ), #185, .T. ) ;
#261 = FILL_AREA_STYLE ('',( #232 ) ) ;
#262 = CIRCLE ( 'NONE', #251, 1.000000000000000000 ) ;
#263 = DIRECTION ( 'NONE',  ( 1.000000000000000000, 5.682149050294907483E-17, 0.000000000000000000 ) ) ;
#264 = CARTESIAN_POINT ( 'NONE',  ( 4.000000000000000000, 63.00000000000000000, 0.000000000000000000 ) ) ;
#265 = CYLINDRICAL_SURFACE ( 'NONE', #42, 4.000000000000000000 ) ;
#266 = EDGE_LOOP ( 'NONE', ( #17, #92, #29, #360 ) ) ;
#267 = SURFACE_STYLE_USAGE ( .BOTH. , #5 ) ;
#268 = PRESENTATION_STYLE_ASSIGNMENT (( #297 ) ) ;
#269 = PRODUCT_DEFINITION_SHAPE ( 'NONE', 'NONE',  #363 ) ;
#270 = AXIS2_PLACEMENT_3D ( 'NONE', #287, #167, #89 ) ;
#271 = EDGE_LOOP ( 'NONE', ( #40, #125 ) ) ;
#272 = FILL_AREA_STYLE_COLOUR ( '', #326 ) ;
#273 = PLANE ( 'NONE',  #298 ) ;
#274 = FILL_AREA_STYLE ('',( #246 ) ) ;
#275 = DIRECTION ( 'NONE',  ( -0.000000000000000000, -1.000000000000000000, -0.000000000000000000 ) ) ;
#276 = DIRECTION ( 'NONE',  ( 0.000000000000000000, -0.000000000000000000, 1.000000000000000000 ) ) ;
#277 = DIRECTION ( 'NONE',  ( -5.682149050294907483E-17, 1.000000000000000000, -0.000000000000000000 ) ) ;
#278 =( NAMED_UNIT ( * ) PLANE_ANGLE_UNIT ( ) SI_UNIT ( $, .RADIAN. ) );
#279 = ORIENTED_EDGE ( 'NONE', *, *, #229, .T. ) ;
#280 = FILL_AREA_STYLE ('',( #272 ) ) ;
#281 = DIRECTION ( 'NONE',  ( -5.682149050294907483E-17, 1.000000000000000000, -0.000000000000000000 ) ) ;
#282 = ADVANCED_FACE ( 'NONE', ( #158 ), #317, .T. ) ;
#283 = CARTESIAN_POINT ( 'NONE',  ( 0.000000000000000000, 1.000000000000000000, -3.000000000000000000 ) ) ;
#284 = UNCERTAINTY_MEASURE_WITH_UNIT (LENGTH_MEASURE( 1.000000000000000082E-05 ), #49, 'distance_accuracy_value', 'NONE');
#285 =( LENGTH_UNIT ( ) NAMED_UNIT ( * ) SI_UNIT ( .MILLI., .METRE. ) );
#286 = DIRECTION ( 'NONE',  ( -0.000000000000000000, -1.000000000000000000, -0.000000000000000000 ) ) ;
#287 = CARTESIAN_POINT ( 'NONE',  ( 3.184081677783117402E-15, 63.00000000000000000, 0.000000000000000000 ) ) ;
#288 = AXIS2_PLACEMENT_3D ( 'NONE', #257, #47, #292 ) ;
#289 =( NAMED_UNIT ( * ) PLANE_ANGLE_UNIT ( ) SI_UNIT ( $, .RADIAN. ) );
#290 = AXIS2_PLACEMENT_3D ( 'NONE', #79, #200, #145 ) ;
#291 = ADVANCED_FACE ( 'NONE', ( #183 ), #265, .T. ) ;
#292 = DIRECTION ( 'NONE',  ( 0.000000000000000000, 0.000000000000000000, -1.000000000000000000 ) ) ;
#293 = DIRECTION ( 'NONE',  ( -0.000000000000000000, -1.000000000000000000, -0.000000000000000000 ) ) ;
#294 = STYLED_ITEM ( 'NONE', ( #175 ), #108 ) ;
#295 = DIRECTION ( 'NONE',  ( -1.000000000000000000, 0.000000000000000000, 0.000000000000000000 ) ) ;
#296 = ORIENTED_EDGE ( 'NONE', *, *, #4, .F. ) ;
#297 = SURFACE_STYLE_USAGE ( .BOTH. , #319 ) ;
#298 = AXIS2_PLACEMENT_3D ( 'NONE', #10, #353, #12 ) ;
#299 = ORIENTED_EDGE ( 'NONE', *, *, #119, .T. ) ;
#300 = DIRECTION ( 'NONE',  ( -0.000000000000000000, -1.000000000000000000, -0.000000000000000000 ) ) ;
#301 = DIRECTION ( 'NONE',  ( 0.000000000000000000, 0.000000000000000000, -1.000000000000000000 ) ) ;
#302 = ORIENTED_EDGE ( 'NONE', *, *, #171, .F. ) ;
#303 = SURFACE_STYLE_FILL_AREA ( #217 ) ;
#304 = ORIENTED_EDGE ( 'NONE', *, *, #229, .F. ) ;
#305 = STYLED_ITEM ( 'NONE', ( #164 ), #43 ) ;
#306 = AXIS2_PLACEMENT_3D ( 'NONE', #77, #239, #276 ) ;
#307 = DIRECTION ( 'NONE',  ( -1.000000000000000000, 0.000000000000000000, 0.000000000000000000 ) ) ;
#308 = UNCERTAINTY_MEASURE_WITH_UNIT (LENGTH_MEASURE( 1.000000000000000082E-05 ), #149, 'distance_accuracy_value', 'NONE');
#309 = PRESENTATION_LAYER_ASSIGNMENT (  '', '', ( #346 ) ) ;
#310 =( GEOMETRIC_REPRESENTATION_CONTEXT ( 3 ) GLOBAL_UNCERTAINTY_ASSIGNED_CONTEXT ( ( #308 ) ) GLOBAL_UNIT_ASSIGNED_CONTEXT ( ( #149, #8, #107 ) ) REPRESENTATION_CONTEXT ( 'NONE', 'WORKASPACE' ) );
#311 = DIRECTION ( 'NONE',  ( -0.000000000000000000, -1.000000000000000000, -0.000000000000000000 ) ) ;
#312 = SURFACE_STYLE_FILL_AREA ( #314 ) ;
#313 = EDGE_CURVE ( 'NONE', #132, #112, #59, .T. ) ;
#314 = FILL_AREA_STYLE ('',( #109 ) ) ;
#315 = CARTESIAN_POINT ( 'NONE',  ( 0.000000000000000000, 16.00000000000000000, 0.000000000000000000 ) ) ;
#316 = FILL_AREA_STYLE ('',( #337 ) ) ;
#317 = CYLINDRICAL_SURFACE ( 'NONE', #139, 3.999999999999994671 ) ;
#318 = VERTEX_POINT ( 'NONE', #141 ) ;
#319 = SURFACE_SIDE_STYLE ('',( #20 ) ) ;
#320 = ORIENTED_EDGE ( 'NONE', *, *, #171, .T. ) ;
#321 = DIRECTION ( 'NONE',  ( -5.682149050294907483E-17, 1.000000000000000000, -0.000000000000000000 ) ) ;
#322 = FACE_OUTER_BOUND ( 'NONE', #254, .T. ) ;
#323 = CIRCLE ( 'NONE', #166, 4.000000000000000000 ) ;
#324 = PRESENTATION_LAYER_ASSIGNMENT (  '', '', ( #162 ) ) ;
#325 = ORIENTED_EDGE ( 'NONE', *, *, #28, .F. ) ;
#326 = COLOUR_RGB ( '',1.000000000000000000, 0.000000000000000000, 0.000000000000000000 ) ;
#327 = ORIENTED_EDGE ( 'NONE', *, *, #28, .T. ) ;
#328 = ORIENTED_EDGE ( 'NONE', *, *, #336, .T. ) ;
#329 = VECTOR ( 'NONE', #281, 1000.000000000000000 ) ;
#330 = PRESENTATION_LAYER_ASSIGNMENT (  '', '', ( #16 ) ) ;
#331 = DIRECTION ( 'NONE',  ( -1.224646799147352961E-16, 0.000000000000000000, -1.000000000000000000 ) ) ;
#332 = SURFACE_STYLE_USAGE ( .BOTH. , #140 ) ;
#333 = CIRCLE ( 'NONE', #172, 3.999999999999994227 ) ;
#334 =( GEOMETRIC_REPRESENTATION_CONTEXT ( 3 ) GLOBAL_UNCERTAINTY_ASSIGNED_CONTEXT ( ( #44 ) ) GLOBAL_UNIT_ASSIGNED_CONTEXT ( ( #129, #278, #14 ) ) REPRESENTATION_CONTEXT ( 'NONE', 'WORKASPACE' ) );
#335 = CARTESIAN_POINT ( 'NONE',  ( 0.000000000000000000, 1.000000000000000000, 0.000000000000000000 ) ) ;
#336 = EDGE_CURVE ( 'NONE', #247, #161, #106, .T. ) ;
#337 = FILL_AREA_STYLE_COLOUR ( '', #104 ) ;
#338 = DIRECTION ( 'NONE',  ( 0.000000000000000000, 0.000000000000000000, -1.000000000000000000 ) ) ;
#339 =( GEOMETRIC_REPRESENTATION_CONTEXT ( 3 ) GLOBAL_UNCERTAINTY_ASSIGNED_CONTEXT ( ( #102 ) ) GLOBAL_UNIT_ASSIGNED_CONTEXT ( ( #82, #289, #199 ) ) REPRESENTATION_CONTEXT ( 'NONE', 'WORKASPACE' ) );
#340 = CARTESIAN_POINT ( 'NONE',  ( 0.000000000000000000, 1.000000000000000000, 0.000000000000000000 ) ) ;
#341 = ADVANCED_FACE ( 'NONE', ( #195 ), #123, .T. ) ;
#342 = PRESENTATION_STYLE_ASSIGNMENT (( #170 ) ) ;
#343 = DIRECTION ( 'NONE',  ( 0.000000000000000000, 0.000000000000000000, -1.000000000000000000 ) ) ;
#344 = COLOUR_RGB ( '',1.000000000000000000, 0.000000000000000000, 0.000000000000000000 ) ;
#345 = CARTESIAN_POINT ( 'NONE',  ( 4.898587196589412829E-16, 0.000000000000000000, 4.000000000000000000 ) ) ;
#346 = STYLED_ITEM ( 'NONE', ( #50 ), #193 ) ;
#347 = VERTEX_POINT ( 'NONE', #365 ) ;
#348 = DIRECTION ( 'NONE',  ( 5.682149050294907483E-17, -1.000000000000000000, 0.000000000000000000 ) ) ;
#349 = EDGE_CURVE ( 'NONE', #233, #132, #56, .T. ) ;
#350 = DIRECTION ( 'NONE',  ( -0.000000000000000000, -1.000000000000000000, -0.000000000000000000 ) ) ;
#351 = LINE ( 'NONE', #95, #134 ) ;
#352 = SURFACE_STYLE_USAGE ( .BOTH. , #126 ) ;
#353 = DIRECTION ( 'NONE',  ( 0.000000000000000000, -1.000000000000000000, -0.000000000000000000 ) ) ;
#354 = CYLINDRICAL_SURFACE ( 'NONE', #288, 4.000000000000000000 ) ;
#355 = DIRECTION ( 'NONE',  ( 0.000000000000000000, 0.000000000000000000, -1.000000000000000000 ) ) ;
#356 = AXIS2_PLACEMENT_3D ( 'NONE', #187, #138, #177 ) ;
#357 = ORIENTED_EDGE ( 'NONE', *, *, #197, .F. ) ;
#358 = MECHANICAL_DESIGN_GEOMETRIC_PRESENTATION_REPRESENTATION (  '', ( #99 ), #173 ) ;
#359 =( NAMED_UNIT ( * ) PLANE_ANGLE_UNIT ( ) SI_UNIT ( $, .RADIAN. ) );
#360 = ORIENTED_EDGE ( 'NONE', *, *, #130, .F. ) ;
#361 = ADVANCED_FACE ( 'NONE', ( #26 ), #1, .F. ) ;
#362 = UNCERTAINTY_MEASURE_WITH_UNIT (LENGTH_MEASURE( 1.000000000000000082E-05 ), #285, 'distance_accuracy_value', 'NONE');
#363 = PRODUCT_DEFINITION ( 'UNKNOWN', '', #169, #78 ) ;
#364 = AXIS2_PLACEMENT_3D ( 'NONE', #27, #234, #118 ) ;
#365 = CARTESIAN_POINT ( 'NONE',  ( 0.000000000000000000, 1.000000000000000000, -4.000000000000000000 ) ) ;
#366 = PRESENTATION_LAYER_ASSIGNMENT (  '', '', ( #58 ) ) ;
#367 = CARTESIAN_POINT ( 'NONE',  ( 5.854691731421723944E-15, 16.00000000000000000, 0.000000000000000000 ) ) ;
#368 = ORIENTED_EDGE ( 'NONE', *, *, #313, .F. ) ;
#369 = CARTESIAN_POINT ( 'NONE',  ( 4.898587196589412829E-16, 1.000000000000000000, 4.000000000000000000 ) ) ;
#370 = AXIS2_PLACEMENT_3D ( 'NONE', #315, #311, #114 ) ;
ENDSEC;
END-ISO-10303-21;
