ISO-10303-21;
HEADER;
FILE_DESCRIPTION (( 'STEP AP214' ),
    '1' );
FILE_NAME ('Micro_BEM-250-02.STEP',
    '2021-09-03T13:08:03',
    ( '' ),
    ( '' ),
    'SwSTEP 2.0',
    'SolidWorks 2020',
    '' );
FILE_SCHEMA (( 'AUTOMOTIVE_DESIGN' ));
ENDSEC;

DATA;
#1 = SURFACE_STYLE_USAGE ( .BOTH. , #31 ) ;
#2 = CIRCLE ( 'NONE', #168, 0.1248749999999999999 ) ;
#3 = CARTESIAN_POINT ( 'NONE',  ( 0.0000000000000000000, 0.0000000000000000000, 2.500000000000000000 ) ) ;
#4 = CYLINDRICAL_SURFACE ( 'NONE', #29, 0.1250000000000000000 ) ;
#5 = CARTESIAN_POINT ( 'NONE',  ( 0.1248750000000000970, 0.0000000000000000000, 0.7500000000000001110 ) ) ;
#6 = MECHANICAL_DESIGN_GEOMETRIC_PRESENTATION_REPRESENTATION (  '', ( #225 ), #293 ) ;
#7 = CARTESIAN_POINT ( 'NONE',  ( 1.529277690435257475E-17, 0.0000000000000000000, 0.1248749999999999999 ) ) ;
#8 = LINE ( 'NONE', #204, #52 ) ;
#9 = DIRECTION ( 'NONE',  ( 1.224646799147353207E-16, 0.0000000000000000000, 1.000000000000000000 ) ) ;
#10 = EDGE_LOOP ( 'NONE', ( #136, #186, #313, #214 ) ) ;
#11 = CIRCLE ( 'NONE', #246, 0.1248749999999999999 ) ;
#12 = VERTEX_POINT ( 'NONE', #120 ) ;
#13 = PRESENTATION_STYLE_ASSIGNMENT (( #89 ) ) ;
#14 = ORIENTED_EDGE ( 'NONE', *, *, #303, .T. ) ;
#15 = EDGE_CURVE ( 'NONE', #141, #237, #102, .T. ) ;
#16 = ORIENTED_EDGE ( 'NONE', *, *, #208, .F. ) ;
#17 = ADVANCED_FACE ( 'NONE', ( #118 ), #222, .T. ) ;
#18 = AXIS2_PLACEMENT_3D ( 'NONE', #275, #124, #30 ) ;
#19 = EDGE_LOOP ( 'NONE', ( #264, #108, #323, #39 ) ) ;
#20 = CIRCLE ( 'NONE', #199, 0.1250000000000000000 ) ;
#21 =( NAMED_UNIT ( * ) PLANE_ANGLE_UNIT ( ) SI_UNIT ( $, .RADIAN. ) );
#22 = EDGE_LOOP ( 'NONE', ( #92, #309, #258, #318 ) ) ;
#23 = ORIENTED_EDGE ( 'NONE', *, *, #80, .F. ) ;
#24 = DIRECTION ( 'NONE',  ( -1.000000000000000000, 0.0000000000000000000, 1.367291288120251888E-16 ) ) ;
#25 = ADVANCED_FACE ( 'NONE', ( #191 ), #205, .T. ) ;
#26 = VECTOR ( 'NONE', #47, 39.37007874015748143 ) ;
#27 = FILL_AREA_STYLE ('',( #196 ) ) ;
#28 = FACE_OUTER_BOUND ( 'NONE', #95, .T. ) ;
#29 = AXIS2_PLACEMENT_3D ( 'NONE', #104, #53, #252 ) ;
#30 = DIRECTION ( 'NONE',  ( 1.000000000000000000, 0.0000000000000000000, -0.0000000000000000000 ) ) ;
#31 = SURFACE_SIDE_STYLE ('',( #271 ) ) ;
#32 =( NAMED_UNIT ( * ) SI_UNIT ( $, .STERADIAN. ) SOLID_ANGLE_UNIT ( ) );
#33 = ORIENTED_EDGE ( 'NONE', *, *, #281, .F. ) ;
#34 = ORIENTED_EDGE ( 'NONE', *, *, #80, .T. ) ;
#35 = EDGE_CURVE ( 'NONE', #90, #116, #79, .T. ) ;
#36 = FACE_OUTER_BOUND ( 'NONE', #229, .T. ) ;
#37 = VECTOR ( 'NONE', #131, 39.37007874015748143 ) ;
#38 = LINE ( 'NONE', #259, #59 ) ;
#39 = ORIENTED_EDGE ( 'NONE', *, *, #218, .F. ) ;
#40 = DIRECTION ( 'NONE',  ( -0.0000000000000000000, -0.0000000000000000000, -1.000000000000000000 ) ) ;
#41 = PRODUCT_CONTEXT ( 'NONE', #226, 'mechanical' ) ;
#42 = ORIENTED_EDGE ( 'NONE', *, *, #75, .F. ) ;
#43 = COLOUR_RGB ( '',0.7921568627450980005, 0.8196078431372548767, 0.9333333333333333481 ) ;
#44 = CARTESIAN_POINT ( 'NONE',  ( 0.0000000000000000000, 0.0000000000000000000, 2.500000000000000000 ) ) ;
#45 = SPHERICAL_SURFACE ( 'NONE', #158, 0.1248749999999999999 ) ;
#46 = PRODUCT ( 'Micro_BEM-250-02', 'Micro_BEM-250-02', '', ( #41 ) ) ;
#47 = DIRECTION ( 'NONE',  ( -0.1736481776669312749, 2.126576849575784241E-17, 0.9848077530122077983 ) ) ;
#48 = CARTESIAN_POINT ( 'NONE',  ( -0.1249999999999999167, 0.0000000000000000000, 0.7507089102274522308 ) ) ;
#49 = DIRECTION ( 'NONE',  ( 1.000000000000000000, 0.0000000000000000000, 0.0000000000000000000 ) ) ;
#50 = CARTESIAN_POINT ( 'NONE',  ( 2.293916535652885904E-17, 0.0000000000000000000, 0.0000000000000000000 ) ) ;
#51 = CIRCLE ( 'NONE', #220, 0.1248749999999999999 ) ;
#52 = VECTOR ( 'NONE', #105, 39.37007874015748143 ) ;
#53 = DIRECTION ( 'NONE',  ( -0.0000000000000000000, -0.0000000000000000000, -1.000000000000000000 ) ) ;
#54 = CARTESIAN_POINT ( 'NONE',  ( -0.1100000000000001948, 0.0000000000000000000, 2.500000000000000000 ) ) ;
#55 = ADVANCED_FACE ( 'NONE', ( #319 ), #297, .T. ) ;
#56 = DIRECTION ( 'NONE',  ( -1.224646799147353207E-16, -0.0000000000000000000, -1.000000000000000000 ) ) ;
#57 = ORIENTED_EDGE ( 'NONE', *, *, #276, .F. ) ;
#58 = ADVANCED_FACE ( 'NONE', ( #94 ), #45, .T. ) ;
#59 = VECTOR ( 'NONE', #56, 39.37007874015748143 ) ;
#60 = CIRCLE ( 'NONE', #203, 0.1250000000000000000 ) ;
#61 = LINE ( 'NONE', #206, #72 ) ;
#62 = CARTESIAN_POINT ( 'NONE',  ( 0.0000000000000000000, 0.0000000000000000000, 2.500000000000000000 ) ) ;
#63 = ORIENTED_EDGE ( 'NONE', *, *, #75, .T. ) ;
#64 = CARTESIAN_POINT ( 'NONE',  ( 9.184850993605150903E-17, 0.0000000000000000000, 0.7500000000000001110 ) ) ;
#65 = EDGE_LOOP ( 'NONE', ( #16, #63, #190, #57 ) ) ;
#66 = EDGE_CURVE ( 'NONE', #285, #116, #294, .T. ) ;
#67 = CARTESIAN_POINT ( 'NONE',  ( 9.193532640014472135E-17, 0.0000000000000000000, 0.7507089102274522308 ) ) ;
#68 = DIRECTION ( 'NONE',  ( -1.000000000000000000, 0.0000000000000000000, 0.0000000000000000000 ) ) ;
#69 = DIRECTION ( 'NONE',  ( 1.000000000000000000, 0.0000000000000000000, 0.0000000000000000000 ) ) ;
#70 = ORIENTED_EDGE ( 'NONE', *, *, #208, .T. ) ;
#71 = AXIS2_PLACEMENT_3D ( 'NONE', #194, #217, #292 ) ;
#72 = VECTOR ( 'NONE', #231, 39.37007874015748143 ) ;
#73 = AXIS2_PLACEMENT_3D ( 'NONE', #192, #290, #267 ) ;
#74 = ORIENTED_EDGE ( 'NONE', *, *, #15, .T. ) ;
#75 = EDGE_CURVE ( 'NONE', #143, #116, #320, .T. ) ;
#76 =( CONVERSION_BASED_UNIT ( 'INCH', #171 ) LENGTH_UNIT ( ) NAMED_UNIT ( #253 ) );
#77 = CARTESIAN_POINT ( 'NONE',  ( 9.184850993605150903E-17, 0.0000000000000000000, 0.7500000000000001110 ) ) ;
#78 = DIRECTION ( 'NONE',  ( -1.000000000000000000, 0.0000000000000000000, 1.224646799147353454E-16 ) ) ;
#79 = CIRCLE ( 'NONE', #263, 0.1250000000000000000 ) ;
#80 = EDGE_CURVE ( 'NONE', #237, #254, #51, .T. ) ;
#81 = DIMENSIONAL_EXPONENTS ( 1.000000000000000000, 0.0000000000000000000, 0.0000000000000000000, 0.0000000000000000000, 0.0000000000000000000, 0.0000000000000000000, 0.0000000000000000000 ) ;
#82 = LENGTH_MEASURE_WITH_UNIT ( LENGTH_MEASURE( 0.02539999999999999897 ), #134 );
#83 = LINE ( 'NONE', #162, #262 ) ;
#84 = DIMENSIONAL_EXPONENTS ( 1.000000000000000000, 0.0000000000000000000, 0.0000000000000000000, 0.0000000000000000000, 0.0000000000000000000, 0.0000000000000000000, 0.0000000000000000000 ) ;
#85 = ORIENTED_EDGE ( 'NONE', *, *, #324, .F. ) ;
#86 = EDGE_CURVE ( 'NONE', #141, #254, #321, .T. ) ;
#87 = DIRECTION ( 'NONE',  ( -1.000000000000000000, 0.0000000000000000000, 0.0000000000000000000 ) ) ;
#88 = DIRECTION ( 'NONE',  ( -1.224646799147353207E-16, -0.0000000000000000000, -1.000000000000000000 ) ) ;
#89 = SURFACE_STYLE_USAGE ( .BOTH. , #114 ) ;
#90 = VERTEX_POINT ( 'NONE', #201 ) ;
#91 = DIRECTION ( 'NONE',  ( 0.0000000000000000000, 0.0000000000000000000, 1.000000000000000000 ) ) ;
#92 = ORIENTED_EDGE ( 'NONE', *, *, #303, .F. ) ;
#93 = EDGE_CURVE ( 'NONE', #285, #312, #20, .T. ) ;
#94 = FACE_OUTER_BOUND ( 'NONE', #185, .T. ) ;
#95 = EDGE_LOOP ( 'NONE', ( #42, #144, #238, #232 ) ) ;
#96 = AXIS2_PLACEMENT_3D ( 'NONE', #44, #216, #68 ) ;
#97 = CARTESIAN_POINT ( 'NONE',  ( 9.184850993605150903E-17, 0.0000000000000000000, 0.7500000000000001110 ) ) ;
#98 = EDGE_CURVE ( 'NONE', #312, #285, #60, .T. ) ;
#99 = DIRECTION ( 'NONE',  ( 0.0000000000000000000, 0.0000000000000000000, 1.000000000000000000 ) ) ;
#100 =( LENGTH_UNIT ( ) NAMED_UNIT ( * ) SI_UNIT ( $, .METRE. ) );
#101 = CONICAL_SURFACE ( 'NONE', #181, 0.1248749999999999999, 0.1745329251994340025 ) ;
#102 = CIRCLE ( 'NONE', #73, 0.1248749999999999999 ) ;
#103 = DIRECTION ( 'NONE',  ( 1.000000000000000000, 0.0000000000000000000, 0.0000000000000000000 ) ) ;
#104 = CARTESIAN_POINT ( 'NONE',  ( 0.0000000000000000000, 0.0000000000000000000, 2.500000000000000000 ) ) ;
#105 = DIRECTION ( 'NONE',  ( -1.224646799147353207E-16, -0.0000000000000000000, -1.000000000000000000 ) ) ;
#106 = ORIENTED_EDGE ( 'NONE', *, *, #86, .T. ) ;
#107 = CARTESIAN_POINT ( 'NONE',  ( 0.1250000000000000000, 1.530808498934191509E-17, 2.485000000000000320 ) ) ;
#108 = ORIENTED_EDGE ( 'NONE', *, *, #299, .T. ) ;
#109 = DIRECTION ( 'NONE',  ( 1.000000000000000000, 0.0000000000000000000, 0.0000000000000000000 ) ) ;
#110 = MANIFOLD_SOLID_BREP ( 'Fillet1', #305 ) ;
#111 = EDGE_LOOP ( 'NONE', ( #70, #14, #34, #33 ) ) ;
#112 = ADVANCED_FACE ( 'NONE', ( #300 ), #150, .T. ) ;
#113 = ORIENTED_EDGE ( 'NONE', *, *, #15, .F. ) ;
#114 = SURFACE_SIDE_STYLE ('',( #314 ) ) ;
#115 = EDGE_LOOP ( 'NONE', ( #209, #74, #85 ) ) ;
#116 = VERTEX_POINT ( 'NONE', #48 ) ;
#117 =( NAMED_UNIT ( * ) SI_UNIT ( $, .STERADIAN. ) SOLID_ANGLE_UNIT ( ) );
#118 = FACE_OUTER_BOUND ( 'NONE', #115, .T. ) ;
#119 = FILL_AREA_STYLE ('',( #213 ) ) ;
#120 = CARTESIAN_POINT ( 'NONE',  ( 0.1100000000000001948, 1.438959988998141146E-17, 2.500000000000000000 ) ) ;
#121 = STYLED_ITEM ( 'NONE', ( #13 ), #296 ) ;
#122 = CARTESIAN_POINT ( 'NONE',  ( 1.529277690435257475E-17, 0.0000000000000000000, 0.1248749999999999999 ) ) ;
#123 = DIRECTION ( 'NONE',  ( -1.224646799147353207E-16, -0.0000000000000000000, -1.000000000000000000 ) ) ;
#124 = DIRECTION ( 'NONE',  ( 0.0000000000000000000, 0.0000000000000000000, 1.000000000000000000 ) ) ;
#125 = CARTESIAN_POINT ( 'NONE',  ( 0.0000000000000000000, 0.0000000000000000000, 2.485000000000000320 ) ) ;
#126 = AXIS2_PLACEMENT_3D ( 'NONE', #153, #99, #197 ) ;
#127 = PRESENTATION_STYLE_ASSIGNMENT (( #1 ) ) ;
#128 = DIRECTION ( 'NONE',  ( -1.000000000000000000, 0.0000000000000000000, 0.0000000000000000000 ) ) ;
#129 = ORIENTED_EDGE ( 'NONE', *, *, #98, .F. ) ;
#130 = CONICAL_SURFACE ( 'NONE', #301, 0.1100000000000001948, 0.7853981633974517207 ) ;
#131 = DIRECTION ( 'NONE',  ( -0.7071067811865499042, 0.0000000000000000000, -0.7071067811865451302 ) ) ;
#132 = CARTESIAN_POINT ( 'NONE',  ( -0.1250000000000000000, 0.0000000000000000000, 2.485000000000000320 ) ) ;
#133 = ORIENTED_EDGE ( 'NONE', *, *, #66, .F. ) ;
#134 =( LENGTH_UNIT ( ) NAMED_UNIT ( * ) SI_UNIT ( $, .METRE. ) );
#135 = PRODUCT_DEFINITION ( 'UNKNOWN', '', #137, #289 ) ;
#136 = ORIENTED_EDGE ( 'NONE', *, *, #317, .F. ) ;
#137 = PRODUCT_DEFINITION_FORMATION_WITH_SPECIFIED_SOURCE ( 'ANY', '', #46, .NOT_KNOWN. ) ;
#138 = LINE ( 'NONE', #183, #37 ) ;
#139 = ORIENTED_EDGE ( 'NONE', *, *, #317, .T. ) ;
#140 = SHAPE_DEFINITION_REPRESENTATION ( #236, #296 ) ;
#141 = VERTEX_POINT ( 'NONE', #50 ) ;
#142 = LENGTH_MEASURE_WITH_UNIT ( LENGTH_MEASURE( 0.02539999999999999897 ), #265 );
#143 = VERTEX_POINT ( 'NONE', #198 ) ;
#144 = ORIENTED_EDGE ( 'NONE', *, *, #240, .F. ) ;
#145 = CARTESIAN_POINT ( 'NONE',  ( 1.529277690435257475E-17, 0.0000000000000000000, 0.1248749999999999999 ) ) ;
#146 =( GEOMETRIC_REPRESENTATION_CONTEXT ( 3 ) GLOBAL_UNCERTAINTY_ASSIGNED_CONTEXT ( ( #274 ) ) GLOBAL_UNIT_ASSIGNED_CONTEXT ( ( #241, #21, #117 ) ) REPRESENTATION_CONTEXT ( 'NONE', 'WORKASPACE' ) );
#147 = DIRECTION ( 'NONE',  ( 0.0000000000000000000, 0.0000000000000000000, 1.000000000000000000 ) ) ;
#148 = DIRECTION ( 'NONE',  ( 0.0000000000000000000, 0.0000000000000000000, -1.000000000000000000 ) ) ;
#149 = EDGE_CURVE ( 'NONE', #12, #242, #177, .T. ) ;
#150 = CYLINDRICAL_SURFACE ( 'NONE', #268, 0.1248749999999999999 ) ;
#151 = DIRECTION ( 'NONE',  ( 1.000000000000000000, 0.0000000000000000000, 0.0000000000000000000 ) ) ;
#152 = CIRCLE ( 'NONE', #187, 0.1250000000000000000 ) ;
#153 = CARTESIAN_POINT ( 'NONE',  ( 0.0000000000000000000, 0.0000000000000000000, 2.500000000000000000 ) ) ;
#154 = ORIENTED_EDGE ( 'NONE', *, *, #172, .T. ) ;
#155 = ADVANCED_FACE ( 'NONE', ( #200 ), #130, .T. ) ;
#156 = CARTESIAN_POINT ( 'NONE',  ( 0.1250000000000000000, 1.530808498934191509E-17, 2.500000000000000000 ) ) ;
#157 = CIRCLE ( 'NONE', #215, 0.1248749999999999999 ) ;
#158 = AXIS2_PLACEMENT_3D ( 'NONE', #243, #164, #219 ) ;
#159 = CARTESIAN_POINT ( 'NONE',  ( 0.0000000000000000000, 0.0000000000000000000, 0.0000000000000000000 ) ) ;
#160 = DIRECTION ( 'NONE',  ( -0.0000000000000000000, -0.0000000000000000000, -1.000000000000000000 ) ) ;
#161 = ORIENTED_EDGE ( 'NONE', *, *, #172, .F. ) ;
#162 = CARTESIAN_POINT ( 'NONE',  ( 0.1248750000000000970, 0.0000000000000000000, 0.7500000000000001110 ) ) ;
#163 = MECHANICAL_DESIGN_GEOMETRIC_PRESENTATION_REPRESENTATION (  '', ( #121 ), #146 ) ;
#164 = DIRECTION ( 'NONE',  ( 0.0000000000000000000, 1.000000000000000000, 0.0000000000000000000 ) ) ;
#165 = DIRECTION ( 'NONE',  ( 0.0000000000000000000, 1.000000000000000000, 0.0000000000000000000 ) ) ;
#166 = APPLICATION_PROTOCOL_DEFINITION ( 'draft international standard', 'automotive_design', 1998, #244 ) ;
#167 = ORIENTED_EDGE ( 'NONE', *, *, #149, .T. ) ;
#168 = AXIS2_PLACEMENT_3D ( 'NONE', #97, #88, #87 ) ;
#169 = CARTESIAN_POINT ( 'NONE',  ( -0.1250000000000000000, 0.0000000000000000000, 2.500000000000000000 ) ) ;
#170 = CARTESIAN_POINT ( 'NONE',  ( -0.1248749999999999166, 1.529277690435257475E-17, 0.7500000000000001110 ) ) ;
#171 = LENGTH_MEASURE_WITH_UNIT ( LENGTH_MEASURE( 0.02539999999999999897 ), #100 );
#172 = EDGE_CURVE ( 'NONE', #242, #12, #315, .T. ) ;
#173 = DIRECTION ( 'NONE',  ( 0.0000000000000000000, 0.0000000000000000000, -1.000000000000000000 ) ) ;
#174 = CARTESIAN_POINT ( 'NONE',  ( 0.0000000000000000000, 0.0000000000000000000, 2.500000000000000000 ) ) ;
#175 = AXIS2_PLACEMENT_3D ( 'NONE', #122, #248, #279 ) ;
#176 = DIRECTION ( 'NONE',  ( 1.000000000000000000, 0.0000000000000000000, 0.0000000000000000000 ) ) ;
#177 = CIRCLE ( 'NONE', #255, 0.1100000000000001948 ) ;
#178 =( NAMED_UNIT ( * ) PLANE_ANGLE_UNIT ( ) SI_UNIT ( $, .RADIAN. ) );
#179 = ORIENTED_EDGE ( 'NONE', *, *, #93, .T. ) ;
#180 = LINE ( 'NONE', #156, #272 ) ;
#181 = AXIS2_PLACEMENT_3D ( 'NONE', #77, #277, #151 ) ;
#182 = ADVANCED_FACE ( 'NONE', ( #227 ), #295, .T. ) ;
#183 = CARTESIAN_POINT ( 'NONE',  ( -0.1100000000000001948, 0.0000000000000000000, 2.500000000000000000 ) ) ;
#184 = DIRECTION ( 'NONE',  ( -1.224646799147353207E-16, -0.0000000000000000000, -1.000000000000000000 ) ) ;
#185 = EDGE_LOOP ( 'NONE', ( #113, #106, #23 ) ) ;
#186 = ORIENTED_EDGE ( 'NONE', *, *, #98, .T. ) ;
#187 = AXIS2_PLACEMENT_3D ( 'NONE', #230, #257, #109 ) ;
#188 = CARTESIAN_POINT ( 'NONE',  ( 0.0000000000000000000, 0.0000000000000000000, 0.0000000000000000000 ) ) ;
#189 = UNCERTAINTY_MEASURE_WITH_UNIT (LENGTH_MEASURE( 1.000000000000000082E-05 ), #210, 'distance_accuracy_value', 'NONE');
#190 = ORIENTED_EDGE ( 'NONE', *, *, #250, .T. ) ;
#191 = FACE_OUTER_BOUND ( 'NONE', #65, .T. ) ;
#192 = CARTESIAN_POINT ( 'NONE',  ( 1.529277690435257475E-17, 0.0000000000000000000, 0.1248749999999999999 ) ) ;
#193 = ADVANCED_FACE ( 'NONE', ( #28 ), #101, .T. ) ;
#194 = CARTESIAN_POINT ( 'NONE',  ( 9.184850993605150903E-17, 0.0000000000000000000, 0.7500000000000001110 ) ) ;
#195 = UNCERTAINTY_MEASURE_WITH_UNIT (LENGTH_MEASURE( 1.000000000000000082E-05 ), #76, 'distance_accuracy_value', 'NONE');
#196 = FILL_AREA_STYLE_COLOUR ( '', #43 ) ;
#197 = DIRECTION ( 'NONE',  ( 1.000000000000000000, 0.0000000000000000000, 0.0000000000000000000 ) ) ;
#198 = CARTESIAN_POINT ( 'NONE',  ( -0.1248749999999999166, 1.530043094684724646E-17, 0.7500000000000001110 ) ) ;
#199 = AXIS2_PLACEMENT_3D ( 'NONE', #125, #298, #49 ) ;
#200 = FACE_OUTER_BOUND ( 'NONE', #261, .T. ) ;
#201 = CARTESIAN_POINT ( 'NONE',  ( 0.1250000000000000833, 1.530808498934192433E-17, 0.7507089102274522308 ) ) ;
#202 = ADVANCED_FACE ( 'NONE', ( #251 ), #4, .T. ) ;
#203 = AXIS2_PLACEMENT_3D ( 'NONE', #223, #173, #176 ) ;
#204 = CARTESIAN_POINT ( 'NONE',  ( -0.1248749999999999999, 0.0000000000000000000, 1.529277690435257475E-17 ) ) ;
#205 = CONICAL_SURFACE ( 'NONE', #71, 0.1248749999999999999, 0.1745329251994340025 ) ;
#206 = CARTESIAN_POINT ( 'NONE',  ( 0.1100000000000001948, 1.347111479062090784E-17, 2.500000000000000000 ) ) ;
#207 = CARTESIAN_POINT ( 'NONE',  ( 0.1248750000000000276, 1.529277690435257475E-17, 0.1248749999999999860 ) ) ;
#208 = EDGE_CURVE ( 'NONE', #143, #316, #2, .T. ) ;
#209 = ORIENTED_EDGE ( 'NONE', *, *, #86, .F. ) ;
#210 =( CONVERSION_BASED_UNIT ( 'INCH', #82 ) LENGTH_UNIT ( ) NAMED_UNIT ( #84 ) );
#211 = APPLICATION_PROTOCOL_DEFINITION ( 'draft international standard', 'automotive_design', 1998, #226 ) ;
#212 = ORIENTED_EDGE ( 'NONE', *, *, #299, .F. ) ;
#213 = FILL_AREA_STYLE_COLOUR ( '', #322 ) ;
#214 = ORIENTED_EDGE ( 'NONE', *, *, #35, .F. ) ;
#215 = AXIS2_PLACEMENT_3D ( 'NONE', #64, #308, #128 ) ;
#216 = DIRECTION ( 'NONE',  ( 0.0000000000000000000, 0.0000000000000000000, -1.000000000000000000 ) ) ;
#217 = DIRECTION ( 'NONE',  ( 1.224646799147353207E-16, 0.0000000000000000000, 1.000000000000000000 ) ) ;
#218 = EDGE_CURVE ( 'NONE', #242, #285, #138, .T. ) ;
#219 = DIRECTION ( 'NONE',  ( 1.000000000000000000, 0.0000000000000000000, 0.0000000000000000000 ) ) ;
#220 = AXIS2_PLACEMENT_3D ( 'NONE', #145, #245, #24 ) ;
#221 = AXIS2_PLACEMENT_3D ( 'NONE', #62, #160, #233 ) ;
#222 = SPHERICAL_SURFACE ( 'NONE', #280, 0.1248749999999999999 ) ;
#223 = CARTESIAN_POINT ( 'NONE',  ( 0.0000000000000000000, 0.0000000000000000000, 2.485000000000000320 ) ) ;
#224 = ADVANCED_FACE ( 'NONE', ( #282 ), #311, .T. ) ;
#225 = STYLED_ITEM ( 'NONE', ( #127 ), #110 ) ;
#226 = APPLICATION_CONTEXT ( 'automotive_design' ) ;
#227 = FACE_OUTER_BOUND ( 'NONE', #256, .T. ) ;
#228 = CARTESIAN_POINT ( 'NONE',  ( -0.1248749999999999860, 0.0000000000000000000, 0.1248750000000000276 ) ) ;
#229 = EDGE_LOOP ( 'NONE', ( #179, #139, #288, #133 ) ) ;
#230 = CARTESIAN_POINT ( 'NONE',  ( 9.193532640014472135E-17, 0.0000000000000000000, 0.7507089102274522308 ) ) ;
#231 = DIRECTION ( 'NONE',  ( 0.7071067811865499042, 8.659560562354961208E-17, -0.7071067811865451302 ) ) ;
#232 = ORIENTED_EDGE ( 'NONE', *, *, #35, .T. ) ;
#233 = DIRECTION ( 'NONE',  ( -1.000000000000000000, 0.0000000000000000000, 0.0000000000000000000 ) ) ;
#234 = AXIS2_PLACEMENT_3D ( 'NONE', #159, #184, #287 ) ;
#235 = VECTOR ( 'NONE', #40, 39.37007874015748143 ) ;
#236 = PRODUCT_DEFINITION_SHAPE ( 'NONE', 'NONE',  #135 ) ;
#237 = VERTEX_POINT ( 'NONE', #207 ) ;
#238 = ORIENTED_EDGE ( 'NONE', *, *, #276, .T. ) ;
#239 = AXIS2_PLACEMENT_3D ( 'NONE', #188, #91, #69 ) ;
#240 = EDGE_CURVE ( 'NONE', #316, #143, #157, .T. ) ;
#241 =( CONVERSION_BASED_UNIT ( 'INCH', #142 ) LENGTH_UNIT ( ) NAMED_UNIT ( #81 ) );
#242 = VERTEX_POINT ( 'NONE', #54 ) ;
#243 = CARTESIAN_POINT ( 'NONE',  ( 1.529277690435257475E-17, 0.0000000000000000000, 0.1248749999999999999 ) ) ;
#244 = APPLICATION_CONTEXT ( 'automotive_design' ) ;
#245 = DIRECTION ( 'NONE',  ( 1.224646799147353207E-16, 0.0000000000000000000, 1.000000000000000000 ) ) ;
#246 = AXIS2_PLACEMENT_3D ( 'NONE', #7, #9, #304 ) ;
#247 =( NAMED_UNIT ( * ) PLANE_ANGLE_UNIT ( ) SI_UNIT ( $, .RADIAN. ) );
#248 = DIRECTION ( 'NONE',  ( 1.224646799147353207E-16, 1.000000000000000000, -0.0000000000000000000 ) ) ;
#249 = CARTESIAN_POINT ( 'NONE',  ( 0.0000000000000000000, 0.0000000000000000000, 0.0000000000000000000 ) ) ;
#250 = EDGE_CURVE ( 'NONE', #116, #90, #152, .T. ) ;
#251 = FACE_OUTER_BOUND ( 'NONE', #10, .T. ) ;
#252 = DIRECTION ( 'NONE',  ( -1.000000000000000000, 0.0000000000000000000, 0.0000000000000000000 ) ) ;
#253 = DIMENSIONAL_EXPONENTS ( 1.000000000000000000, 0.0000000000000000000, 0.0000000000000000000, 0.0000000000000000000, 0.0000000000000000000, 0.0000000000000000000, 0.0000000000000000000 ) ;
#254 = VERTEX_POINT ( 'NONE', #228 ) ;
#255 = AXIS2_PLACEMENT_3D ( 'NONE', #3, #147, #103 ) ;
#256 = EDGE_LOOP ( 'NONE', ( #154, #167 ) ) ;
#257 = DIRECTION ( 'NONE',  ( -1.224646799147353207E-16, -0.0000000000000000000, -1.000000000000000000 ) ) ;
#258 = ORIENTED_EDGE ( 'NONE', *, *, #281, .T. ) ;
#259 = CARTESIAN_POINT ( 'NONE',  ( 0.1248749999999999999, 1.529277690435257475E-17, -1.529277690435257475E-17 ) ) ;
#260 = CYLINDRICAL_SURFACE ( 'NONE', #221, 0.1250000000000000000 ) ;
#261 = EDGE_LOOP ( 'NONE', ( #212, #161, #307, #129 ) ) ;
#262 = VECTOR ( 'NONE', #284, 39.37007874015748143 ) ;
#263 = AXIS2_PLACEMENT_3D ( 'NONE', #67, #270, #269 ) ;
#264 = ORIENTED_EDGE ( 'NONE', *, *, #149, .F. ) ;
#265 =( LENGTH_UNIT ( ) NAMED_UNIT ( * ) SI_UNIT ( $, .METRE. ) );
#266 = DIRECTION ( 'NONE',  ( 1.000000000000000000, 0.0000000000000000000, 0.0000000000000000000 ) ) ;
#267 = DIRECTION ( 'NONE',  ( 0.0000000000000000000, 0.0000000000000000000, -1.000000000000000000 ) ) ;
#268 = AXIS2_PLACEMENT_3D ( 'NONE', #249, #123, #78 ) ;
#269 = DIRECTION ( 'NONE',  ( 1.000000000000000000, 0.0000000000000000000, 0.0000000000000000000 ) ) ;
#270 = DIRECTION ( 'NONE',  ( -1.224646799147353207E-16, -0.0000000000000000000, -1.000000000000000000 ) ) ;
#271 = SURFACE_STYLE_FILL_AREA ( #27 ) ;
#272 = VECTOR ( 'NONE', #283, 39.37007874015748143 ) ;
#273 =( NAMED_UNIT ( * ) SI_UNIT ( $, .STERADIAN. ) SOLID_ANGLE_UNIT ( ) );
#274 = UNCERTAINTY_MEASURE_WITH_UNIT (LENGTH_MEASURE( 1.000000000000000082E-05 ), #241, 'distance_accuracy_value', 'NONE');
#275 = CARTESIAN_POINT ( 'NONE',  ( 0.0000000000000000000, 0.0000000000000000000, 2.500000000000000000 ) ) ;
#276 = EDGE_CURVE ( 'NONE', #316, #90, #83, .T. ) ;
#277 = DIRECTION ( 'NONE',  ( 1.224646799147353207E-16, 0.0000000000000000000, 1.000000000000000000 ) ) ;
#278 =( GEOMETRIC_REPRESENTATION_CONTEXT ( 3 ) GLOBAL_UNCERTAINTY_ASSIGNED_CONTEXT ( ( #189 ) ) GLOBAL_UNIT_ASSIGNED_CONTEXT ( ( #210, #178, #32 ) ) REPRESENTATION_CONTEXT ( 'NONE', 'WORKASPACE' ) );
#279 = DIRECTION ( 'NONE',  ( -1.000000000000000000, 1.224646799147353454E-16, 0.0000000000000000000 ) ) ;
#280 = AXIS2_PLACEMENT_3D ( 'NONE', #291, #165, #266 ) ;
#281 = EDGE_CURVE ( 'NONE', #143, #254, #8, .T. ) ;
#282 = FACE_OUTER_BOUND ( 'NONE', #22, .T. ) ;
#283 = DIRECTION ( 'NONE',  ( -0.0000000000000000000, -0.0000000000000000000, -1.000000000000000000 ) ) ;
#284 = DIRECTION ( 'NONE',  ( 0.1736481776669314969, 0.0000000000000000000, 0.9848077530122077983 ) ) ;
#285 = VERTEX_POINT ( 'NONE', #132 ) ;
#286 = ADVANCED_FACE ( 'NONE', ( #36 ), #260, .T. ) ;
#287 = DIRECTION ( 'NONE',  ( -1.000000000000000000, 0.0000000000000000000, 1.224646799147353454E-16 ) ) ;
#288 = ORIENTED_EDGE ( 'NONE', *, *, #250, .F. ) ;
#289 = PRODUCT_DEFINITION_CONTEXT ( 'detailed design', #244, 'design' ) ;
#290 = DIRECTION ( 'NONE',  ( 0.0000000000000000000, -1.000000000000000000, 0.0000000000000000000 ) ) ;
#291 = CARTESIAN_POINT ( 'NONE',  ( 1.529277690435257475E-17, 0.0000000000000000000, 0.1248749999999999999 ) ) ;
#292 = DIRECTION ( 'NONE',  ( 1.000000000000000000, 0.0000000000000000000, 0.0000000000000000000 ) ) ;
#293 =( GEOMETRIC_REPRESENTATION_CONTEXT ( 3 ) GLOBAL_UNCERTAINTY_ASSIGNED_CONTEXT ( ( #195 ) ) GLOBAL_UNIT_ASSIGNED_CONTEXT ( ( #76, #247, #273 ) ) REPRESENTATION_CONTEXT ( 'NONE', 'WORKASPACE' ) );
#294 = LINE ( 'NONE', #169, #235 ) ;
#295 = PLANE ( 'NONE',  #18 ) ;
#296 = ADVANCED_BREP_SHAPE_REPRESENTATION ( 'Micro_BEM-250-02', ( #110, #239 ), #278 ) ;
#297 = CONICAL_SURFACE ( 'NONE', #96, 0.1100000000000001948, 0.7853981633974517207 ) ;
#298 = DIRECTION ( 'NONE',  ( 0.0000000000000000000, 0.0000000000000000000, -1.000000000000000000 ) ) ;
#299 = EDGE_CURVE ( 'NONE', #12, #312, #61, .T. ) ;
#300 = FACE_OUTER_BOUND ( 'NONE', #111, .T. ) ;
#301 = AXIS2_PLACEMENT_3D ( 'NONE', #174, #148, #325 ) ;
#302 = PRESENTATION_LAYER_ASSIGNMENT (  '', '', ( #121 ) ) ;
#303 = EDGE_CURVE ( 'NONE', #316, #237, #38, .T. ) ;
#304 = DIRECTION ( 'NONE',  ( -1.000000000000000000, 0.0000000000000000000, 1.367291288120251888E-16 ) ) ;
#305 = CLOSED_SHELL ( 'NONE', ( #58, #112, #25, #55, #286, #202, #182, #155, #193, #224, #17 ) ) ;
#306 = PRODUCT_RELATED_PRODUCT_CATEGORY ( 'part', '', ( #46 ) ) ;
#307 = ORIENTED_EDGE ( 'NONE', *, *, #218, .T. ) ;
#308 = DIRECTION ( 'NONE',  ( -1.224646799147353207E-16, -0.0000000000000000000, -1.000000000000000000 ) ) ;
#309 = ORIENTED_EDGE ( 'NONE', *, *, #240, .T. ) ;
#310 = PRESENTATION_LAYER_ASSIGNMENT (  '', '', ( #225 ) ) ;
#311 = CYLINDRICAL_SURFACE ( 'NONE', #234, 0.1248749999999999999 ) ;
#312 = VERTEX_POINT ( 'NONE', #107 ) ;
#313 = ORIENTED_EDGE ( 'NONE', *, *, #66, .T. ) ;
#314 = SURFACE_STYLE_FILL_AREA ( #119 ) ;
#315 = CIRCLE ( 'NONE', #126, 0.1100000000000001948 ) ;
#316 = VERTEX_POINT ( 'NONE', #5 ) ;
#317 = EDGE_CURVE ( 'NONE', #312, #90, #180, .T. ) ;
#318 = ORIENTED_EDGE ( 'NONE', *, *, #324, .T. ) ;
#319 = FACE_OUTER_BOUND ( 'NONE', #19, .T. ) ;
#320 = LINE ( 'NONE', #170, #26 ) ;
#321 = CIRCLE ( 'NONE', #175, 0.1248749999999999999 ) ;
#322 = COLOUR_RGB ( '',0.7921568627450980005, 0.8196078431372548767, 0.9333333333333333481 ) ;
#323 = ORIENTED_EDGE ( 'NONE', *, *, #93, .F. ) ;
#324 = EDGE_CURVE ( 'NONE', #254, #237, #11, .T. ) ;
#325 = DIRECTION ( 'NONE',  ( -1.000000000000000000, 0.0000000000000000000, 0.0000000000000000000 ) ) ;
ENDSEC;
END-ISO-10303-21;
