ISO-10303-21;
HEADER;
FILE_DESCRIPTION (( 'STEP AP214' ),
    '1' );
FILE_NAME ('81413.STEP',
    '2023-06-23T01:29:03',
    ( '' ),
    ( '' ),
    'SwSTEP 2.0',
    'SolidWorks 2023',
    '' );
FILE_SCHEMA (( 'AUTOMOTIVE_DESIGN' ));
ENDSEC;

DATA;
#1 = EDGE_CURVE ( 'NONE', #24, #234, #305, .T. ) ;
#2 = VERTEX_POINT ( 'NONE', #192 ) ;
#3 = ORIENTED_EDGE ( 'NONE', *, *, #216, .T. ) ;
#4 = AXIS2_PLACEMENT_3D ( 'NONE', #116, #240, #67 ) ;
#5 = CYLINDRICAL_SURFACE ( 'NONE', #43, 0.1875000000000000278 ) ;
#6 = EDGE_LOOP ( 'NONE', ( #123, #3 ) ) ;
#7 = CARTESIAN_POINT ( 'NONE',  ( 0.1874999999999999722, 3.000000000000000444, 2.296212748401288034E-17 ) ) ;
#8 = UNCERTAINTY_MEASURE_WITH_UNIT (LENGTH_MEASURE( 1.000000000000000082E-05 ), #239, 'distance_accuracy_value', 'NONE');
#9 = COLOUR_RGB ( '',0.7921568627450980005, 0.8196078431372548767, 0.9333333333333333481 ) ;
#10 = AXIS2_PLACEMENT_3D ( 'NONE', #309, #223, #176 ) ;
#11 = LENGTH_MEASURE_WITH_UNIT ( LENGTH_MEASURE( 0.02539999999999999897 ), #136 );
#12 = SURFACE_STYLE_USAGE ( .BOTH. , #103 ) ;
#13 = EDGE_CURVE ( 'NONE', #37, #234, #87, .T. ) ;
#14 = DIRECTION ( 'NONE',  ( -0.000000000000000000, -1.000000000000000000, -0.000000000000000000 ) ) ;
#15 = SURFACE_STYLE_USAGE ( .BOTH. , #92 ) ;
#16 = FILL_AREA_STYLE ('',( #173 ) ) ;
#17 = COLOUR_RGB ( '',1.000000000000000000, 0.000000000000000000, 0.000000000000000000 ) ;
#18 = DIRECTION ( 'NONE',  ( 0.000000000000000000, 0.000000000000000000, -1.000000000000000000 ) ) ;
#19 = FACE_OUTER_BOUND ( 'NONE', #102, .T. ) ;
#20 = SURFACE_SIDE_STYLE ('',( #178 ) ) ;
#21 = AXIS2_PLACEMENT_3D ( 'NONE', #184, #57, #163 ) ;
#22 =( GEOMETRIC_REPRESENTATION_CONTEXT ( 3 ) GLOBAL_UNCERTAINTY_ASSIGNED_CONTEXT ( ( #8 ) ) GLOBAL_UNIT_ASSIGNED_CONTEXT ( ( #239, #303, #286 ) ) REPRESENTATION_CONTEXT ( 'NONE', 'WORKASPACE' ) );
#23 = FILL_AREA_STYLE_COLOUR ( '', #45 ) ;
#24 = VERTEX_POINT ( 'NONE', #107 ) ;
#25 = PRODUCT_RELATED_PRODUCT_CATEGORY ( 'part', '', ( #84 ) ) ;
#26 = CARTESIAN_POINT ( 'NONE',  ( 2.296212748401287726E-17, 0.000000000000000000, 0.1875000000000000278 ) ) ;
#27 = COLOUR_RGB ( '',1.000000000000000000, 0.000000000000000000, 0.000000000000000000 ) ;
#28 =( NAMED_UNIT ( * ) SI_UNIT ( $, .STERADIAN. ) SOLID_ANGLE_UNIT ( ) );
#29 = FILL_AREA_STYLE ('',( #83 ) ) ;
#30 = ADVANCED_FACE ( 'NONE', ( #104 ), #60, .F. ) ;
#31 = DIRECTION ( 'NONE',  ( -0.000000000000000000, -1.000000000000000000, -0.000000000000000000 ) ) ;
#32 = ORIENTED_EDGE ( 'NONE', *, *, #52, .F. ) ;
#33 = DIMENSIONAL_EXPONENTS ( 1.000000000000000000, 0.000000000000000000, 0.000000000000000000, 0.000000000000000000, 0.000000000000000000, 0.000000000000000000, 0.000000000000000000 ) ;
#34 = PRESENTATION_STYLE_ASSIGNMENT (( #12 ) ) ;
#35 = CLOSED_SHELL ( 'NONE', ( #198, #38, #293, #189 ) ) ;
#36 =( GEOMETRIC_REPRESENTATION_CONTEXT ( 3 ) GLOBAL_UNCERTAINTY_ASSIGNED_CONTEXT ( ( #151 ) ) GLOBAL_UNIT_ASSIGNED_CONTEXT ( ( #79, #252, #133 ) ) REPRESENTATION_CONTEXT ( 'NONE', 'WORKASPACE' ) );
#37 = VERTEX_POINT ( 'NONE', #80 ) ;
#38 = ADVANCED_FACE ( 'NONE', ( #233 ), #64, .T. ) ;
#39 = PRODUCT_CONTEXT ( 'NONE', #304, 'mechanical' ) ;
#40 = DIRECTION ( 'NONE',  ( 0.000000000000000000, -0.000000000000000000, 1.000000000000000000 ) ) ;
#41 = PRESENTATION_STYLE_ASSIGNMENT (( #15 ) ) ;
#42 = FILL_AREA_STYLE ('',( #69 ) ) ;
#43 = AXIS2_PLACEMENT_3D ( 'NONE', #50, #294, #76 ) ;
#44 = DIRECTION ( 'NONE',  ( -0.000000000000000000, -1.000000000000000000, -0.000000000000000000 ) ) ;
#45 = COLOUR_RGB ( '',0.7921568627450980005, 0.8196078431372548767, 0.9333333333333333481 ) ;
#46 = EDGE_CURVE ( 'NONE', #126, #159, #114, .T. ) ;
#47 = DIRECTION ( 'NONE',  ( -3.498990854706726443E-17, 1.000000000000000000, -0.000000000000000000 ) ) ;
#48 = PRESENTATION_STYLE_ASSIGNMENT (( #153 ) ) ;
#49 = ORIENTED_EDGE ( 'NONE', *, *, #46, .F. ) ;
#50 = CARTESIAN_POINT ( 'NONE',  ( 0.000000000000000000, 0.000000000000000000, 0.000000000000000000 ) ) ;
#51 = EDGE_LOOP ( 'NONE', ( #140, #254 ) ) ;
#52 = EDGE_CURVE ( 'NONE', #159, #126, #155, .T. ) ;
#53 = DIRECTION ( 'NONE',  ( -3.498990854706726443E-17, 1.000000000000000000, -0.000000000000000000 ) ) ;
#54 =( LENGTH_UNIT ( ) NAMED_UNIT ( * ) SI_UNIT ( $, .METRE. ) );
#55 = CIRCLE ( 'NONE', #280, 0.1875000000000000278 ) ;
#56 = PRODUCT_DEFINITION_FORMATION_WITH_SPECIFIED_SOURCE ( 'ANY', '', #84, .NOT_KNOWN. ) ;
#57 = DIRECTION ( 'NONE',  ( -0.000000000000000000, -1.000000000000000000, -0.000000000000000000 ) ) ;
#58 = ORIENTED_EDGE ( 'NONE', *, *, #229, .F. ) ;
#59 =( LENGTH_UNIT ( ) NAMED_UNIT ( * ) SI_UNIT ( $, .METRE. ) );
#60 = PLANE ( 'NONE',  #89 ) ;
#61 = EDGE_CURVE ( 'NONE', #78, #2, #55, .T. ) ;
#62 = APPLICATION_PROTOCOL_DEFINITION ( 'draft international standard', 'automotive_design', 1998, #304 ) ;
#63 = DIMENSIONAL_EXPONENTS ( 1.000000000000000000, 0.000000000000000000, 0.000000000000000000, 0.000000000000000000, 0.000000000000000000, 0.000000000000000000, 0.000000000000000000 ) ;
#64 = PLANE ( 'NONE',  #197 ) ;
#65 = EDGE_LOOP ( 'NONE', ( #86, #273, #74, #249 ) ) ;
#66 = PRESENTATION_LAYER_ASSIGNMENT (  '', '', ( #145 ) ) ;
#67 = DIRECTION ( 'NONE',  ( 1.000000000000000000, 3.498990854706726443E-17, 0.000000000000000000 ) ) ;
#68 = PLANE ( 'NONE',  #218 ) ;
#69 = FILL_AREA_STYLE_COLOUR ( '', #9 ) ;
#70 = VECTOR ( 'NONE', #44, 39.37007874015748143 ) ;
#71 = MANIFOLD_SOLID_BREP ( 'Revolve - Cutting Edge', #35 ) ;
#72 = CIRCLE ( 'NONE', #10, 0.1875000000000000278 ) ;
#73 = FILL_AREA_STYLE_COLOUR ( '', #190 ) ;
#74 = ORIENTED_EDGE ( 'NONE', *, *, #143, .T. ) ;
#75 = ORIENTED_EDGE ( 'NONE', *, *, #299, .F. ) ;
#76 = DIRECTION ( 'NONE',  ( 0.000000000000000000, 0.000000000000000000, -1.000000000000000000 ) ) ;
#77 = EDGE_LOOP ( 'NONE', ( #32, #49 ) ) ;
#78 = VERTEX_POINT ( 'NONE', #170 ) ;
#79 =( CONVERSION_BASED_UNIT ( 'INCH', #232 ) LENGTH_UNIT ( ) NAMED_UNIT ( #227 ) );
#80 = CARTESIAN_POINT ( 'NONE',  ( 0.1875000000000000278, 1.250000000000000000, 2.296212748401288342E-17 ) ) ;
#81 = AXIS2_PLACEMENT_3D ( 'NONE', #236, #14, #112 ) ;
#82 = DIRECTION ( 'NONE',  ( 0.000000000000000000, 0.000000000000000000, -1.000000000000000000 ) ) ;
#83 = FILL_AREA_STYLE_COLOUR ( '', #27 ) ;
#84 = PRODUCT ( '81413', '81413', '', ( #39 ) ) ;
#85 = DIRECTION ( 'NONE',  ( -1.000000000000000000, 0.000000000000000000, 0.000000000000000000 ) ) ;
#86 = ORIENTED_EDGE ( 'NONE', *, *, #13, .F. ) ;
#87 = LINE ( 'NONE', #7, #199 ) ;
#88 = FACE_OUTER_BOUND ( 'NONE', #256, .T. ) ;
#89 = AXIS2_PLACEMENT_3D ( 'NONE', #109, #206, #231 ) ;
#90 = AXIS2_PLACEMENT_3D ( 'NONE', #124, #160, #248 ) ;
#91 = UNCERTAINTY_MEASURE_WITH_UNIT (LENGTH_MEASURE( 1.000000000000000082E-05 ), #300, 'distance_accuracy_value', 'NONE');
#92 = SURFACE_SIDE_STYLE ('',( #284 ) ) ;
#93 = SURFACE_STYLE_FILL_AREA ( #16 ) ;
#94 = SURFACE_SIDE_STYLE ('',( #243 ) ) ;
#95 = MECHANICAL_DESIGN_GEOMETRIC_PRESENTATION_REPRESENTATION (  '', ( #145 ), #246 ) ;
#96 =( LENGTH_UNIT ( ) NAMED_UNIT ( * ) SI_UNIT ( $, .METRE. ) );
#97 = LENGTH_MEASURE_WITH_UNIT ( LENGTH_MEASURE( 0.02539999999999999897 ), #96 );
#98 = CARTESIAN_POINT ( 'NONE',  ( -6.123233995736772199E-17, 3.000000000000000444, 0.000000000000000000 ) ) ;
#99 = STYLED_ITEM ( 'NONE', ( #277 ), #38 ) ;
#100 = CIRCLE ( 'NONE', #270, 0.1875000000000000278 ) ;
#101 = LENGTH_MEASURE_WITH_UNIT ( LENGTH_MEASURE( 0.02539999999999999897 ), #269 );
#102 = EDGE_LOOP ( 'NONE', ( #156, #161, #75, #271 ) ) ;
#103 = SURFACE_SIDE_STYLE ('',( #111 ) ) ;
#104 = FACE_OUTER_BOUND ( 'NONE', #51, .T. ) ;
#105 =( GEOMETRIC_REPRESENTATION_CONTEXT ( 3 ) GLOBAL_UNCERTAINTY_ASSIGNED_CONTEXT ( ( #174 ) ) GLOBAL_UNIT_ASSIGNED_CONTEXT ( ( #291, #301, #28 ) ) REPRESENTATION_CONTEXT ( 'NONE', 'WORKASPACE' ) );
#106 = DIRECTION ( 'NONE',  ( -3.498990854706726443E-17, 1.000000000000000000, -0.000000000000000000 ) ) ;
#107 = CARTESIAN_POINT ( 'NONE',  ( -0.1875000000000001388, 3.000000000000000444, 0.000000000000000000 ) ) ;
#108 = ADVANCED_FACE ( 'NONE', ( #308 ), #263, .F. ) ;
#109 = CARTESIAN_POINT ( 'NONE',  ( 1.147775343873872857E-34, 1.250000000000000000, 0.000000000000000000 ) ) ;
#110 = PRODUCT_DEFINITION_SHAPE ( 'NONE', 'NONE',  #120 ) ;
#111 = SURFACE_STYLE_FILL_AREA ( #276 ) ;
#112 = DIRECTION ( 'NONE',  ( 0.000000000000000000, 0.000000000000000000, -1.000000000000000000 ) ) ;
#113 = UNCERTAINTY_MEASURE_WITH_UNIT (LENGTH_MEASURE( 1.000000000000000082E-05 ), #260, 'distance_accuracy_value', 'NONE');
#114 = CIRCLE ( 'NONE', #81, 0.1875000000000000278 ) ;
#115 = CARTESIAN_POINT ( 'NONE',  ( -0.1875000000000001110, 3.000000000000000444, 0.000000000000000000 ) ) ;
#116 = CARTESIAN_POINT ( 'NONE',  ( 0.1875000000000000278, 3.000000000000000444, 0.000000000000000000 ) ) ;
#117 = MECHANICAL_DESIGN_GEOMETRIC_PRESENTATION_REPRESENTATION (  '', ( #148 ), #275 ) ;
#118 = PRESENTATION_STYLE_ASSIGNMENT (( #214 ) ) ;
#119 = CIRCLE ( 'NONE', #150, 0.1875000000000000278 ) ;
#120 = PRODUCT_DEFINITION ( 'UNKNOWN', '', #56, #168 ) ;
#121 = DIRECTION ( 'NONE',  ( -3.498990854706726443E-17, 1.000000000000000000, -0.000000000000000000 ) ) ;
#122 =( NAMED_UNIT ( * ) PLANE_ANGLE_UNIT ( ) SI_UNIT ( $, .RADIAN. ) );
#123 = ORIENTED_EDGE ( 'NONE', *, *, #1, .T. ) ;
#124 = CARTESIAN_POINT ( 'NONE',  ( -6.123233995736772199E-17, 3.000000000000000444, 0.000000000000000000 ) ) ;
#125 = DIRECTION ( 'NONE',  ( -0.000000000000000000, -1.000000000000000000, -0.000000000000000000 ) ) ;
#126 = VERTEX_POINT ( 'NONE', #196 ) ;
#127 = LINE ( 'NONE', #26, #242 ) ;
#128 = DIRECTION ( 'NONE',  ( -1.000000000000000000, 0.000000000000000000, 0.000000000000000000 ) ) ;
#129 = ORIENTED_EDGE ( 'NONE', *, *, #299, .T. ) ;
#130 = PRESENTATION_LAYER_ASSIGNMENT (  '', '', ( #162 ) ) ;
#131 = AXIS2_PLACEMENT_3D ( 'NONE', #98, #47, #244 ) ;
#132 = ORIENTED_EDGE ( 'NONE', *, *, #13, .T. ) ;
#133 =( NAMED_UNIT ( * ) SI_UNIT ( $, .STERADIAN. ) SOLID_ANGLE_UNIT ( ) );
#134 = DIRECTION ( 'NONE',  ( -3.498990854706726443E-17, 1.000000000000000000, -0.000000000000000000 ) ) ;
#135 = DIRECTION ( 'NONE',  ( -0.000000000000000000, -1.000000000000000000, -0.000000000000000000 ) ) ;
#136 =( LENGTH_UNIT ( ) NAMED_UNIT ( * ) SI_UNIT ( $, .METRE. ) );
#137 = AXIS2_PLACEMENT_3D ( 'NONE', #204, #134, #188 ) ;
#138 = COLOUR_RGB ( '',1.000000000000000000, 0.000000000000000000, 0.000000000000000000 ) ;
#139 = LENGTH_MEASURE_WITH_UNIT ( LENGTH_MEASURE( 0.02539999999999999897 ), #59 );
#140 = ORIENTED_EDGE ( 'NONE', *, *, #289, .F. ) ;
#141 = CARTESIAN_POINT ( 'NONE',  ( 0.000000000000000000, 1.250000000000000000, 0.000000000000000000 ) ) ;
#142 = APPLICATION_CONTEXT ( 'automotive_design' ) ;
#143 = EDGE_CURVE ( 'NONE', #203, #24, #144, .T. ) ;
#144 = LINE ( 'NONE', #115, #238 ) ;
#145 = STYLED_ITEM ( 'NONE', ( #118 ), #189 ) ;
#146 = DIRECTION ( 'NONE',  ( 0.000000000000000000, 0.000000000000000000, -1.000000000000000000 ) ) ;
#147 =( LENGTH_UNIT ( ) NAMED_UNIT ( * ) SI_UNIT ( $, .METRE. ) );
#148 = STYLED_ITEM ( 'NONE', ( #48 ), #198 ) ;
#149 = DIRECTION ( 'NONE',  ( 0.000000000000000000, -1.000000000000000000, -0.000000000000000000 ) ) ;
#150 = AXIS2_PLACEMENT_3D ( 'NONE', #185, #135, #82 ) ;
#151 = UNCERTAINTY_MEASURE_WITH_UNIT (LENGTH_MEASURE( 1.000000000000000082E-05 ), #79, 'distance_accuracy_value', 'NONE');
#152 = CARTESIAN_POINT ( 'NONE',  ( -6.123233995736772199E-17, 3.000000000000000444, 0.000000000000000000 ) ) ;
#153 = SURFACE_STYLE_USAGE ( .BOTH. , #20 ) ;
#154 = CYLINDRICAL_SURFACE ( 'NONE', #131, 0.1875000000000000555 ) ;
#155 = CIRCLE ( 'NONE', #21, 0.1875000000000000278 ) ;
#156 = ORIENTED_EDGE ( 'NONE', *, *, #52, .T. ) ;
#157 =( GEOMETRIC_REPRESENTATION_CONTEXT ( 3 ) GLOBAL_UNCERTAINTY_ASSIGNED_CONTEXT ( ( #241 ) ) GLOBAL_UNIT_ASSIGNED_CONTEXT ( ( #255, #181, #166 ) ) REPRESENTATION_CONTEXT ( 'NONE', 'WORKASPACE' ) );
#158 = FACE_OUTER_BOUND ( 'NONE', #169, .T. ) ;
#159 = VERTEX_POINT ( 'NONE', #172 ) ;
#160 = DIRECTION ( 'NONE',  ( -3.498990854706726443E-17, 1.000000000000000000, -0.000000000000000000 ) ) ;
#161 = ORIENTED_EDGE ( 'NONE', *, *, #229, .T. ) ;
#162 = STYLED_ITEM ( 'NONE', ( #41 ), #71 ) ;
#163 = DIRECTION ( 'NONE',  ( 0.000000000000000000, 0.000000000000000000, -1.000000000000000000 ) ) ;
#164 = EDGE_CURVE ( 'NONE', #159, #2, #264, .T. ) ;
#165 = SURFACE_SIDE_STYLE ('',( #282 ) ) ;
#166 =( NAMED_UNIT ( * ) SI_UNIT ( $, .STERADIAN. ) SOLID_ANGLE_UNIT ( ) );
#167 = DIRECTION ( 'NONE',  ( 0.000000000000000000, 1.000000000000000000, 0.000000000000000000 ) ) ;
#168 = PRODUCT_DEFINITION_CONTEXT ( 'detailed design', #142, 'design' ) ;
#169 = EDGE_LOOP ( 'NONE', ( #213, #132, #225, #268 ) ) ;
#170 = CARTESIAN_POINT ( 'NONE',  ( 2.296212748401287726E-17, 0.000000000000000000, 0.1875000000000000278 ) ) ;
#171 =( GEOMETRIC_REPRESENTATION_CONTEXT ( 3 ) GLOBAL_UNCERTAINTY_ASSIGNED_CONTEXT ( ( #91 ) ) GLOBAL_UNIT_ASSIGNED_CONTEXT ( ( #300, #208, #278 ) ) REPRESENTATION_CONTEXT ( 'NONE', 'WORKASPACE' ) );
#172 = CARTESIAN_POINT ( 'NONE',  ( 0.000000000000000000, 1.250000000000000000, -0.1875000000000000278 ) ) ;
#173 = FILL_AREA_STYLE_COLOUR ( '', #17 ) ;
#174 = UNCERTAINTY_MEASURE_WITH_UNIT (LENGTH_MEASURE( 1.000000000000000082E-05 ), #291, 'distance_accuracy_value', 'NONE');
#175 =( NAMED_UNIT ( * ) PLANE_ANGLE_UNIT ( ) SI_UNIT ( $, .RADIAN. ) );
#176 = DIRECTION ( 'NONE',  ( -1.000000000000000000, 0.000000000000000000, 0.000000000000000000 ) ) ;
#177 = CARTESIAN_POINT ( 'NONE',  ( 0.000000000000000000, 1.250000000000000000, 0.000000000000000000 ) ) ;
#178 = SURFACE_STYLE_FILL_AREA ( #250 ) ;
#179 = CYLINDRICAL_SURFACE ( 'NONE', #191, 0.1875000000000000555 ) ;
#180 = DIMENSIONAL_EXPONENTS ( 1.000000000000000000, 0.000000000000000000, 0.000000000000000000, 0.000000000000000000, 0.000000000000000000, 0.000000000000000000, 0.000000000000000000 ) ;
#181 =( NAMED_UNIT ( * ) PLANE_ANGLE_UNIT ( ) SI_UNIT ( $, .RADIAN. ) );
#182 = ORIENTED_EDGE ( 'NONE', *, *, #61, .F. ) ;
#183 = DIRECTION ( 'NONE',  ( 1.000000000000000000, 0.000000000000000000, 0.000000000000000000 ) ) ;
#184 = CARTESIAN_POINT ( 'NONE',  ( 0.000000000000000000, 1.250000000000000000, 0.000000000000000000 ) ) ;
#185 = CARTESIAN_POINT ( 'NONE',  ( 0.000000000000000000, 0.000000000000000000, 0.000000000000000000 ) ) ;
#186 = ORIENTED_EDGE ( 'NONE', *, *, #61, .T. ) ;
#187 = DIMENSIONAL_EXPONENTS ( 1.000000000000000000, 0.000000000000000000, 0.000000000000000000, 0.000000000000000000, 0.000000000000000000, 0.000000000000000000, 0.000000000000000000 ) ;
#188 = DIRECTION ( 'NONE',  ( -1.000000000000000000, 0.000000000000000000, 0.000000000000000000 ) ) ;
#189 = ADVANCED_FACE ( 'NONE', ( #88 ), #68, .T. ) ;
#190 = COLOUR_RGB ( '',1.000000000000000000, 0.000000000000000000, 0.000000000000000000 ) ;
#191 = AXIS2_PLACEMENT_3D ( 'NONE', #152, #53, #128 ) ;
#192 = CARTESIAN_POINT ( 'NONE',  ( 0.000000000000000000, 0.000000000000000000, -0.1875000000000000278 ) ) ;
#193 = APPLICATION_PROTOCOL_DEFINITION ( 'draft international standard', 'automotive_design', 1998, #142 ) ;
#194 = AXIS2_PLACEMENT_3D ( 'NONE', #230, #235, #183 ) ;
#195 = LENGTH_MEASURE_WITH_UNIT ( LENGTH_MEASURE( 0.02539999999999999897 ), #215 );
#196 = CARTESIAN_POINT ( 'NONE',  ( 2.296212748401287726E-17, 1.250000000000000000, 0.1875000000000000278 ) ) ;
#197 = AXIS2_PLACEMENT_3D ( 'NONE', #141, #167, #40 ) ;
#198 = ADVANCED_FACE ( 'NONE', ( #19 ), #5, .T. ) ;
#199 = VECTOR ( 'NONE', #302, 39.37007874015748143 ) ;
#200 = AXIS2_PLACEMENT_3D ( 'NONE', #210, #205, #207 ) ;
#201 = DIMENSIONAL_EXPONENTS ( 1.000000000000000000, 0.000000000000000000, 0.000000000000000000, 0.000000000000000000, 0.000000000000000000, 0.000000000000000000, 0.000000000000000000 ) ;
#202 =( NAMED_UNIT ( * ) SI_UNIT ( $, .STERADIAN. ) SOLID_ANGLE_UNIT ( ) );
#203 = VERTEX_POINT ( 'NONE', #272 ) ;
#204 = CARTESIAN_POINT ( 'NONE',  ( -6.123233995736772199E-17, 3.000000000000000444, 0.000000000000000000 ) ) ;
#205 = DIRECTION ( 'NONE',  ( -0.000000000000000000, -1.000000000000000000, -0.000000000000000000 ) ) ;
#206 = DIRECTION ( 'NONE',  ( -3.498990854706726443E-17, 1.000000000000000000, 0.000000000000000000 ) ) ;
#207 = DIRECTION ( 'NONE',  ( 0.000000000000000000, 0.000000000000000000, -1.000000000000000000 ) ) ;
#208 =( NAMED_UNIT ( * ) PLANE_ANGLE_UNIT ( ) SI_UNIT ( $, .RADIAN. ) );
#209 = DIMENSIONAL_EXPONENTS ( 1.000000000000000000, 0.000000000000000000, 0.000000000000000000, 0.000000000000000000, 0.000000000000000000, 0.000000000000000000, 0.000000000000000000 ) ;
#210 = CARTESIAN_POINT ( 'NONE',  ( 0.000000000000000000, 0.000000000000000000, 0.000000000000000000 ) ) ;
#211 = ADVANCED_FACE ( 'NONE', ( #158 ), #154, .T. ) ;
#212 = SURFACE_STYLE_USAGE ( .BOTH. , #165 ) ;
#213 = ORIENTED_EDGE ( 'NONE', *, *, #289, .T. ) ;
#214 = SURFACE_STYLE_USAGE ( .BOTH. , #237 ) ;
#215 =( LENGTH_UNIT ( ) NAMED_UNIT ( * ) SI_UNIT ( $, .METRE. ) );
#216 = EDGE_CURVE ( 'NONE', #234, #24, #220, .T. ) ;
#217 =( NAMED_UNIT ( * ) SI_UNIT ( $, .STERADIAN. ) SOLID_ANGLE_UNIT ( ) );
#218 = AXIS2_PLACEMENT_3D ( 'NONE', #265, #149, #18 ) ;
#219 = PRESENTATION_LAYER_ASSIGNMENT (  '', '', ( #258 ) ) ;
#220 = CIRCLE ( 'NONE', #90, 0.1875000000000000833 ) ;
#221 = PRESENTATION_STYLE_ASSIGNMENT (( #267 ) ) ;
#222 = PRESENTATION_LAYER_ASSIGNMENT (  '', '', ( #285 ) ) ;
#223 = DIRECTION ( 'NONE',  ( -3.498990854706726443E-17, 1.000000000000000000, -0.000000000000000000 ) ) ;
#224 =( CONVERSION_BASED_UNIT ( 'INCH', #101 ) LENGTH_UNIT ( ) NAMED_UNIT ( #63 ) );
#225 = ORIENTED_EDGE ( 'NONE', *, *, #1, .F. ) ;
#226 = FILL_AREA_STYLE ('',( #23 ) ) ;
#227 = DIMENSIONAL_EXPONENTS ( 1.000000000000000000, 0.000000000000000000, 0.000000000000000000, 0.000000000000000000, 0.000000000000000000, 0.000000000000000000, 0.000000000000000000 ) ;
#228 = EDGE_LOOP ( 'NONE', ( #58, #295, #298, #182 ) ) ;
#229 = EDGE_CURVE ( 'NONE', #126, #78, #127, .T. ) ;
#230 = CARTESIAN_POINT ( 'NONE',  ( 0.000000000000000000, 0.000000000000000000, 0.000000000000000000 ) ) ;
#231 = DIRECTION ( 'NONE',  ( -1.000000000000000000, -3.498990854706726443E-17, 0.000000000000000000 ) ) ;
#232 = LENGTH_MEASURE_WITH_UNIT ( LENGTH_MEASURE( 0.02539999999999999897 ), #54 );
#233 = FACE_OUTER_BOUND ( 'NONE', #77, .T. ) ;
#234 = VERTEX_POINT ( 'NONE', #251 ) ;
#235 = DIRECTION ( 'NONE',  ( 0.000000000000000000, 0.000000000000000000, 1.000000000000000000 ) ) ;
#236 = CARTESIAN_POINT ( 'NONE',  ( 0.000000000000000000, 1.250000000000000000, 0.000000000000000000 ) ) ;
#237 = SURFACE_SIDE_STYLE ('',( #93 ) ) ;
#238 = VECTOR ( 'NONE', #121, 39.37007874015748143 ) ;
#239 =( CONVERSION_BASED_UNIT ( 'INCH', #195 ) LENGTH_UNIT ( ) NAMED_UNIT ( #33 ) );
#240 = DIRECTION ( 'NONE',  ( 3.498990854706726443E-17, -1.000000000000000000, 0.000000000000000000 ) ) ;
#241 = UNCERTAINTY_MEASURE_WITH_UNIT (LENGTH_MEASURE( 1.000000000000000082E-05 ), #255, 'distance_accuracy_value', 'NONE');
#242 = VECTOR ( 'NONE', #125, 39.37007874015748143 ) ;
#243 = SURFACE_STYLE_FILL_AREA ( #226 ) ;
#244 = DIRECTION ( 'NONE',  ( -1.000000000000000000, 0.000000000000000000, 0.000000000000000000 ) ) ;
#245 = SHAPE_DEFINITION_REPRESENTATION ( #110, #290 ) ;
#246 =( GEOMETRIC_REPRESENTATION_CONTEXT ( 3 ) GLOBAL_UNCERTAINTY_ASSIGNED_CONTEXT ( ( #113 ) ) GLOBAL_UNIT_ASSIGNED_CONTEXT ( ( #260, #175, #217 ) ) REPRESENTATION_CONTEXT ( 'NONE', 'WORKASPACE' ) );
#247 = MECHANICAL_DESIGN_GEOMETRIC_PRESENTATION_REPRESENTATION (  '', ( #258 ), #105 ) ;
#248 = DIRECTION ( 'NONE',  ( -1.000000000000000000, 0.000000000000000000, 0.000000000000000000 ) ) ;
#249 = ORIENTED_EDGE ( 'NONE', *, *, #216, .F. ) ;
#250 = FILL_AREA_STYLE ('',( #73 ) ) ;
#251 = CARTESIAN_POINT ( 'NONE',  ( 0.1875000000000000278, 3.000000000000000444, 2.296212748401288342E-17 ) ) ;
#252 =( NAMED_UNIT ( * ) PLANE_ANGLE_UNIT ( ) SI_UNIT ( $, .RADIAN. ) );
#253 = CARTESIAN_POINT ( 'NONE',  ( 0.000000000000000000, 0.000000000000000000, 0.000000000000000000 ) ) ;
#254 = ORIENTED_EDGE ( 'NONE', *, *, #259, .F. ) ;
#255 =( CONVERSION_BASED_UNIT ( 'INCH', #139 ) LENGTH_UNIT ( ) NAMED_UNIT ( #180 ) );
#256 = EDGE_LOOP ( 'NONE', ( #129, #186 ) ) ;
#257 = PRESENTATION_LAYER_ASSIGNMENT (  '', '', ( #148 ) ) ;
#258 = STYLED_ITEM ( 'NONE', ( #221 ), #283 ) ;
#259 = EDGE_CURVE ( 'NONE', #37, #203, #72, .T. ) ;
#260 =( CONVERSION_BASED_UNIT ( 'INCH', #307 ) LENGTH_UNIT ( ) NAMED_UNIT ( #209 ) );
#261 = PRESENTATION_LAYER_ASSIGNMENT (  '', '', ( #99 ) ) ;
#262 = ADVANCED_FACE ( 'NONE', ( #292 ), #179, .T. ) ;
#263 = PLANE ( 'NONE',  #4 ) ;
#264 = LINE ( 'NONE', #287, #70 ) ;
#265 = CARTESIAN_POINT ( 'NONE',  ( 0.000000000000000000, 0.000000000000000000, 0.000000000000000000 ) ) ;
#266 = CLOSED_SHELL ( 'NONE', ( #211, #30, #262, #108 ) ) ;
#267 = SURFACE_STYLE_USAGE ( .BOTH. , #94 ) ;
#268 = ORIENTED_EDGE ( 'NONE', *, *, #143, .F. ) ;
#269 =( LENGTH_UNIT ( ) NAMED_UNIT ( * ) SI_UNIT ( $, .METRE. ) );
#270 = AXIS2_PLACEMENT_3D ( 'NONE', #177, #106, #85 ) ;
#271 = ORIENTED_EDGE ( 'NONE', *, *, #164, .F. ) ;
#272 = CARTESIAN_POINT ( 'NONE',  ( -0.1875000000000000278, 1.250000000000000000, 0.000000000000000000 ) ) ;
#273 = ORIENTED_EDGE ( 'NONE', *, *, #259, .T. ) ;
#274 = FILL_AREA_STYLE_COLOUR ( '', #138 ) ;
#275 =( GEOMETRIC_REPRESENTATION_CONTEXT ( 3 ) GLOBAL_UNCERTAINTY_ASSIGNED_CONTEXT ( ( #281 ) ) GLOBAL_UNIT_ASSIGNED_CONTEXT ( ( #224, #122, #202 ) ) REPRESENTATION_CONTEXT ( 'NONE', 'WORKASPACE' ) );
#276 = FILL_AREA_STYLE ('',( #274 ) ) ;
#277 = PRESENTATION_STYLE_ASSIGNMENT (( #212 ) ) ;
#278 =( NAMED_UNIT ( * ) SI_UNIT ( $, .STERADIAN. ) SOLID_ANGLE_UNIT ( ) );
#279 = CYLINDRICAL_SURFACE ( 'NONE', #200, 0.1875000000000000278 ) ;
#280 = AXIS2_PLACEMENT_3D ( 'NONE', #253, #31, #146 ) ;
#281 = UNCERTAINTY_MEASURE_WITH_UNIT (LENGTH_MEASURE( 1.000000000000000082E-05 ), #224, 'distance_accuracy_value', 'NONE');
#282 = SURFACE_STYLE_FILL_AREA ( #29 ) ;
#283 = MANIFOLD_SOLID_BREP ( 'Revolve - Tool Body (Straight Shanked)', #266 ) ;
#284 = SURFACE_STYLE_FILL_AREA ( #42 ) ;
#285 = STYLED_ITEM ( 'NONE', ( #34 ), #293 ) ;
#286 =( NAMED_UNIT ( * ) SI_UNIT ( $, .STERADIAN. ) SOLID_ANGLE_UNIT ( ) );
#287 = CARTESIAN_POINT ( 'NONE',  ( 0.000000000000000000, 0.000000000000000000, -0.1875000000000000278 ) ) ;
#288 = MECHANICAL_DESIGN_GEOMETRIC_PRESENTATION_REPRESENTATION (  '', ( #162 ), #22 ) ;
#289 = EDGE_CURVE ( 'NONE', #203, #37, #100, .T. ) ;
#290 = ADVANCED_BREP_SHAPE_REPRESENTATION ( '81413', ( #71, #283, #194 ), #36 ) ;
#291 =( CONVERSION_BASED_UNIT ( 'INCH', #97 ) LENGTH_UNIT ( ) NAMED_UNIT ( #201 ) );
#292 = FACE_OUTER_BOUND ( 'NONE', #65, .T. ) ;
#293 = ADVANCED_FACE ( 'NONE', ( #296 ), #279, .T. ) ;
#294 = DIRECTION ( 'NONE',  ( -0.000000000000000000, -1.000000000000000000, -0.000000000000000000 ) ) ;
#295 = ORIENTED_EDGE ( 'NONE', *, *, #46, .T. ) ;
#296 = FACE_OUTER_BOUND ( 'NONE', #228, .T. ) ;
#297 = MECHANICAL_DESIGN_GEOMETRIC_PRESENTATION_REPRESENTATION (  '', ( #99 ), #171 ) ;
#298 = ORIENTED_EDGE ( 'NONE', *, *, #164, .T. ) ;
#299 = EDGE_CURVE ( 'NONE', #2, #78, #119, .T. ) ;
#300 =( CONVERSION_BASED_UNIT ( 'INCH', #11 ) LENGTH_UNIT ( ) NAMED_UNIT ( #187 ) );
#301 =( NAMED_UNIT ( * ) PLANE_ANGLE_UNIT ( ) SI_UNIT ( $, .RADIAN. ) );
#302 = DIRECTION ( 'NONE',  ( -3.498990854706726443E-17, 1.000000000000000000, -0.000000000000000000 ) ) ;
#303 =( NAMED_UNIT ( * ) PLANE_ANGLE_UNIT ( ) SI_UNIT ( $, .RADIAN. ) );
#304 = APPLICATION_CONTEXT ( 'automotive_design' ) ;
#305 = CIRCLE ( 'NONE', #137, 0.1875000000000000833 ) ;
#306 = MECHANICAL_DESIGN_GEOMETRIC_PRESENTATION_REPRESENTATION (  '', ( #285 ), #157 ) ;
#307 = LENGTH_MEASURE_WITH_UNIT ( LENGTH_MEASURE( 0.02539999999999999897 ), #147 );
#308 = FACE_OUTER_BOUND ( 'NONE', #6, .T. ) ;
#309 = CARTESIAN_POINT ( 'NONE',  ( 0.000000000000000000, 1.250000000000000000, 0.000000000000000000 ) ) ;
ENDSEC;
END-ISO-10303-21;
