ISO-10303-21;
HEADER;
FILE_DESCRIPTION (( 'STEP AP214' ),
    '1' );
FILE_NAME ('24242.STEP',
    '2023-06-22T17:04:54',
    ( '' ),
    ( '' ),
    'SwSTEP 2.0',
    'SolidWorks 2023',
    '' );
FILE_SCHEMA (( 'AUTOMOTIVE_DESIGN' ));
ENDSEC;

DATA;
#1 =( NAMED_UNIT ( * ) SI_UNIT ( $, .STERADIAN. ) SOLID_ANGLE_UNIT ( ) );
#2 = SURFACE_STYLE_USAGE ( .BOTH. , #120 ) ;
#3 = STYLED_ITEM ( 'NONE', ( #236 ), #105 ) ;
#4 = ADVANCED_FACE ( 'NONE', ( #178 ), #189, .T. ) ;
#5 =( CONVERSION_BASED_UNIT ( 'INCH', #218 ) LENGTH_UNIT ( ) NAMED_UNIT ( #171 ) );
#6 = EDGE_CURVE ( 'NONE', #114, #278, #283, .T. ) ;
#7 = MECHANICAL_DESIGN_GEOMETRIC_PRESENTATION_REPRESENTATION (  '', ( #3 ), #223 ) ;
#8 = DIRECTION ( 'NONE',  ( 1.259636707694420928E-16, 1.000000000000000000, -0.000000000000000000 ) ) ;
#9 = PRESENTATION_STYLE_ASSIGNMENT (( #108 ) ) ;
#10 =( CONVERSION_BASED_UNIT ( 'INCH', #176 ) LENGTH_UNIT ( ) NAMED_UNIT ( #142 ) );
#11 = MECHANICAL_DESIGN_GEOMETRIC_PRESENTATION_REPRESENTATION (  '', ( #241 ), #73 ) ;
#12 = CARTESIAN_POINT ( 'NONE',  ( 2.678914873134834756E-17, 0.000000000000000000, 0.2187499999999999445 ) ) ;
#13 = PRESENTATION_LAYER_ASSIGNMENT (  '', '', ( #152 ) ) ;
#14 = DIRECTION ( 'NONE',  ( -1.000000000000000000, 1.259636707694420928E-16, 0.000000000000000000 ) ) ;
#15 = DIRECTION ( 'NONE',  ( -0.000000000000000000, -1.000000000000000000, -0.000000000000000000 ) ) ;
#16 = EDGE_LOOP ( 'NONE', ( #83, #109, #65, #305 ) ) ;
#17 = CYLINDRICAL_SURFACE ( 'NONE', #198, 0.2187499999999999445 ) ;
#18 = ORIENTED_EDGE ( 'NONE', *, *, #77, .T. ) ;
#19 = DIRECTION ( 'NONE',  ( -0.000000000000000000, -1.000000000000000000, -0.000000000000000000 ) ) ;
#20 = PRESENTATION_LAYER_ASSIGNMENT (  '', '', ( #3 ) ) ;
#21 = COLOUR_RGB ( '',0.7921568627450980005, 0.8196078431372548767, 0.9333333333333333481 ) ;
#22 = SURFACE_STYLE_USAGE ( .BOTH. , #24 ) ;
#23 = ORIENTED_EDGE ( 'NONE', *, *, #116, .T. ) ;
#24 = SURFACE_SIDE_STYLE ('',( #91 ) ) ;
#25 = CARTESIAN_POINT ( 'NONE',  ( 0.000000000000000000, 0.000000000000000000, 0.000000000000000000 ) ) ;
#26 = CARTESIAN_POINT ( 'NONE',  ( -6.065921084684207584E-32, 0.5625000000000001110, 0.000000000000000000 ) ) ;
#27 = CLOSED_SHELL ( 'NONE', ( #259, #160, #95, #138 ) ) ;
#28 = FILL_AREA_STYLE_COLOUR ( '', #21 ) ;
#29 = CARTESIAN_POINT ( 'NONE',  ( -0.2187499999999994171, 2.750000000000000000, 0.000000000000000000 ) ) ;
#30 = EDGE_CURVE ( 'NONE', #135, #260, #279, .T. ) ;
#31 = SURFACE_STYLE_FILL_AREA ( #49 ) ;
#32 = UNCERTAINTY_MEASURE_WITH_UNIT (LENGTH_MEASURE( 1.000000000000000082E-05 ), #5, 'distance_accuracy_value', 'NONE');
#33 = CARTESIAN_POINT ( 'NONE',  ( 2.755455298081544778E-16, 2.750000000000000000, 0.000000000000000000 ) ) ;
#34 = UNCERTAINTY_MEASURE_WITH_UNIT (LENGTH_MEASURE( 1.000000000000000082E-05 ), #38, 'distance_accuracy_value', 'NONE');
#35 = SURFACE_STYLE_FILL_AREA ( #249 ) ;
#36 = EDGE_LOOP ( 'NONE', ( #256, #67 ) ) ;
#37 =( NAMED_UNIT ( * ) PLANE_ANGLE_UNIT ( ) SI_UNIT ( $, .RADIAN. ) );
#38 =( CONVERSION_BASED_UNIT ( 'INCH', #232 ) LENGTH_UNIT ( ) NAMED_UNIT ( #50 ) );
#39 = EDGE_LOOP ( 'NONE', ( #87, #209, #85, #131 ) ) ;
#40 = DIRECTION ( 'NONE',  ( 1.259636707694420928E-16, 1.000000000000000000, -0.000000000000000000 ) ) ;
#41 = VERTEX_POINT ( 'NONE', #29 ) ;
#42 = DIRECTION ( 'NONE',  ( 1.000000000000000000, -1.259636707694420928E-16, 0.000000000000000000 ) ) ;
#43 = PLANE ( 'NONE',  #281 ) ;
#44 = FACE_OUTER_BOUND ( 'NONE', #84, .T. ) ;
#45 = DIMENSIONAL_EXPONENTS ( 1.000000000000000000, 0.000000000000000000, 0.000000000000000000, 0.000000000000000000, 0.000000000000000000, 0.000000000000000000, 0.000000000000000000 ) ;
#46 = CARTESIAN_POINT ( 'NONE',  ( 2.755455298081544778E-16, 2.750000000000000000, 0.000000000000000000 ) ) ;
#47 = AXIS2_PLACEMENT_3D ( 'NONE', #204, #226, #175 ) ;
#48 = AXIS2_PLACEMENT_3D ( 'NONE', #90, #187, #88 ) ;
#49 = FILL_AREA_STYLE ('',( #28 ) ) ;
#50 = DIMENSIONAL_EXPONENTS ( 1.000000000000000000, 0.000000000000000000, 0.000000000000000000, 0.000000000000000000, 0.000000000000000000, 0.000000000000000000, 0.000000000000000000 ) ;
#51 = AXIS2_PLACEMENT_3D ( 'NONE', #26, #8, #290 ) ;
#52 = CARTESIAN_POINT ( 'NONE',  ( 0.000000000000000000, 0.5625000000000001110, -0.2187499999999999445 ) ) ;
#53 = DIRECTION ( 'NONE',  ( 0.000000000000000000, 0.000000000000000000, -1.000000000000000000 ) ) ;
#54 = CIRCLE ( 'NONE', #205, 0.2187500000000000000 ) ;
#55 = CARTESIAN_POINT ( 'NONE',  ( 0.2187499999999999167, 2.750000000000000000, 2.678914873134833523E-17 ) ) ;
#56 = DIRECTION ( 'NONE',  ( 1.259636707694420928E-16, 1.000000000000000000, -0.000000000000000000 ) ) ;
#57 = CARTESIAN_POINT ( 'NONE',  ( 0.000000000000000000, 0.5625000000000001110, 0.000000000000000000 ) ) ;
#58 = ORIENTED_EDGE ( 'NONE', *, *, #306, .F. ) ;
#59 = DIRECTION ( 'NONE',  ( -0.000000000000000000, -1.000000000000000000, -0.000000000000000000 ) ) ;
#60 = SURFACE_SIDE_STYLE ('',( #308 ) ) ;
#61 = ORIENTED_EDGE ( 'NONE', *, *, #30, .T. ) ;
#62 = CLOSED_SHELL ( 'NONE', ( #4, #124, #261, #105 ) ) ;
#63 = FACE_OUTER_BOUND ( 'NONE', #36, .T. ) ;
#64 = CARTESIAN_POINT ( 'NONE',  ( 0.000000000000000000, 0.000000000000000000, -0.2187500000000000000 ) ) ;
#65 = ORIENTED_EDGE ( 'NONE', *, *, #72, .T. ) ;
#66 = CARTESIAN_POINT ( 'NONE',  ( 0.000000000000000000, 0.000000000000000000, 0.000000000000000000 ) ) ;
#67 = ORIENTED_EDGE ( 'NONE', *, *, #201, .F. ) ;
#68 = DIRECTION ( 'NONE',  ( -1.000000000000000000, 0.000000000000000000, 0.000000000000000000 ) ) ;
#69 = AXIS2_PLACEMENT_3D ( 'NONE', #247, #19, #292 ) ;
#70 =( NAMED_UNIT ( * ) SI_UNIT ( $, .STERADIAN. ) SOLID_ANGLE_UNIT ( ) );
#71 = FILL_AREA_STYLE_COLOUR ( '', #134 ) ;
#72 = EDGE_CURVE ( 'NONE', #135, #41, #221, .T. ) ;
#73 =( GEOMETRIC_REPRESENTATION_CONTEXT ( 3 ) GLOBAL_UNCERTAINTY_ASSIGNED_CONTEXT ( ( #299 ) ) GLOBAL_UNIT_ASSIGNED_CONTEXT ( ( #227, #86, #1 ) ) REPRESENTATION_CONTEXT ( 'NONE', 'WORKASPACE' ) );
#74 = AXIS2_PLACEMENT_3D ( 'NONE', #157, #40, #14 ) ;
#75 = MECHANICAL_DESIGN_GEOMETRIC_PRESENTATION_REPRESENTATION (  '', ( #210 ), #211 ) ;
#76 =( NAMED_UNIT ( * ) PLANE_ANGLE_UNIT ( ) SI_UNIT ( $, .RADIAN. ) );
#77 = EDGE_CURVE ( 'NONE', #207, #132, #156, .T. ) ;
#78 = SURFACE_STYLE_FILL_AREA ( #101 ) ;
#79 = EDGE_CURVE ( 'NONE', #260, #111, #112, .T. ) ;
#80 = SURFACE_SIDE_STYLE ('',( #149 ) ) ;
#81 = PLANE ( 'NONE',  #98 ) ;
#82 = AXIS2_PLACEMENT_3D ( 'NONE', #150, #235, #100 ) ;
#83 = ORIENTED_EDGE ( 'NONE', *, *, #79, .F. ) ;
#84 = EDGE_LOOP ( 'NONE', ( #61, #309, #58, #186 ) ) ;
#85 = ORIENTED_EDGE ( 'NONE', *, *, #6, .T. ) ;
#86 =( NAMED_UNIT ( * ) PLANE_ANGLE_UNIT ( ) SI_UNIT ( $, .RADIAN. ) );
#87 = ORIENTED_EDGE ( 'NONE', *, *, #77, .F. ) ;
#88 = DIRECTION ( 'NONE',  ( 1.000000000000000000, 0.000000000000000000, 0.000000000000000000 ) ) ;
#89 = ORIENTED_EDGE ( 'NONE', *, *, #202, .T. ) ;
#90 = CARTESIAN_POINT ( 'NONE',  ( 0.000000000000000000, 0.000000000000000000, 0.000000000000000000 ) ) ;
#91 = SURFACE_STYLE_FILL_AREA ( #253 ) ;
#92 =( GEOMETRIC_REPRESENTATION_CONTEXT ( 3 ) GLOBAL_UNCERTAINTY_ASSIGNED_CONTEXT ( ( #208 ) ) GLOBAL_UNIT_ASSIGNED_CONTEXT ( ( #266, #96, #167 ) ) REPRESENTATION_CONTEXT ( 'NONE', 'WORKASPACE' ) );
#93 = DIRECTION ( 'NONE',  ( 0.000000000000000000, 0.000000000000000000, -1.000000000000000000 ) ) ;
#94 = DIRECTION ( 'NONE',  ( 1.259636707694420928E-16, 1.000000000000000000, -0.000000000000000000 ) ) ;
#95 = ADVANCED_FACE ( 'NONE', ( #196 ), #102, .T. ) ;
#96 =( NAMED_UNIT ( * ) PLANE_ANGLE_UNIT ( ) SI_UNIT ( $, .RADIAN. ) );
#97 = VECTOR ( 'NONE', #220, 39.37007874015748143 ) ;
#98 = AXIS2_PLACEMENT_3D ( 'NONE', #57, #280, #133 ) ;
#99 = DIRECTION ( 'NONE',  ( -1.000000000000000000, 0.000000000000000000, 0.000000000000000000 ) ) ;
#100 = DIRECTION ( 'NONE',  ( -1.000000000000000000, 0.000000000000000000, 0.000000000000000000 ) ) ;
#101 = FILL_AREA_STYLE ('',( #181 ) ) ;
#102 = CYLINDRICAL_SURFACE ( 'NONE', #151, 0.2187499999999998057 ) ;
#103 = MECHANICAL_DESIGN_GEOMETRIC_PRESENTATION_REPRESENTATION (  '', ( #126 ), #293 ) ;
#104 =( NAMED_UNIT ( * ) PLANE_ANGLE_UNIT ( ) SI_UNIT ( $, .RADIAN. ) );
#105 = ADVANCED_FACE ( 'NONE', ( #287 ), #165, .T. ) ;
#106 = DIRECTION ( 'NONE',  ( -0.000000000000000000, -1.000000000000000000, -0.000000000000000000 ) ) ;
#107 = FILL_AREA_STYLE ('',( #71 ) ) ;
#108 = SURFACE_STYLE_USAGE ( .BOTH. , #80 ) ;
#109 = ORIENTED_EDGE ( 'NONE', *, *, #201, .T. ) ;
#110 = FILL_AREA_STYLE_COLOUR ( '', #294 ) ;
#111 = VERTEX_POINT ( 'NONE', #55 ) ;
#112 = LINE ( 'NONE', #143, #145 ) ;
#113 = PRODUCT_DEFINITION_SHAPE ( 'NONE', 'NONE',  #141 ) ;
#114 = VERTEX_POINT ( 'NONE', #52 ) ;
#115 = CIRCLE ( 'NONE', #182, 0.2187499999999999445 ) ;
#116 = EDGE_CURVE ( 'NONE', #132, #278, #251, .T. ) ;
#117 =( NAMED_UNIT ( * ) SI_UNIT ( $, .STERADIAN. ) SOLID_ANGLE_UNIT ( ) );
#118 = DIMENSIONAL_EXPONENTS ( 1.000000000000000000, 0.000000000000000000, 0.000000000000000000, 0.000000000000000000, 0.000000000000000000, 0.000000000000000000, 0.000000000000000000 ) ;
#119 = CARTESIAN_POINT ( 'NONE',  ( 2.678914873134834756E-17, 0.5625000000000001110, 0.2187499999999999445 ) ) ;
#120 = SURFACE_SIDE_STYLE ('',( #31 ) ) ;
#121 = DIMENSIONAL_EXPONENTS ( 1.000000000000000000, 0.000000000000000000, 0.000000000000000000, 0.000000000000000000, 0.000000000000000000, 0.000000000000000000, 0.000000000000000000 ) ;
#122 = UNCERTAINTY_MEASURE_WITH_UNIT (LENGTH_MEASURE( 1.000000000000000082E-05 ), #127, 'distance_accuracy_value', 'NONE');
#123 = UNCERTAINTY_MEASURE_WITH_UNIT (LENGTH_MEASURE( 1.000000000000000082E-05 ), #190, 'distance_accuracy_value', 'NONE');
#124 = ADVANCED_FACE ( 'NONE', ( #228 ), #81, .T. ) ;
#125 = LENGTH_MEASURE_WITH_UNIT ( LENGTH_MEASURE( 0.02539999999999999897 ), #273 );
#126 = STYLED_ITEM ( 'NONE', ( #155 ), #4 ) ;
#127 =( CONVERSION_BASED_UNIT ( 'INCH', #242 ) LENGTH_UNIT ( ) NAMED_UNIT ( #214 ) );
#128 = CARTESIAN_POINT ( 'NONE',  ( 2.755455298081544778E-16, 2.750000000000000000, 0.000000000000000000 ) ) ;
#129 = AXIS2_PLACEMENT_3D ( 'NONE', #219, #286, #264 ) ;
#130 = CIRCLE ( 'NONE', #172, 0.2187499999999996947 ) ;
#131 = ORIENTED_EDGE ( 'NONE', *, *, #116, .F. ) ;
#132 = VERTEX_POINT ( 'NONE', #188 ) ;
#133 = DIRECTION ( 'NONE',  ( 0.000000000000000000, -0.000000000000000000, 1.000000000000000000 ) ) ;
#134 = COLOUR_RGB ( '',1.000000000000000000, 0.000000000000000000, 0.000000000000000000 ) ;
#135 = VERTEX_POINT ( 'NONE', #257 ) ;
#136 = SHAPE_DEFINITION_REPRESENTATION ( #113, #277 ) ;
#137 =( LENGTH_UNIT ( ) NAMED_UNIT ( * ) SI_UNIT ( $, .METRE. ) );
#138 = ADVANCED_FACE ( 'NONE', ( #154 ), #43, .F. ) ;
#139 = PRESENTATION_LAYER_ASSIGNMENT (  '', '', ( #241 ) ) ;
#140 = STYLED_ITEM ( 'NONE', ( #166 ), #173 ) ;
#141 = PRODUCT_DEFINITION ( 'UNKNOWN', '', #298, #147 ) ;
#142 = DIMENSIONAL_EXPONENTS ( 1.000000000000000000, 0.000000000000000000, 0.000000000000000000, 0.000000000000000000, 0.000000000000000000, 0.000000000000000000, 0.000000000000000000 ) ;
#143 = CARTESIAN_POINT ( 'NONE',  ( 0.2187500000000000833, 2.750000000000000000, 2.678914873134832907E-17 ) ) ;
#144 = UNCERTAINTY_MEASURE_WITH_UNIT (LENGTH_MEASURE( 1.000000000000000082E-05 ), #10, 'distance_accuracy_value', 'NONE');
#145 = VECTOR ( 'NONE', #225, 39.37007874015748143 ) ;
#146 = MECHANICAL_DESIGN_GEOMETRIC_PRESENTATION_REPRESENTATION (  '', ( #152 ), #92 ) ;
#147 = PRODUCT_DEFINITION_CONTEXT ( 'detailed design', #272, 'design' ) ;
#148 = DIRECTION ( 'NONE',  ( 1.259636707694420928E-16, 1.000000000000000000, -0.000000000000000000 ) ) ;
#149 = SURFACE_STYLE_FILL_AREA ( #275 ) ;
#150 = CARTESIAN_POINT ( 'NONE',  ( 2.755455298081544778E-16, 2.750000000000000000, 0.000000000000000000 ) ) ;
#151 = AXIS2_PLACEMENT_3D ( 'NONE', #33, #148, #99 ) ;
#152 = STYLED_ITEM ( 'NONE', ( #213 ), #163 ) ;
#153 = EDGE_LOOP ( 'NONE', ( #161, #255 ) ) ;
#154 = FACE_OUTER_BOUND ( 'NONE', #212, .T. ) ;
#155 = PRESENTATION_STYLE_ASSIGNMENT (( #276 ) ) ;
#156 = LINE ( 'NONE', #12, #284 ) ;
#157 = CARTESIAN_POINT ( 'NONE',  ( 1.735436319937293411E-33, 0.5625000000000001110, 0.000000000000000000 ) ) ;
#158 = AXIS2_PLACEMENT_3D ( 'NONE', #246, #106, #53 ) ;
#159 = EDGE_LOOP ( 'NONE', ( #203, #18, #282, #180 ) ) ;
#160 = ADVANCED_FACE ( 'NONE', ( #63 ), #184, .F. ) ;
#161 = ORIENTED_EDGE ( 'NONE', *, *, #240, .F. ) ;
#162 = APPLICATION_PROTOCOL_DEFINITION ( 'draft international standard', 'automotive_design', 1998, #263 ) ;
#163 = MANIFOLD_SOLID_BREP ( 'Revolve - Tool Body (Straight Shanked)', #27 ) ;
#164 = DIRECTION ( 'NONE',  ( -0.000000000000000000, -1.000000000000000000, -0.000000000000000000 ) ) ;
#165 = PLANE ( 'NONE',  #47 ) ;
#166 = PRESENTATION_STYLE_ASSIGNMENT (( #2 ) ) ;
#167 =( NAMED_UNIT ( * ) SI_UNIT ( $, .STERADIAN. ) SOLID_ANGLE_UNIT ( ) );
#168 = CARTESIAN_POINT ( 'NONE',  ( -6.065921084684207584E-32, 0.5625000000000001110, 0.000000000000000000 ) ) ;
#169 = CIRCLE ( 'NONE', #51, 0.2187499999999999445 ) ;
#170 = PRODUCT_RELATED_PRODUCT_CATEGORY ( 'part', '', ( #252 ) ) ;
#171 = DIMENSIONAL_EXPONENTS ( 1.000000000000000000, 0.000000000000000000, 0.000000000000000000, 0.000000000000000000, 0.000000000000000000, 0.000000000000000000, 0.000000000000000000 ) ;
#172 = AXIS2_PLACEMENT_3D ( 'NONE', #46, #285, #68 ) ;
#173 = MANIFOLD_SOLID_BREP ( 'Revolve - Cutting Edge', #62 ) ;
#174 = CARTESIAN_POINT ( 'NONE',  ( 0.2187499999999999167, 0.5625000000000001110, 2.678914873134833523E-17 ) ) ;
#175 = DIRECTION ( 'NONE',  ( 0.000000000000000000, 0.000000000000000000, -1.000000000000000000 ) ) ;
#176 = LENGTH_MEASURE_WITH_UNIT ( LENGTH_MEASURE( 0.02539999999999999897 ), #244 );
#177 =( GEOMETRIC_REPRESENTATION_CONTEXT ( 3 ) GLOBAL_UNCERTAINTY_ASSIGNED_CONTEXT ( ( #32 ) ) GLOBAL_UNIT_ASSIGNED_CONTEXT ( ( #5, #291, #267 ) ) REPRESENTATION_CONTEXT ( 'NONE', 'WORKASPACE' ) );
#178 = FACE_OUTER_BOUND ( 'NONE', #159, .T. ) ;
#179 = SURFACE_SIDE_STYLE ('',( #35 ) ) ;
#180 = ORIENTED_EDGE ( 'NONE', *, *, #6, .F. ) ;
#181 = FILL_AREA_STYLE_COLOUR ( '', #231 ) ;
#182 = AXIS2_PLACEMENT_3D ( 'NONE', #229, #59, #301 ) ;
#183 = EDGE_LOOP ( 'NONE', ( #89, #23 ) ) ;
#184 = PLANE ( 'NONE',  #74 ) ;
#185 = SURFACE_STYLE_USAGE ( .BOTH. , #60 ) ;
#186 = ORIENTED_EDGE ( 'NONE', *, *, #72, .F. ) ;
#187 = DIRECTION ( 'NONE',  ( 0.000000000000000000, 0.000000000000000000, 1.000000000000000000 ) ) ;
#188 = CARTESIAN_POINT ( 'NONE',  ( 2.678914873134835372E-17, 0.000000000000000000, 0.2187500000000000000 ) ) ;
#189 = CYLINDRICAL_SURFACE ( 'NONE', #129, 0.2187499999999999445 ) ;
#190 =( CONVERSION_BASED_UNIT ( 'INCH', #295 ) LENGTH_UNIT ( ) NAMED_UNIT ( #121 ) );
#191 = COLOUR_RGB ( '',1.000000000000000000, 0.000000000000000000, 0.000000000000000000 ) ;
#192 =( LENGTH_UNIT ( ) NAMED_UNIT ( * ) SI_UNIT ( $, .METRE. ) );
#193 = APPLICATION_PROTOCOL_DEFINITION ( 'draft international standard', 'automotive_design', 1998, #272 ) ;
#194 = MECHANICAL_DESIGN_GEOMETRIC_PRESENTATION_REPRESENTATION (  '', ( #140 ), #270 ) ;
#195 = LENGTH_MEASURE_WITH_UNIT ( LENGTH_MEASURE( 0.02539999999999999897 ), #250 );
#196 = FACE_OUTER_BOUND ( 'NONE', #16, .T. ) ;
#197 = COLOUR_RGB ( '',1.000000000000000000, 0.000000000000000000, 0.000000000000000000 ) ;
#198 = AXIS2_PLACEMENT_3D ( 'NONE', #66, #15, #258 ) ;
#199 =( NAMED_UNIT ( * ) SI_UNIT ( $, .STERADIAN. ) SOLID_ANGLE_UNIT ( ) );
#200 = SURFACE_SIDE_STYLE ('',( #78 ) ) ;
#201 = EDGE_CURVE ( 'NONE', #260, #135, #169, .T. ) ;
#202 = EDGE_CURVE ( 'NONE', #278, #132, #54, .T. ) ;
#203 = ORIENTED_EDGE ( 'NONE', *, *, #240, .T. ) ;
#204 = CARTESIAN_POINT ( 'NONE',  ( 0.000000000000000000, 0.000000000000000000, 0.000000000000000000 ) ) ;
#205 = AXIS2_PLACEMENT_3D ( 'NONE', #25, #216, #93 ) ;
#206 = DIRECTION ( 'NONE',  ( -1.000000000000000000, 0.000000000000000000, 0.000000000000000000 ) ) ;
#207 = VERTEX_POINT ( 'NONE', #119 ) ;
#208 = UNCERTAINTY_MEASURE_WITH_UNIT (LENGTH_MEASURE( 1.000000000000000082E-05 ), #266, 'distance_accuracy_value', 'NONE');
#209 = ORIENTED_EDGE ( 'NONE', *, *, #297, .T. ) ;
#210 = STYLED_ITEM ( 'NONE', ( #271 ), #261 ) ;
#211 =( GEOMETRIC_REPRESENTATION_CONTEXT ( 3 ) GLOBAL_UNCERTAINTY_ASSIGNED_CONTEXT ( ( #144 ) ) GLOBAL_UNIT_ASSIGNED_CONTEXT ( ( #10, #104, #199 ) ) REPRESENTATION_CONTEXT ( 'NONE', 'WORKASPACE' ) );
#212 = EDGE_LOOP ( 'NONE', ( #238, #233 ) ) ;
#213 = PRESENTATION_STYLE_ASSIGNMENT (( #22 ) ) ;
#214 = DIMENSIONAL_EXPONENTS ( 1.000000000000000000, 0.000000000000000000, 0.000000000000000000, 0.000000000000000000, 0.000000000000000000, 0.000000000000000000, 0.000000000000000000 ) ;
#215 = PRODUCT_CONTEXT ( 'NONE', #263, 'mechanical' ) ;
#216 = DIRECTION ( 'NONE',  ( -0.000000000000000000, -1.000000000000000000, -0.000000000000000000 ) ) ;
#217 = CARTESIAN_POINT ( 'NONE',  ( 0.000000000000000000, 0.000000000000000000, -0.2187499999999999445 ) ) ;
#218 = LENGTH_MEASURE_WITH_UNIT ( LENGTH_MEASURE( 0.02539999999999999897 ), #137 );
#219 = CARTESIAN_POINT ( 'NONE',  ( 0.000000000000000000, 0.000000000000000000, 0.000000000000000000 ) ) ;
#220 = DIRECTION ( 'NONE',  ( 1.259636707694420928E-16, 1.000000000000000000, -0.000000000000000000 ) ) ;
#221 = LINE ( 'NONE', #289, #97 ) ;
#222 = FACE_OUTER_BOUND ( 'NONE', #39, .T. ) ;
#223 =( GEOMETRIC_REPRESENTATION_CONTEXT ( 3 ) GLOBAL_UNCERTAINTY_ASSIGNED_CONTEXT ( ( #34 ) ) GLOBAL_UNIT_ASSIGNED_CONTEXT ( ( #38, #304, #296 ) ) REPRESENTATION_CONTEXT ( 'NONE', 'WORKASPACE' ) );
#224 = CYLINDRICAL_SURFACE ( 'NONE', #82, 0.2187499999999998057 ) ;
#225 = DIRECTION ( 'NONE',  ( 1.259636707694420928E-16, 1.000000000000000000, -0.000000000000000000 ) ) ;
#226 = DIRECTION ( 'NONE',  ( 0.000000000000000000, -1.000000000000000000, -0.000000000000000000 ) ) ;
#227 =( CONVERSION_BASED_UNIT ( 'INCH', #125 ) LENGTH_UNIT ( ) NAMED_UNIT ( #45 ) );
#228 = FACE_OUTER_BOUND ( 'NONE', #153, .T. ) ;
#229 = CARTESIAN_POINT ( 'NONE',  ( 0.000000000000000000, 0.5625000000000001110, 0.000000000000000000 ) ) ;
#230 = AXIS2_PLACEMENT_3D ( 'NONE', #168, #94, #288 ) ;
#231 = COLOUR_RGB ( '',1.000000000000000000, 0.000000000000000000, 0.000000000000000000 ) ;
#232 = LENGTH_MEASURE_WITH_UNIT ( LENGTH_MEASURE( 0.02539999999999999897 ), #254 );
#233 = ORIENTED_EDGE ( 'NONE', *, *, #302, .T. ) ;
#234 = DIRECTION ( 'NONE',  ( -1.259636707694420928E-16, -1.000000000000000000, 0.000000000000000000 ) ) ;
#235 = DIRECTION ( 'NONE',  ( 1.259636707694420928E-16, 1.000000000000000000, -0.000000000000000000 ) ) ;
#236 = PRESENTATION_STYLE_ASSIGNMENT (( #185 ) ) ;
#237 = PRESENTATION_LAYER_ASSIGNMENT (  '', '', ( #140 ) ) ;
#238 = ORIENTED_EDGE ( 'NONE', *, *, #306, .T. ) ;
#239 = CARTESIAN_POINT ( 'NONE',  ( 0.2187499999999999445, 2.750000000000000000, 0.000000000000000000 ) ) ;
#240 = EDGE_CURVE ( 'NONE', #114, #207, #307, .T. ) ;
#241 = STYLED_ITEM ( 'NONE', ( #9 ), #124 ) ;
#242 = LENGTH_MEASURE_WITH_UNIT ( LENGTH_MEASURE( 0.02539999999999999897 ), #192 );
#243 = PRESENTATION_LAYER_ASSIGNMENT (  '', '', ( #126 ) ) ;
#244 =( LENGTH_UNIT ( ) NAMED_UNIT ( * ) SI_UNIT ( $, .METRE. ) );
#245 = DIRECTION ( 'NONE',  ( -0.000000000000000000, -1.000000000000000000, -0.000000000000000000 ) ) ;
#246 = CARTESIAN_POINT ( 'NONE',  ( 0.000000000000000000, 0.000000000000000000, 0.000000000000000000 ) ) ;
#247 = CARTESIAN_POINT ( 'NONE',  ( 0.000000000000000000, 0.5625000000000001110, 0.000000000000000000 ) ) ;
#248 = CIRCLE ( 'NONE', #262, 0.2187499999999996947 ) ;
#249 = FILL_AREA_STYLE ('',( #303 ) ) ;
#250 =( LENGTH_UNIT ( ) NAMED_UNIT ( * ) SI_UNIT ( $, .METRE. ) );
#251 = CIRCLE ( 'NONE', #158, 0.2187500000000000000 ) ;
#252 = PRODUCT ( '24242', '24242', '', ( #215 ) ) ;
#253 = FILL_AREA_STYLE ('',( #110 ) ) ;
#254 =( LENGTH_UNIT ( ) NAMED_UNIT ( * ) SI_UNIT ( $, .METRE. ) );
#255 = ORIENTED_EDGE ( 'NONE', *, *, #297, .F. ) ;
#256 = ORIENTED_EDGE ( 'NONE', *, *, #30, .F. ) ;
#257 = CARTESIAN_POINT ( 'NONE',  ( -0.2187499999999999445, 0.5625000000000001110, 0.000000000000000000 ) ) ;
#258 = DIRECTION ( 'NONE',  ( 0.000000000000000000, 0.000000000000000000, -1.000000000000000000 ) ) ;
#259 = ADVANCED_FACE ( 'NONE', ( #44 ), #224, .T. ) ;
#260 = VERTEX_POINT ( 'NONE', #174 ) ;
#261 = ADVANCED_FACE ( 'NONE', ( #222 ), #17, .T. ) ;
#262 = AXIS2_PLACEMENT_3D ( 'NONE', #128, #56, #206 ) ;
#263 = APPLICATION_CONTEXT ( 'automotive_design' ) ;
#264 = DIRECTION ( 'NONE',  ( 0.000000000000000000, 0.000000000000000000, -1.000000000000000000 ) ) ;
#265 =( LENGTH_UNIT ( ) NAMED_UNIT ( * ) SI_UNIT ( $, .METRE. ) );
#266 =( CONVERSION_BASED_UNIT ( 'INCH', #195 ) LENGTH_UNIT ( ) NAMED_UNIT ( #118 ) );
#267 =( NAMED_UNIT ( * ) SI_UNIT ( $, .STERADIAN. ) SOLID_ANGLE_UNIT ( ) );
#268 = SURFACE_STYLE_USAGE ( .BOTH. , #200 ) ;
#269 = VECTOR ( 'NONE', #164, 39.37007874015748143 ) ;
#270 =( GEOMETRIC_REPRESENTATION_CONTEXT ( 3 ) GLOBAL_UNCERTAINTY_ASSIGNED_CONTEXT ( ( #123 ) ) GLOBAL_UNIT_ASSIGNED_CONTEXT ( ( #190, #76, #70 ) ) REPRESENTATION_CONTEXT ( 'NONE', 'WORKASPACE' ) );
#271 = PRESENTATION_STYLE_ASSIGNMENT (( #268 ) ) ;
#272 = APPLICATION_CONTEXT ( 'automotive_design' ) ;
#273 =( LENGTH_UNIT ( ) NAMED_UNIT ( * ) SI_UNIT ( $, .METRE. ) );
#274 = PRESENTATION_LAYER_ASSIGNMENT (  '', '', ( #210 ) ) ;
#275 = FILL_AREA_STYLE ('',( #300 ) ) ;
#276 = SURFACE_STYLE_USAGE ( .BOTH. , #179 ) ;
#277 = ADVANCED_BREP_SHAPE_REPRESENTATION ( '24242', ( #173, #163, #48 ), #177 ) ;
#278 = VERTEX_POINT ( 'NONE', #64 ) ;
#279 = CIRCLE ( 'NONE', #230, 0.2187499999999999445 ) ;
#280 = DIRECTION ( 'NONE',  ( 0.000000000000000000, 1.000000000000000000, 0.000000000000000000 ) ) ;
#281 = AXIS2_PLACEMENT_3D ( 'NONE', #239, #234, #42 ) ;
#282 = ORIENTED_EDGE ( 'NONE', *, *, #202, .F. ) ;
#283 = LINE ( 'NONE', #217, #269 ) ;
#284 = VECTOR ( 'NONE', #245, 39.37007874015748143 ) ;
#285 = DIRECTION ( 'NONE',  ( 1.259636707694420928E-16, 1.000000000000000000, -0.000000000000000000 ) ) ;
#286 = DIRECTION ( 'NONE',  ( -0.000000000000000000, -1.000000000000000000, -0.000000000000000000 ) ) ;
#287 = FACE_OUTER_BOUND ( 'NONE', #183, .T. ) ;
#288 = DIRECTION ( 'NONE',  ( -1.000000000000000000, 0.000000000000000000, 0.000000000000000000 ) ) ;
#289 = CARTESIAN_POINT ( 'NONE',  ( -0.2187499999999995559, 2.750000000000000000, 0.000000000000000000 ) ) ;
#290 = DIRECTION ( 'NONE',  ( -1.000000000000000000, 0.000000000000000000, 0.000000000000000000 ) ) ;
#291 =( NAMED_UNIT ( * ) PLANE_ANGLE_UNIT ( ) SI_UNIT ( $, .RADIAN. ) );
#292 = DIRECTION ( 'NONE',  ( 0.000000000000000000, 0.000000000000000000, -1.000000000000000000 ) ) ;
#293 =( GEOMETRIC_REPRESENTATION_CONTEXT ( 3 ) GLOBAL_UNCERTAINTY_ASSIGNED_CONTEXT ( ( #122 ) ) GLOBAL_UNIT_ASSIGNED_CONTEXT ( ( #127, #37, #117 ) ) REPRESENTATION_CONTEXT ( 'NONE', 'WORKASPACE' ) );
#294 = COLOUR_RGB ( '',0.7921568627450980005, 0.8196078431372548767, 0.9333333333333333481 ) ;
#295 = LENGTH_MEASURE_WITH_UNIT ( LENGTH_MEASURE( 0.02539999999999999897 ), #265 );
#296 =( NAMED_UNIT ( * ) SI_UNIT ( $, .STERADIAN. ) SOLID_ANGLE_UNIT ( ) );
#297 = EDGE_CURVE ( 'NONE', #207, #114, #115, .T. ) ;
#298 = PRODUCT_DEFINITION_FORMATION_WITH_SPECIFIED_SOURCE ( 'ANY', '', #252, .NOT_KNOWN. ) ;
#299 = UNCERTAINTY_MEASURE_WITH_UNIT (LENGTH_MEASURE( 1.000000000000000082E-05 ), #227, 'distance_accuracy_value', 'NONE');
#300 = FILL_AREA_STYLE_COLOUR ( '', #197 ) ;
#301 = DIRECTION ( 'NONE',  ( 0.000000000000000000, 0.000000000000000000, -1.000000000000000000 ) ) ;
#302 = EDGE_CURVE ( 'NONE', #111, #41, #248, .T. ) ;
#303 = FILL_AREA_STYLE_COLOUR ( '', #191 ) ;
#304 =( NAMED_UNIT ( * ) PLANE_ANGLE_UNIT ( ) SI_UNIT ( $, .RADIAN. ) );
#305 = ORIENTED_EDGE ( 'NONE', *, *, #302, .F. ) ;
#306 = EDGE_CURVE ( 'NONE', #41, #111, #130, .T. ) ;
#307 = CIRCLE ( 'NONE', #69, 0.2187499999999999445 ) ;
#308 = SURFACE_STYLE_FILL_AREA ( #107 ) ;
#309 = ORIENTED_EDGE ( 'NONE', *, *, #79, .T. ) ;
ENDSEC;
END-ISO-10303-21;
