ISO-10303-21;
HEADER;
FILE_DESCRIPTION (( 'STEP AP214' ),
    '1' );
FILE_NAME ('81929.STEP',
    '2023-06-30T22:34:23',
    ( '' ),
    ( '' ),
    'SwSTEP 2.0',
    'SolidWorks 2023',
    '' );
FILE_SCHEMA (( 'AUTOMOTIVE_DESIGN' ));
ENDSEC;

DATA;
#1 = SURFACE_STYLE_USAGE ( .BOTH. , #150 ) ;
#2 =( NAMED_UNIT ( * ) SI_UNIT ( $, .STERADIAN. ) SOLID_ANGLE_UNIT ( ) );
#3 = UNCERTAINTY_MEASURE_WITH_UNIT (LENGTH_MEASURE( 1.000000000000000082E-05 ), #235, 'distance_accuracy_value', 'NONE');
#4 = SPHERICAL_SURFACE ( 'NONE', #214, 0.1875000000000000555 ) ;
#5 =( NAMED_UNIT ( * ) SI_UNIT ( $, .STERADIAN. ) SOLID_ANGLE_UNIT ( ) );
#6 =( LENGTH_UNIT ( ) NAMED_UNIT ( * ) SI_UNIT ( $, .METRE. ) );
#7 = CARTESIAN_POINT ( 'NONE',  ( 0.000000000000000000, 1.000000000000000000, 0.000000000000000000 ) ) ;
#8 = CARTESIAN_POINT ( 'NONE',  ( -2.296212748401288034E-17, 0.1875000000000000555, 0.000000000000000000 ) ) ;
#9 = CARTESIAN_POINT ( 'NONE',  ( 0.000000000000000000, 0.000000000000000000, -0.1874999999999999722 ) ) ;
#10 =( NAMED_UNIT ( * ) PLANE_ANGLE_UNIT ( ) SI_UNIT ( $, .RADIAN. ) );
#11 = COLOUR_RGB ( '',1.000000000000000000, 0.000000000000000000, 0.000000000000000000 ) ;
#12 = FILL_AREA_STYLE ('',( #287 ) ) ;
#13 = ORIENTED_EDGE ( 'NONE', *, *, #231, .F. ) ;
#14 = DIRECTION ( 'NONE',  ( -1.000000000000000000, 0.000000000000000000, 0.000000000000000000 ) ) ;
#15 = VERTEX_POINT ( 'NONE', #363 ) ;
#16 = ORIENTED_EDGE ( 'NONE', *, *, #20, .T. ) ;
#17 = AXIS2_PLACEMENT_3D ( 'NONE', #8, #45, #123 ) ;
#18 = ORIENTED_EDGE ( 'NONE', *, *, #203, .F. ) ;
#19 = VERTEX_POINT ( 'NONE', #101 ) ;
#20 = EDGE_CURVE ( 'NONE', #15, #194, #251, .T. ) ;
#21 = CIRCLE ( 'NONE', #72, 0.1875000000000000278 ) ;
#22 = CARTESIAN_POINT ( 'NONE',  ( 0.1874999999999999167, 1.000000000000000000, 2.296212748401286801E-17 ) ) ;
#23 = CARTESIAN_POINT ( 'NONE',  ( 0.000000000000000000, 0.1875000000000000555, 0.000000000000000000 ) ) ;
#24 = PRESENTATION_STYLE_ASSIGNMENT (( #174 ) ) ;
#25 = SURFACE_STYLE_USAGE ( .BOTH. , #233 ) ;
#26 = ADVANCED_BREP_SHAPE_REPRESENTATION ( '81929', ( #200, #85, #213 ), #61 ) ;
#27 =( NAMED_UNIT ( * ) PLANE_ANGLE_UNIT ( ) SI_UNIT ( $, .RADIAN. ) );
#28 = UNCERTAINTY_MEASURE_WITH_UNIT (LENGTH_MEASURE( 1.000000000000000082E-05 ), #321, 'distance_accuracy_value', 'NONE');
#29 = LENGTH_MEASURE_WITH_UNIT ( LENGTH_MEASURE( 0.02539999999999999897 ), #58 );
#30 = APPLICATION_CONTEXT ( 'automotive_design' ) ;
#31 = CIRCLE ( 'NONE', #276, 0.1874999999999997780 ) ;
#32 = COLOUR_RGB ( '',1.000000000000000000, 0.000000000000000000, 0.000000000000000000 ) ;
#33 = SURFACE_STYLE_USAGE ( .BOTH. , #145 ) ;
#34 = DIRECTION ( 'NONE',  ( 0.000000000000000000, 1.000000000000000000, 0.000000000000000000 ) ) ;
#35 = CARTESIAN_POINT ( 'NONE',  ( 0.000000000000000000, 0.000000000000000000, 0.000000000000000000 ) ) ;
#36 = PRODUCT ( '81929', '81929', '', ( #246 ) ) ;
#37 = SURFACE_STYLE_FILL_AREA ( #304 ) ;
#38 = SURFACE_SIDE_STYLE ('',( #64 ) ) ;
#39 = COLOUR_RGB ( '',0.7921568627450980005, 0.8196078431372548767, 0.9333333333333333481 ) ;
#40 = DIRECTION ( 'NONE',  ( -0.000000000000000000, -1.000000000000000000, -0.000000000000000000 ) ) ;
#41 = DIRECTION ( 'NONE',  ( -1.224646799147353454E-16, 1.000000000000000000, -0.000000000000000000 ) ) ;
#42 =( CONVERSION_BASED_UNIT ( 'INCH', #157 ) LENGTH_UNIT ( ) NAMED_UNIT ( #320 ) );
#43 = ADVANCED_FACE ( 'NONE', ( #51 ), #110, .F. ) ;
#44 = DIRECTION ( 'NONE',  ( -1.000000000000000000, 0.000000000000000000, 0.000000000000000000 ) ) ;
#45 = DIRECTION ( 'NONE',  ( 1.224646799147353207E-16, -0.000000000000000000, 1.000000000000000000 ) ) ;
#46 = EDGE_LOOP ( 'NONE', ( #131, #166, #250, #163 ) ) ;
#47 = STYLED_ITEM ( 'NONE', ( #176 ), #71 ) ;
#48 = CARTESIAN_POINT ( 'NONE',  ( -0.1875000000000001388, 3.000000000000000444, 0.000000000000000000 ) ) ;
#49 = CIRCLE ( 'NONE', #180, 0.1875000000000000555 ) ;
#50 = ORIENTED_EDGE ( 'NONE', *, *, #83, .T. ) ;
#51 = FACE_OUTER_BOUND ( 'NONE', #255, .T. ) ;
#52 = CARTESIAN_POINT ( 'NONE',  ( 0.000000000000000000, 1.000000000000000000, 0.000000000000000000 ) ) ;
#53 =( NAMED_UNIT ( * ) SI_UNIT ( $, .STERADIAN. ) SOLID_ANGLE_UNIT ( ) );
#54 = CARTESIAN_POINT ( 'NONE',  ( -0.1874999999999996392, 1.000000000000000000, 0.000000000000000000 ) ) ;
#55 = PRODUCT_RELATED_PRODUCT_CATEGORY ( 'part', '', ( #36 ) ) ;
#56 =( CONVERSION_BASED_UNIT ( 'INCH', #29 ) LENGTH_UNIT ( ) NAMED_UNIT ( #201 ) );
#57 = CARTESIAN_POINT ( 'NONE',  ( 0.000000000000000000, 0.1875000000000000555, -0.1875000000000000555 ) ) ;
#58 =( LENGTH_UNIT ( ) NAMED_UNIT ( * ) SI_UNIT ( $, .METRE. ) );
#59 = DIRECTION ( 'NONE',  ( 0.000000000000000000, 0.000000000000000000, -1.000000000000000000 ) ) ;
#60 = FACE_OUTER_BOUND ( 'NONE', #368, .T. ) ;
#61 =( GEOMETRIC_REPRESENTATION_CONTEXT ( 3 ) GLOBAL_UNCERTAINTY_ASSIGNED_CONTEXT ( ( #239 ) ) GLOBAL_UNIT_ASSIGNED_CONTEXT ( ( #42, #10, #159 ) ) REPRESENTATION_CONTEXT ( 'NONE', 'WORKASPACE' ) );
#62 = AXIS2_PLACEMENT_3D ( 'NONE', #358, #95, #332 ) ;
#63 = CIRCLE ( 'NONE', #97, 0.1875000000000000555 ) ;
#64 = SURFACE_STYLE_FILL_AREA ( #353 ) ;
#65 =( LENGTH_UNIT ( ) NAMED_UNIT ( * ) SI_UNIT ( $, .METRE. ) );
#66 = CLOSED_SHELL ( 'NONE', ( #87, #43, #238, #334 ) ) ;
#67 = EDGE_CURVE ( 'NONE', #192, #339, #113, .T. ) ;
#68 = AXIS2_PLACEMENT_3D ( 'NONE', #7, #34, #177 ) ;
#69 = SPHERICAL_SURFACE ( 'NONE', #115, 0.1875000000000000555 ) ;
#70 = DIRECTION ( 'NONE',  ( -1.224646799147353454E-16, 1.000000000000000000, -0.000000000000000000 ) ) ;
#71 = ADVANCED_FACE ( 'NONE', ( #236 ), #69, .T. ) ;
#72 = AXIS2_PLACEMENT_3D ( 'NONE', #164, #342, #136 ) ;
#73 = DIRECTION ( 'NONE',  ( 0.000000000000000000, 0.000000000000000000, -1.000000000000000000 ) ) ;
#74 = ORIENTED_EDGE ( 'NONE', *, *, #312, .F. ) ;
#75 = ORIENTED_EDGE ( 'NONE', *, *, #203, .T. ) ;
#76 = ORIENTED_EDGE ( 'NONE', *, *, #231, .T. ) ;
#77 = ORIENTED_EDGE ( 'NONE', *, *, #286, .T. ) ;
#78 =( GEOMETRIC_REPRESENTATION_CONTEXT ( 3 ) GLOBAL_UNCERTAINTY_ASSIGNED_CONTEXT ( ( #90 ) ) GLOBAL_UNIT_ASSIGNED_CONTEXT ( ( #56, #27, #53 ) ) REPRESENTATION_CONTEXT ( 'NONE', 'WORKASPACE' ) );
#79 = VERTEX_POINT ( 'NONE', #57 ) ;
#80 = COLOUR_RGB ( '',1.000000000000000000, 0.000000000000000000, 0.000000000000000000 ) ;
#81 = CARTESIAN_POINT ( 'NONE',  ( -1.224646799147353700E-16, 3.000000000000000444, 0.000000000000000000 ) ) ;
#82 = EDGE_LOOP ( 'NONE', ( #16, #306, #189, #169 ) ) ;
#83 = EDGE_CURVE ( 'NONE', #307, #79, #156, .T. ) ;
#84 = SURFACE_STYLE_FILL_AREA ( #130 ) ;
#85 = MANIFOLD_SOLID_BREP ( 'Revolve - Tool Body (Straight Shanked)', #66 ) ;
#86 = DIRECTION ( 'NONE',  ( -0.000000000000000000, -1.000000000000000000, -0.000000000000000000 ) ) ;
#87 = ADVANCED_FACE ( 'NONE', ( #98 ), #124, .T. ) ;
#88 = AXIS2_PLACEMENT_3D ( 'NONE', #23, #258, #230 ) ;
#89 =( GEOMETRIC_REPRESENTATION_CONTEXT ( 3 ) GLOBAL_UNCERTAINTY_ASSIGNED_CONTEXT ( ( #350 ) ) GLOBAL_UNIT_ASSIGNED_CONTEXT ( ( #314, #245, #5 ) ) REPRESENTATION_CONTEXT ( 'NONE', 'WORKASPACE' ) );
#90 = UNCERTAINTY_MEASURE_WITH_UNIT (LENGTH_MEASURE( 1.000000000000000082E-05 ), #56, 'distance_accuracy_value', 'NONE');
#91 = DIRECTION ( 'NONE',  ( 0.000000000000000000, 0.000000000000000000, -1.000000000000000000 ) ) ;
#92 = FACE_OUTER_BOUND ( 'NONE', #132, .T. ) ;
#93 = PRESENTATION_STYLE_ASSIGNMENT (( #151 ) ) ;
#94 =( NAMED_UNIT ( * ) PLANE_ANGLE_UNIT ( ) SI_UNIT ( $, .RADIAN. ) );
#95 = DIRECTION ( 'NONE',  ( -1.224646799147353454E-16, 1.000000000000000000, -0.000000000000000000 ) ) ;
#96 = APPLICATION_PROTOCOL_DEFINITION ( 'draft international standard', 'automotive_design', 1998, #185 ) ;
#97 = AXIS2_PLACEMENT_3D ( 'NONE', #217, #186, #107 ) ;
#98 = FACE_OUTER_BOUND ( 'NONE', #218, .T. ) ;
#99 = SURFACE_SIDE_STYLE ('',( #285 ) ) ;
#100 = DIRECTION ( 'NONE',  ( 0.000000000000000000, 0.000000000000000000, -1.000000000000000000 ) ) ;
#101 = CARTESIAN_POINT ( 'NONE',  ( 0.1875000000000000555, 0.1875000000000000555, 0.000000000000000000 ) ) ;
#102 = ORIENTED_EDGE ( 'NONE', *, *, #20, .F. ) ;
#103 = ORIENTED_EDGE ( 'NONE', *, *, #254, .T. ) ;
#104 = AXIS2_PLACEMENT_3D ( 'NONE', #81, #291, #137 ) ;
#105 = EDGE_CURVE ( 'NONE', #220, #192, #31, .T. ) ;
#106 = CIRCLE ( 'NONE', #352, 0.1874999999999998890 ) ;
#107 = DIRECTION ( 'NONE',  ( 0.000000000000000000, 0.000000000000000000, -1.000000000000000000 ) ) ;
#108 = EDGE_CURVE ( 'NONE', #192, #220, #310, .T. ) ;
#109 =( NAMED_UNIT ( * ) PLANE_ANGLE_UNIT ( ) SI_UNIT ( $, .RADIAN. ) );
#110 = PLANE ( 'NONE',  #366 ) ;
#111 = CARTESIAN_POINT ( 'NONE',  ( 0.000000000000000000, 0.1875000000000000555, 0.000000000000000000 ) ) ;
#112 = DIMENSIONAL_EXPONENTS ( 1.000000000000000000, 0.000000000000000000, 0.000000000000000000, 0.000000000000000000, 0.000000000000000000, 0.000000000000000000, 0.000000000000000000 ) ;
#113 = LINE ( 'NONE', #316, #282 ) ;
#114 = FILL_AREA_STYLE ('',( #240 ) ) ;
#115 = AXIS2_PLACEMENT_3D ( 'NONE', #215, #243, #120 ) ;
#116 = COLOUR_RGB ( '',0.7921568627450980005, 0.8196078431372548767, 0.9333333333333333481 ) ;
#117 = PRODUCT_DEFINITION_SHAPE ( 'NONE', 'NONE',  #348 ) ;
#118 = UNCERTAINTY_MEASURE_WITH_UNIT (LENGTH_MEASURE( 1.000000000000000082E-05 ), #294, 'distance_accuracy_value', 'NONE');
#119 =( NAMED_UNIT ( * ) SI_UNIT ( $, .STERADIAN. ) SOLID_ANGLE_UNIT ( ) );
#120 = DIRECTION ( 'NONE',  ( 1.000000000000000000, 0.000000000000000000, 0.000000000000000000 ) ) ;
#121 =( GEOMETRIC_REPRESENTATION_CONTEXT ( 3 ) GLOBAL_UNCERTAINTY_ASSIGNED_CONTEXT ( ( #204 ) ) GLOBAL_UNIT_ASSIGNED_CONTEXT ( ( #266, #303, #209 ) ) REPRESENTATION_CONTEXT ( 'NONE', 'WORKASPACE' ) );
#122 = LENGTH_MEASURE_WITH_UNIT ( LENGTH_MEASURE( 0.02539999999999999897 ), #148 );
#123 = DIRECTION ( 'NONE',  ( 1.000000000000000000, 0.000000000000000000, -1.224646799147353207E-16 ) ) ;
#124 = CYLINDRICAL_SURFACE ( 'NONE', #62, 0.1874999999999998890 ) ;
#125 = AXIS2_PLACEMENT_3D ( 'NONE', #181, #261, #91 ) ;
#126 = PRESENTATION_LAYER_ASSIGNMENT (  '', '', ( #300 ) ) ;
#127 = DIRECTION ( 'NONE',  ( -1.000000000000000000, 0.000000000000000000, 0.000000000000000000 ) ) ;
#128 = DIRECTION ( 'NONE',  ( 1.000000000000000000, 1.224646799147353454E-16, 0.000000000000000000 ) ) ;
#129 = ORIENTED_EDGE ( 'NONE', *, *, #67, .T. ) ;
#130 = FILL_AREA_STYLE ('',( #223 ) ) ;
#131 = ORIENTED_EDGE ( 'NONE', *, *, #67, .F. ) ;
#132 = EDGE_LOOP ( 'NONE', ( #190, #75, #252, #337, #369 ) ) ;
#133 = DIRECTION ( 'NONE',  ( -0.000000000000000000, -1.000000000000000000, -0.000000000000000000 ) ) ;
#134 =( GEOMETRIC_REPRESENTATION_CONTEXT ( 3 ) GLOBAL_UNCERTAINTY_ASSIGNED_CONTEXT ( ( #28 ) ) GLOBAL_UNIT_ASSIGNED_CONTEXT ( ( #321, #198, #2 ) ) REPRESENTATION_CONTEXT ( 'NONE', 'WORKASPACE' ) );
#135 = CARTESIAN_POINT ( 'NONE',  ( 1.224646799147353207E-16, 1.000000000000000000, 0.000000000000000000 ) ) ;
#136 = DIRECTION ( 'NONE',  ( -1.000000000000000000, 0.000000000000000000, 0.000000000000000000 ) ) ;
#137 = DIRECTION ( 'NONE',  ( -1.000000000000000000, 0.000000000000000000, 0.000000000000000000 ) ) ;
#138 = FILL_AREA_STYLE ('',( #242 ) ) ;
#139 = FILL_AREA_STYLE ('',( #345 ) ) ;
#140 = CIRCLE ( 'NONE', #104, 0.1875000000000000278 ) ;
#141 = PRESENTATION_LAYER_ASSIGNMENT (  '', '', ( #47 ) ) ;
#142 = EDGE_CURVE ( 'NONE', #339, #221, #21, .T. ) ;
#143 = STYLED_ITEM ( 'NONE', ( #24 ), #200 ) ;
#144 = DIRECTION ( 'NONE',  ( -0.000000000000000000, -1.000000000000000000, -0.000000000000000000 ) ) ;
#145 = SURFACE_SIDE_STYLE ('',( #324 ) ) ;
#146 = DIMENSIONAL_EXPONENTS ( 1.000000000000000000, 0.000000000000000000, 0.000000000000000000, 0.000000000000000000, 0.000000000000000000, 0.000000000000000000, 0.000000000000000000 ) ;
#147 = UNCERTAINTY_MEASURE_WITH_UNIT (LENGTH_MEASURE( 1.000000000000000082E-05 ), #256, 'distance_accuracy_value', 'NONE');
#148 =( LENGTH_UNIT ( ) NAMED_UNIT ( * ) SI_UNIT ( $, .METRE. ) );
#149 = DIRECTION ( 'NONE',  ( 0.000000000000000000, 0.000000000000000000, -1.000000000000000000 ) ) ;
#150 = SURFACE_SIDE_STYLE ('',( #264 ) ) ;
#151 = SURFACE_STYLE_USAGE ( .BOTH. , #38 ) ;
#152 = FACE_OUTER_BOUND ( 'NONE', #279, .T. ) ;
#153 = SURFACE_SIDE_STYLE ('',( #37 ) ) ;
#154 = CLOSED_SHELL ( 'NONE', ( #71, #284, #269, #288, #271 ) ) ;
#155 =( LENGTH_UNIT ( ) NAMED_UNIT ( * ) SI_UNIT ( $, .METRE. ) );
#156 = LINE ( 'NONE', #9, #187 ) ;
#157 = LENGTH_MEASURE_WITH_UNIT ( LENGTH_MEASURE( 0.02539999999999999897 ), #155 );
#158 = CARTESIAN_POINT ( 'NONE',  ( 1.224646799147353454E-16, 1.000000000000000000, 0.000000000000000000 ) ) ;
#159 =( NAMED_UNIT ( * ) SI_UNIT ( $, .STERADIAN. ) SOLID_ANGLE_UNIT ( ) );
#160 = AXIS2_PLACEMENT_3D ( 'NONE', #111, #237, #149 ) ;
#161 = FACE_OUTER_BOUND ( 'NONE', #165, .T. ) ;
#162 = MECHANICAL_DESIGN_GEOMETRIC_PRESENTATION_REPRESENTATION (  '', ( #143 ), #234 ) ;
#163 = ORIENTED_EDGE ( 'NONE', *, *, #142, .F. ) ;
#164 = CARTESIAN_POINT ( 'NONE',  ( -1.224646799147353700E-16, 3.000000000000000444, 0.000000000000000000 ) ) ;
#165 = EDGE_LOOP ( 'NONE', ( #340, #365 ) ) ;
#166 = ORIENTED_EDGE ( 'NONE', *, *, #108, .T. ) ;
#167 = STYLED_ITEM ( 'NONE', ( #93 ), #85 ) ;
#168 =( GEOMETRIC_REPRESENTATION_CONTEXT ( 3 ) GLOBAL_UNCERTAINTY_ASSIGNED_CONTEXT ( ( #3 ) ) GLOBAL_UNIT_ASSIGNED_CONTEXT ( ( #235, #347, #119 ) ) REPRESENTATION_CONTEXT ( 'NONE', 'WORKASPACE' ) );
#169 = ORIENTED_EDGE ( 'NONE', *, *, #248, .T. ) ;
#170 = SURFACE_STYLE_USAGE ( .BOTH. , #195 ) ;
#171 = CARTESIAN_POINT ( 'NONE',  ( -0.1875000000000000278, 3.000000000000000444, 0.000000000000000000 ) ) ;
#172 = SURFACE_STYLE_FILL_AREA ( #139 ) ;
#173 = CARTESIAN_POINT ( 'NONE',  ( 0.000000000000000000, 1.000000000000000000, -0.1874999999999998890 ) ) ;
#174 = SURFACE_STYLE_USAGE ( .BOTH. , #99 ) ;
#175 = DIMENSIONAL_EXPONENTS ( 1.000000000000000000, 0.000000000000000000, 0.000000000000000000, 0.000000000000000000, 0.000000000000000000, 0.000000000000000000, 0.000000000000000000 ) ;
#176 = PRESENTATION_STYLE_ASSIGNMENT (( #25 ) ) ;
#177 = DIRECTION ( 'NONE',  ( 0.000000000000000000, -0.000000000000000000, 1.000000000000000000 ) ) ;
#178 = EDGE_CURVE ( 'NONE', #311, #307, #277, .T. ) ;
#179 = PRESENTATION_LAYER_ASSIGNMENT (  '', '', ( #143 ) ) ;
#180 = AXIS2_PLACEMENT_3D ( 'NONE', #305, #100, #44 ) ;
#181 = CARTESIAN_POINT ( 'NONE',  ( 0.000000000000000000, 0.000000000000000000, 0.000000000000000000 ) ) ;
#182 = LENGTH_MEASURE_WITH_UNIT ( LENGTH_MEASURE( 0.02539999999999999897 ), #65 );
#183 = EDGE_CURVE ( 'NONE', #220, #221, #247, .T. ) ;
#184 = CARTESIAN_POINT ( 'NONE',  ( 0.1874999999999998890, 3.000000000000000444, 0.000000000000000000 ) ) ;
#185 = APPLICATION_CONTEXT ( 'automotive_design' ) ;
#186 = DIRECTION ( 'NONE',  ( -0.000000000000000000, -1.000000000000000000, -0.000000000000000000 ) ) ;
#187 = VECTOR ( 'NONE', #40, 39.37007874015748143 ) ;
#188 =( NAMED_UNIT ( * ) SI_UNIT ( $, .STERADIAN. ) SOLID_ANGLE_UNIT ( ) );
#189 = ORIENTED_EDGE ( 'NONE', *, *, #254, .F. ) ;
#190 = ORIENTED_EDGE ( 'NONE', *, *, #219, .T. ) ;
#191 = ORIENTED_EDGE ( 'NONE', *, *, #142, .T. ) ;
#192 = VERTEX_POINT ( 'NONE', #22 ) ;
#193 = CARTESIAN_POINT ( 'NONE',  ( -0.1875000000000000555, 0.1875000000000000555, 2.296212748401287726E-17 ) ) ;
#194 = VERTEX_POINT ( 'NONE', #193 ) ;
#195 = SURFACE_SIDE_STYLE ('',( #84 ) ) ;
#196 = DIRECTION ( 'NONE',  ( 0.000000000000000000, 0.000000000000000000, -1.000000000000000000 ) ) ;
#197 = DIRECTION ( 'NONE',  ( -0.000000000000000000, -1.000000000000000000, -0.000000000000000000 ) ) ;
#198 =( NAMED_UNIT ( * ) PLANE_ANGLE_UNIT ( ) SI_UNIT ( $, .RADIAN. ) );
#199 = PRESENTATION_STYLE_ASSIGNMENT (( #33 ) ) ;
#200 = MANIFOLD_SOLID_BREP ( 'Revolve - Cutting Edge', #154 ) ;
#201 = DIMENSIONAL_EXPONENTS ( 1.000000000000000000, 0.000000000000000000, 0.000000000000000000, 0.000000000000000000, 0.000000000000000000, 0.000000000000000000, 0.000000000000000000 ) ;
#202 = DIRECTION ( 'NONE',  ( -1.224646799147353454E-16, 1.000000000000000000, 0.000000000000000000 ) ) ;
#203 = EDGE_CURVE ( 'NONE', #311, #15, #362, .T. ) ;
#204 = UNCERTAINTY_MEASURE_WITH_UNIT (LENGTH_MEASURE( 1.000000000000000082E-05 ), #266, 'distance_accuracy_value', 'NONE');
#205 = SURFACE_STYLE_USAGE ( .BOTH. , #153 ) ;
#206 = MECHANICAL_DESIGN_GEOMETRIC_PRESENTATION_REPRESENTATION (  '', ( #341 ), #134 ) ;
#207 = AXIS2_PLACEMENT_3D ( 'NONE', #336, #144, #59 ) ;
#208 = FILL_AREA_STYLE_COLOUR ( '', #80 ) ;
#209 =( NAMED_UNIT ( * ) SI_UNIT ( $, .STERADIAN. ) SOLID_ANGLE_UNIT ( ) );
#210 = CARTESIAN_POINT ( 'NONE',  ( 1.224646799147353454E-16, 1.000000000000000000, 0.000000000000000000 ) ) ;
#211 = PLANE ( 'NONE',  #360 ) ;
#212 = PRESENTATION_LAYER_ASSIGNMENT (  '', '', ( #359 ) ) ;
#213 = AXIS2_PLACEMENT_3D ( 'NONE', #35, #330, #273 ) ;
#214 = AXIS2_PLACEMENT_3D ( 'NONE', #301, #319, #327 ) ;
#215 = CARTESIAN_POINT ( 'NONE',  ( -2.296212748401288034E-17, 0.1875000000000000555, 0.000000000000000000 ) ) ;
#216 = CARTESIAN_POINT ( 'NONE',  ( -1.224646799147353700E-16, 3.000000000000000444, 0.000000000000000000 ) ) ;
#217 = CARTESIAN_POINT ( 'NONE',  ( 0.000000000000000000, 0.1875000000000000555, 0.000000000000000000 ) ) ;
#218 = EDGE_LOOP ( 'NONE', ( #227, #129, #13, #253 ) ) ;
#219 = EDGE_CURVE ( 'NONE', #307, #311, #106, .T. ) ;
#220 = VERTEX_POINT ( 'NONE', #54 ) ;
#221 = VERTEX_POINT ( 'NONE', #48 ) ;
#222 = ORIENTED_EDGE ( 'NONE', *, *, #105, .F. ) ;
#223 = FILL_AREA_STYLE_COLOUR ( '', #11 ) ;
#224 =( GEOMETRIC_REPRESENTATION_CONTEXT ( 3 ) GLOBAL_UNCERTAINTY_ASSIGNED_CONTEXT ( ( #118 ) ) GLOBAL_UNIT_ASSIGNED_CONTEXT ( ( #294, #94, #302 ) ) REPRESENTATION_CONTEXT ( 'NONE', 'WORKASPACE' ) );
#225 = CIRCLE ( 'NONE', #17, 0.1875000000000000555 ) ;
#226 = PRESENTATION_LAYER_ASSIGNMENT (  '', '', ( #167 ) ) ;
#227 = ORIENTED_EDGE ( 'NONE', *, *, #105, .T. ) ;
#228 = PLANE ( 'NONE',  #68 ) ;
#229 =( LENGTH_UNIT ( ) NAMED_UNIT ( * ) SI_UNIT ( $, .METRE. ) );
#230 = DIRECTION ( 'NONE',  ( 0.000000000000000000, 0.000000000000000000, -1.000000000000000000 ) ) ;
#231 = EDGE_CURVE ( 'NONE', #221, #339, #140, .T. ) ;
#232 = FACE_OUTER_BOUND ( 'NONE', #308, .T. ) ;
#233 = SURFACE_SIDE_STYLE ('',( #172 ) ) ;
#234 =( GEOMETRIC_REPRESENTATION_CONTEXT ( 3 ) GLOBAL_UNCERTAINTY_ASSIGNED_CONTEXT ( ( #147 ) ) GLOBAL_UNIT_ASSIGNED_CONTEXT ( ( #256, #109, #188 ) ) REPRESENTATION_CONTEXT ( 'NONE', 'WORKASPACE' ) );
#235 =( CONVERSION_BASED_UNIT ( 'INCH', #267 ) LENGTH_UNIT ( ) NAMED_UNIT ( #260 ) );
#236 = FACE_OUTER_BOUND ( 'NONE', #82, .T. ) ;
#237 = DIRECTION ( 'NONE',  ( -0.000000000000000000, -1.000000000000000000, -0.000000000000000000 ) ) ;
#238 = ADVANCED_FACE ( 'NONE', ( #259 ), #333, .T. ) ;
#239 = UNCERTAINTY_MEASURE_WITH_UNIT (LENGTH_MEASURE( 1.000000000000000082E-05 ), #42, 'distance_accuracy_value', 'NONE');
#240 = FILL_AREA_STYLE_COLOUR ( '', #298 ) ;
#241 = MECHANICAL_DESIGN_GEOMETRIC_PRESENTATION_REPRESENTATION (  '', ( #167 ), #121 ) ;
#242 = FILL_AREA_STYLE_COLOUR ( '', #32 ) ;
#243 = DIRECTION ( 'NONE',  ( 0.000000000000000000, 0.000000000000000000, 1.000000000000000000 ) ) ;
#244 = MECHANICAL_DESIGN_GEOMETRIC_PRESENTATION_REPRESENTATION (  '', ( #359 ), #168 ) ;
#245 =( NAMED_UNIT ( * ) PLANE_ANGLE_UNIT ( ) SI_UNIT ( $, .RADIAN. ) );
#246 = PRODUCT_CONTEXT ( 'NONE', #30, 'mechanical' ) ;
#247 = LINE ( 'NONE', #171, #309 ) ;
#248 = EDGE_CURVE ( 'NONE', #19, #15, #63, .T. ) ;
#249 = ORIENTED_EDGE ( 'NONE', *, *, #108, .F. ) ;
#250 = ORIENTED_EDGE ( 'NONE', *, *, #183, .T. ) ;
#251 = CIRCLE ( 'NONE', #207, 0.1875000000000000555 ) ;
#252 = ORIENTED_EDGE ( 'NONE', *, *, #248, .F. ) ;
#253 = ORIENTED_EDGE ( 'NONE', *, *, #183, .F. ) ;
#254 = EDGE_CURVE ( 'NONE', #19, #338, #49, .T. ) ;
#255 = EDGE_LOOP ( 'NONE', ( #222, #249 ) ) ;
#256 =( CONVERSION_BASED_UNIT ( 'INCH', #335 ) LENGTH_UNIT ( ) NAMED_UNIT ( #112 ) );
#257 = PRESENTATION_LAYER_ASSIGNMENT (  '', '', ( #361 ) ) ;
#258 = DIRECTION ( 'NONE',  ( -0.000000000000000000, -1.000000000000000000, -0.000000000000000000 ) ) ;
#259 = FACE_OUTER_BOUND ( 'NONE', #46, .T. ) ;
#260 = DIMENSIONAL_EXPONENTS ( 1.000000000000000000, 0.000000000000000000, 0.000000000000000000, 0.000000000000000000, 0.000000000000000000, 0.000000000000000000, 0.000000000000000000 ) ;
#261 = DIRECTION ( 'NONE',  ( -0.000000000000000000, -1.000000000000000000, -0.000000000000000000 ) ) ;
#262 = VECTOR ( 'NONE', #280, 39.37007874015748143 ) ;
#263 = DIMENSIONAL_EXPONENTS ( 1.000000000000000000, 0.000000000000000000, 0.000000000000000000, 0.000000000000000000, 0.000000000000000000, 0.000000000000000000, 0.000000000000000000 ) ;
#264 = SURFACE_STYLE_FILL_AREA ( #138 ) ;
#265 =( LENGTH_UNIT ( ) NAMED_UNIT ( * ) SI_UNIT ( $, .METRE. ) );
#266 =( CONVERSION_BASED_UNIT ( 'INCH', #122 ) LENGTH_UNIT ( ) NAMED_UNIT ( #146 ) );
#267 = LENGTH_MEASURE_WITH_UNIT ( LENGTH_MEASURE( 0.02539999999999999897 ), #356 );
#268 = SHAPE_DEFINITION_REPRESENTATION ( #117, #26 ) ;
#269 = ADVANCED_FACE ( 'NONE', ( #161 ), #228, .T. ) ;
#270 = CARTESIAN_POINT ( 'NONE',  ( -1.148106374200644017E-17, 0.000000000000000000, 0.000000000000000000 ) ) ;
#271 = ADVANCED_FACE ( 'NONE', ( #232 ), #4, .T. ) ;
#272 = DIRECTION ( 'NONE',  ( -1.224646799147353454E-16, 1.000000000000000000, -0.000000000000000000 ) ) ;
#273 = DIRECTION ( 'NONE',  ( 1.000000000000000000, 0.000000000000000000, 0.000000000000000000 ) ) ;
#274 = AXIS2_PLACEMENT_3D ( 'NONE', #278, #133, #73 ) ;
#275 = AXIS2_PLACEMENT_3D ( 'NONE', #299, #86, #196 ) ;
#276 = AXIS2_PLACEMENT_3D ( 'NONE', #210, #41, #329 ) ;
#277 = CIRCLE ( 'NONE', #274, 0.1874999999999998890 ) ;
#278 = CARTESIAN_POINT ( 'NONE',  ( 0.000000000000000000, 1.000000000000000000, 0.000000000000000000 ) ) ;
#279 = EDGE_LOOP ( 'NONE', ( #76, #191 ) ) ;
#280 = DIRECTION ( 'NONE',  ( -0.000000000000000000, -1.000000000000000000, -0.000000000000000000 ) ) ;
#281 = ORIENTED_EDGE ( 'NONE', *, *, #351, .F. ) ;
#282 = VECTOR ( 'NONE', #292, 39.37007874015748143 ) ;
#283 = AXIS2_PLACEMENT_3D ( 'NONE', #216, #70, #14 ) ;
#284 = ADVANCED_FACE ( 'NONE', ( #92 ), #317, .T. ) ;
#285 = SURFACE_STYLE_FILL_AREA ( #12 ) ;
#286 = EDGE_CURVE ( 'NONE', #79, #19, #322, .T. ) ;
#287 = FILL_AREA_STYLE_COLOUR ( '', #116 ) ;
#288 = ADVANCED_FACE ( 'NONE', ( #60 ), #295, .T. ) ;
#289 = CARTESIAN_POINT ( 'NONE',  ( 2.296212748401286493E-17, 1.000000000000000000, 0.1874999999999998890 ) ) ;
#290 = ORIENTED_EDGE ( 'NONE', *, *, #312, .T. ) ;
#291 = DIRECTION ( 'NONE',  ( -1.224646799147353454E-16, 1.000000000000000000, -0.000000000000000000 ) ) ;
#292 = DIRECTION ( 'NONE',  ( -1.224646799147353454E-16, 1.000000000000000000, -0.000000000000000000 ) ) ;
#293 = LENGTH_MEASURE_WITH_UNIT ( LENGTH_MEASURE( 0.02539999999999999897 ), #6 );
#294 =( CONVERSION_BASED_UNIT ( 'INCH', #182 ) LENGTH_UNIT ( ) NAMED_UNIT ( #175 ) );
#295 = CYLINDRICAL_SURFACE ( 'NONE', #275, 0.1874999999999999722 ) ;
#296 = PRESENTATION_STYLE_ASSIGNMENT (( #1 ) ) ;
#297 = DIMENSIONAL_EXPONENTS ( 1.000000000000000000, 0.000000000000000000, 0.000000000000000000, 0.000000000000000000, 0.000000000000000000, 0.000000000000000000, 0.000000000000000000 ) ;
#298 = COLOUR_RGB ( '',1.000000000000000000, 0.000000000000000000, 0.000000000000000000 ) ;
#299 = CARTESIAN_POINT ( 'NONE',  ( 0.000000000000000000, 0.000000000000000000, 0.000000000000000000 ) ) ;
#300 = STYLED_ITEM ( 'NONE', ( #373 ), #284 ) ;
#301 = CARTESIAN_POINT ( 'NONE',  ( -2.296212748401288034E-17, 0.1875000000000000555, 0.000000000000000000 ) ) ;
#302 =( NAMED_UNIT ( * ) SI_UNIT ( $, .STERADIAN. ) SOLID_ANGLE_UNIT ( ) );
#303 =( NAMED_UNIT ( * ) PLANE_ANGLE_UNIT ( ) SI_UNIT ( $, .RADIAN. ) );
#304 = FILL_AREA_STYLE ('',( #208 ) ) ;
#305 = CARTESIAN_POINT ( 'NONE',  ( -2.296212748401288034E-17, 0.1875000000000000555, 0.000000000000000000 ) ) ;
#306 = ORIENTED_EDGE ( 'NONE', *, *, #351, .T. ) ;
#307 = VERTEX_POINT ( 'NONE', #173 ) ;
#308 = EDGE_LOOP ( 'NONE', ( #281, #290, #77, #103 ) ) ;
#309 = VECTOR ( 'NONE', #344, 39.37007874015748143 ) ;
#310 = CIRCLE ( 'NONE', #343, 0.1874999999999997780 ) ;
#311 = VERTEX_POINT ( 'NONE', #289 ) ;
#312 = EDGE_CURVE ( 'NONE', #194, #79, #346, .T. ) ;
#313 = PRESENTATION_STYLE_ASSIGNMENT (( #170 ) ) ;
#314 =( CONVERSION_BASED_UNIT ( 'INCH', #349 ) LENGTH_UNIT ( ) NAMED_UNIT ( #297 ) );
#315 = DIRECTION ( 'NONE',  ( 0.000000000000000000, 0.000000000000000000, -1.000000000000000000 ) ) ;
#316 = CARTESIAN_POINT ( 'NONE',  ( 0.1874999999999997502, 3.000000000000000444, 2.296212748401285877E-17 ) ) ;
#317 = CYLINDRICAL_SURFACE ( 'NONE', #125, 0.1874999999999999722 ) ;
#318 = PRODUCT_DEFINITION_CONTEXT ( 'detailed design', #185, 'design' ) ;
#319 = DIRECTION ( 'NONE',  ( 0.000000000000000000, 0.000000000000000000, 1.000000000000000000 ) ) ;
#320 = DIMENSIONAL_EXPONENTS ( 1.000000000000000000, 0.000000000000000000, 0.000000000000000000, 0.000000000000000000, 0.000000000000000000, 0.000000000000000000, 0.000000000000000000 ) ;
#321 =( CONVERSION_BASED_UNIT ( 'INCH', #293 ) LENGTH_UNIT ( ) NAMED_UNIT ( #263 ) );
#322 = CIRCLE ( 'NONE', #160, 0.1875000000000000555 ) ;
#323 = PRODUCT_DEFINITION_FORMATION_WITH_SPECIFIED_SOURCE ( 'ANY', '', #36, .NOT_KNOWN. ) ;
#324 = SURFACE_STYLE_FILL_AREA ( #114 ) ;
#325 = MECHANICAL_DESIGN_GEOMETRIC_PRESENTATION_REPRESENTATION (  '', ( #300 ), #78 ) ;
#326 = FILL_AREA_STYLE_COLOUR ( '', #39 ) ;
#327 = DIRECTION ( 'NONE',  ( 1.000000000000000000, 0.000000000000000000, 0.000000000000000000 ) ) ;
#328 = APPLICATION_PROTOCOL_DEFINITION ( 'draft international standard', 'automotive_design', 1998, #30 ) ;
#329 = DIRECTION ( 'NONE',  ( -1.000000000000000000, 0.000000000000000000, 0.000000000000000000 ) ) ;
#330 = DIRECTION ( 'NONE',  ( 0.000000000000000000, 0.000000000000000000, 1.000000000000000000 ) ) ;
#331 = MECHANICAL_DESIGN_GEOMETRIC_PRESENTATION_REPRESENTATION (  '', ( #361 ), #224 ) ;
#332 = DIRECTION ( 'NONE',  ( -1.000000000000000000, 0.000000000000000000, 0.000000000000000000 ) ) ;
#333 = CYLINDRICAL_SURFACE ( 'NONE', #283, 0.1874999999999998890 ) ;
#334 = ADVANCED_FACE ( 'NONE', ( #152 ), #211, .F. ) ;
#335 = LENGTH_MEASURE_WITH_UNIT ( LENGTH_MEASURE( 0.02539999999999999897 ), #229 );
#336 = CARTESIAN_POINT ( 'NONE',  ( 0.000000000000000000, 0.1875000000000000555, 0.000000000000000000 ) ) ;
#337 = ORIENTED_EDGE ( 'NONE', *, *, #286, .F. ) ;
#338 = VERTEX_POINT ( 'NONE', #270 ) ;
#339 = VERTEX_POINT ( 'NONE', #357 ) ;
#340 = ORIENTED_EDGE ( 'NONE', *, *, #219, .F. ) ;
#341 = STYLED_ITEM ( 'NONE', ( #199 ), #288 ) ;
#342 = DIRECTION ( 'NONE',  ( -1.224646799147353454E-16, 1.000000000000000000, -0.000000000000000000 ) ) ;
#343 = AXIS2_PLACEMENT_3D ( 'NONE', #158, #272, #127 ) ;
#344 = DIRECTION ( 'NONE',  ( -1.224646799147353454E-16, 1.000000000000000000, -0.000000000000000000 ) ) ;
#345 = FILL_AREA_STYLE_COLOUR ( '', #371 ) ;
#346 = CIRCLE ( 'NONE', #88, 0.1875000000000000555 ) ;
#347 =( NAMED_UNIT ( * ) PLANE_ANGLE_UNIT ( ) SI_UNIT ( $, .RADIAN. ) );
#348 = PRODUCT_DEFINITION ( 'UNKNOWN', '', #323, #318 ) ;
#349 = LENGTH_MEASURE_WITH_UNIT ( LENGTH_MEASURE( 0.02539999999999999897 ), #265 );
#350 = UNCERTAINTY_MEASURE_WITH_UNIT (LENGTH_MEASURE( 1.000000000000000082E-05 ), #314, 'distance_accuracy_value', 'NONE');
#351 = EDGE_CURVE ( 'NONE', #194, #338, #225, .T. ) ;
#352 = AXIS2_PLACEMENT_3D ( 'NONE', #52, #197, #315 ) ;
#353 = FILL_AREA_STYLE ('',( #326 ) ) ;
#354 = MECHANICAL_DESIGN_GEOMETRIC_PRESENTATION_REPRESENTATION (  '', ( #47 ), #89 ) ;
#355 = DIRECTION ( 'NONE',  ( 1.224646799147353454E-16, -1.000000000000000000, 0.000000000000000000 ) ) ;
#356 =( LENGTH_UNIT ( ) NAMED_UNIT ( * ) SI_UNIT ( $, .METRE. ) );
#357 = CARTESIAN_POINT ( 'NONE',  ( 0.1874999999999998890, 3.000000000000000444, 2.296212748401286801E-17 ) ) ;
#358 = CARTESIAN_POINT ( 'NONE',  ( -1.224646799147353700E-16, 3.000000000000000444, 0.000000000000000000 ) ) ;
#359 = STYLED_ITEM ( 'NONE', ( #296 ), #271 ) ;
#360 = AXIS2_PLACEMENT_3D ( 'NONE', #184, #355, #128 ) ;
#361 = STYLED_ITEM ( 'NONE', ( #313 ), #269 ) ;
#362 = LINE ( 'NONE', #364, #262 ) ;
#363 = CARTESIAN_POINT ( 'NONE',  ( 2.296212748401288034E-17, 0.1875000000000000555, 0.1875000000000000555 ) ) ;
#364 = CARTESIAN_POINT ( 'NONE',  ( 2.296212748401286801E-17, 0.000000000000000000, 0.1874999999999999722 ) ) ;
#365 = ORIENTED_EDGE ( 'NONE', *, *, #178, .F. ) ;
#366 = AXIS2_PLACEMENT_3D ( 'NONE', #135, #202, #372 ) ;
#367 = ORIENTED_EDGE ( 'NONE', *, *, #178, .T. ) ;
#368 = EDGE_LOOP ( 'NONE', ( #18, #367, #50, #74, #102 ) ) ;
#369 = ORIENTED_EDGE ( 'NONE', *, *, #83, .F. ) ;
#370 = PRESENTATION_LAYER_ASSIGNMENT (  '', '', ( #341 ) ) ;
#371 = COLOUR_RGB ( '',1.000000000000000000, 0.000000000000000000, 0.000000000000000000 ) ;
#372 = DIRECTION ( 'NONE',  ( -1.000000000000000000, -1.224646799147353454E-16, 0.000000000000000000 ) ) ;
#373 = PRESENTATION_STYLE_ASSIGNMENT (( #205 ) ) ;
ENDSEC;
END-ISO-10303-21;
