ISO-10303-21;
HEADER;
FILE_DESCRIPTION (( 'STEP AP214' ),
    '1' );
FILE_NAME ('Micro_AMRM-019-2.STEP',
    '2021-09-01T17:16:50',
    ( '' ),
    ( '' ),
    'SwSTEP 2.0',
    'SolidWorks 2020',
    '' );
FILE_SCHEMA (( 'AUTOMOTIVE_DESIGN' ));
ENDSEC;

DATA;
#1 = VECTOR ( 'NONE', #113, 39.37007874015747433 ) ;
#2 = EDGE_LOOP ( 'NONE', ( #268, #278 ) ) ;
#3 = EDGE_CURVE ( 'NONE', #245, #28, #184, .T. ) ;
#4 = UNCERTAINTY_MEASURE_WITH_UNIT (LENGTH_MEASURE( 1.000000000000000082E-05 ), #80, 'distance_accuracy_value', 'NONE');
#5 = VERTEX_POINT ( 'NONE', #15 ) ;
#6 = SURFACE_SIDE_STYLE ('',( #51 ) ) ;
#7 = ORIENTED_EDGE ( 'NONE', *, *, #70, .F. ) ;
#8 = ADVANCED_BREP_SHAPE_REPRESENTATION ( 'Micro_AMRM-019-2', ( #65, #89 ), #117 ) ;
#9 = VERTEX_POINT ( 'NONE', #157 ) ;
#10 = DIRECTION ( 'NONE',  ( 1.000000000000000000, 0.0000000000000000000, 0.0000000000000000000 ) ) ;
#11 = EDGE_CURVE ( 'NONE', #52, #5, #286, .T. ) ;
#12 = DIRECTION ( 'NONE',  ( -1.000000000000000000, 0.0000000000000000000, 0.0000000000000000000 ) ) ;
#13 = AXIS2_PLACEMENT_3D ( 'NONE', #100, #98, #194 ) ;
#14 =( LENGTH_UNIT ( ) NAMED_UNIT ( * ) SI_UNIT ( $, .METRE. ) );
#15 = CARTESIAN_POINT ( 'NONE',  ( -0.06374000000000018540, 0.0000000000000000000, 1.968503999999999809 ) ) ;
#16 = DIMENSIONAL_EXPONENTS ( 1.000000000000000000, 0.0000000000000000000, 0.0000000000000000000, 0.0000000000000000000, 0.0000000000000000000, 0.0000000000000000000, 0.0000000000000000000 ) ;
#17 = CYLINDRICAL_SURFACE ( 'NONE', #105, 0.03736409849999999117 ) ;
#18 = EDGE_CURVE ( 'NONE', #28, #266, #267, .T. ) ;
#19 = CARTESIAN_POINT ( 'NONE',  ( 0.03736409849999999117, 4.575782363105141468E-18, 0.0000000000000000000 ) ) ;
#20 = DIRECTION ( 'NONE',  ( 1.000000000000000000, 0.0000000000000000000, 0.0000000000000000000 ) ) ;
#21 = COLOUR_RGB ( '',0.7921568627450980005, 0.8196078431372548767, 0.9333333333333333481 ) ;
#22 = CARTESIAN_POINT ( 'NONE',  ( 0.0000000000000000000, 0.0000000000000000000, 1.968503999999999809 ) ) ;
#23 = PRODUCT_DEFINITION_FORMATION_WITH_SPECIFIED_SOURCE ( 'ANY', '', #68, .NOT_KNOWN. ) ;
#24 = EDGE_LOOP ( 'NONE', ( #258, #110, #106, #264 ) ) ;
#25 = CARTESIAN_POINT ( 'NONE',  ( 0.0000000000000000000, 0.0000000000000000000, 1.968503999999999809 ) ) ;
#26 = AXIS2_PLACEMENT_3D ( 'NONE', #22, #72, #116 ) ;
#27 = CARTESIAN_POINT ( 'NONE',  ( -0.03736409849999997035, 7.109325629795700759E-18, 0.2244089999999999974 ) ) ;
#28 = VERTEX_POINT ( 'NONE', #162 ) ;
#29 = ORIENTED_EDGE ( 'NONE', *, *, #241, .T. ) ;
#30 = EDGE_CURVE ( 'NONE', #9, #222, #243, .T. ) ;
#31 = ORIENTED_EDGE ( 'NONE', *, *, #119, .T. ) ;
#32 = PRODUCT_DEFINITION_SHAPE ( 'NONE', 'NONE',  #188 ) ;
#33 = ORIENTED_EDGE ( 'NONE', *, *, #11, .T. ) ;
#34 = PRODUCT_CONTEXT ( 'NONE', #212, 'mechanical' ) ;
#35 = CARTESIAN_POINT ( 'NONE',  ( 0.0000000000000000000, 0.0000000000000000000, 1.968503999999999809 ) ) ;
#36 = ADVANCED_FACE ( 'NONE', ( #285 ), #60, .T. ) ;
#37 = VECTOR ( 'NONE', #138, 39.37007874015748143 ) ;
#38 = CARTESIAN_POINT ( 'NONE',  ( 0.0000000000000000000, 0.0000000000000000000, 1.968503999999999809 ) ) ;
#39 = AXIS2_PLACEMENT_3D ( 'NONE', #25, #202, #195 ) ;
#40 = CARTESIAN_POINT ( 'NONE',  ( 0.0000000000000000000, 0.0000000000000000000, 1.968503999999999809 ) ) ;
#41 = DIMENSIONAL_EXPONENTS ( 1.000000000000000000, 0.0000000000000000000, 0.0000000000000000000, 0.0000000000000000000, 0.0000000000000000000, 0.0000000000000000000, 0.0000000000000000000 ) ;
#42 = DIRECTION ( 'NONE',  ( -1.000000000000000000, 0.0000000000000000000, 1.224646799147353207E-16 ) ) ;
#43 = EDGE_CURVE ( 'NONE', #222, #183, #63, .T. ) ;
#44 = LINE ( 'NONE', #274, #49 ) ;
#45 = AXIS2_PLACEMENT_3D ( 'NONE', #254, #139, #293 ) ;
#46 = FACE_OUTER_BOUND ( 'NONE', #79, .T. ) ;
#47 = EDGE_CURVE ( 'NONE', #5, #222, #250, .T. ) ;
#48 = DIRECTION ( 'NONE',  ( -1.224646799147353207E-16, -0.0000000000000000000, -1.000000000000000000 ) ) ;
#49 = VECTOR ( 'NONE', #191, 39.37007874015748143 ) ;
#50 = DIRECTION ( 'NONE',  ( 0.0000000000000000000, 0.0000000000000000000, -1.000000000000000000 ) ) ;
#51 = SURFACE_STYLE_FILL_AREA ( #259 ) ;
#52 = VERTEX_POINT ( 'NONE', #135 ) ;
#53 = ADVANCED_FACE ( 'NONE', ( #226 ), #123, .T. ) ;
#54 = ORIENTED_EDGE ( 'NONE', *, *, #134, .F. ) ;
#55 = AXIS2_PLACEMENT_3D ( 'NONE', #146, #48, #90 ) ;
#56 =( NAMED_UNIT ( * ) PLANE_ANGLE_UNIT ( ) SI_UNIT ( $, .RADIAN. ) );
#57 = ORIENTED_EDGE ( 'NONE', *, *, #119, .F. ) ;
#58 = ORIENTED_EDGE ( 'NONE', *, *, #126, .T. ) ;
#59 = ORIENTED_EDGE ( 'NONE', *, *, #30, .T. ) ;
#60 = CONICAL_SURFACE ( 'NONE', #290, 0.06374000000000018540, 0.7853981633974528309 ) ;
#61 = ORIENTED_EDGE ( 'NONE', *, *, #279, .T. ) ;
#62 = ADVANCED_FACE ( 'NONE', ( #248 ), #158, .T. ) ;
#63 = LINE ( 'NONE', #83, #281 ) ;
#64 = PRESENTATION_STYLE_ASSIGNMENT (( #182 ) ) ;
#65 = MANIFOLD_SOLID_BREP ( 'Cut-Revolve1', #252 ) ;
#66 = DIRECTION ( 'NONE',  ( -1.224646799147353207E-16, -0.0000000000000000000, -1.000000000000000000 ) ) ;
#67 = AXIS2_PLACEMENT_3D ( 'NONE', #255, #272, #298 ) ;
#68 = PRODUCT ( 'Micro_AMRM-019-2', 'Micro_AMRM-019-2', '', ( #34 ) ) ;
#69 = DIRECTION ( 'NONE',  ( -1.000000000000000000, 0.0000000000000000000, 1.224646799147353207E-16 ) ) ;
#70 = EDGE_CURVE ( 'NONE', #245, #183, #216, .T. ) ;
#71 = CARTESIAN_POINT ( 'NONE',  ( 0.07874000000000001831, 9.642868896486260050E-18, 1.968503999999999809 ) ) ;
#72 = DIRECTION ( 'NONE',  ( 0.0000000000000000000, 0.0000000000000000000, 1.000000000000000000 ) ) ;
#73 = CARTESIAN_POINT ( 'NONE',  ( -0.07874000000000001831, 0.0000000000000000000, 1.953504000000000129 ) ) ;
#74 = ADVANCED_FACE ( 'NONE', ( #228 ), #186, .F. ) ;
#75 = DIRECTION ( 'NONE',  ( -1.224646799147353207E-16, -0.0000000000000000000, -1.000000000000000000 ) ) ;
#76 = VECTOR ( 'NONE', #165, 39.37007874015748143 ) ;
#77 = ORIENTED_EDGE ( 'NONE', *, *, #178, .T. ) ;
#78 = CARTESIAN_POINT ( 'NONE',  ( 0.07874000000000007382, 9.642868896486266213E-18, 0.4590633979472419912 ) ) ;
#79 = EDGE_LOOP ( 'NONE', ( #260, #130, #31, #169 ) ) ;
#80 =( CONVERSION_BASED_UNIT ( 'INCH', #81 ) LENGTH_UNIT ( ) NAMED_UNIT ( #143 ) );
#81 = LENGTH_MEASURE_WITH_UNIT ( LENGTH_MEASURE( 0.02539999999999999897 ), #263 );
#82 =( CONVERSION_BASED_UNIT ( 'INCH', #111 ) LENGTH_UNIT ( ) NAMED_UNIT ( #16 ) );
#83 = CARTESIAN_POINT ( 'NONE',  ( -0.07874000000000001831, 0.0000000000000000000, 1.968503999999999809 ) ) ;
#84 = MECHANICAL_DESIGN_GEOMETRIC_PRESENTATION_REPRESENTATION (  '', ( #215 ), #161 ) ;
#85 = DIRECTION ( 'NONE',  ( -1.000000000000000000, 0.0000000000000000000, 0.0000000000000000000 ) ) ;
#86 = FILL_AREA_STYLE_COLOUR ( '', #204 ) ;
#87 = VERTEX_POINT ( 'NONE', #19 ) ;
#88 = DIRECTION ( 'NONE',  ( -1.224646799147353207E-16, -0.0000000000000000000, -1.000000000000000000 ) ) ;
#89 = AXIS2_PLACEMENT_3D ( 'NONE', #283, #227, #244 ) ;
#90 = DIRECTION ( 'NONE',  ( -1.000000000000000000, 0.0000000000000000000, 1.224646799147353207E-16 ) ) ;
#91 = CARTESIAN_POINT ( 'NONE',  ( -0.07873999999999996280, 0.0000000000000000000, 0.4590633979472419912 ) ) ;
#92 = CARTESIAN_POINT ( 'NONE',  ( -0.03736409849999999117, 0.0000000000000000000, 4.575782363105141468E-18 ) ) ;
#93 = AXIS2_PLACEMENT_3D ( 'NONE', #166, #88, #218 ) ;
#94 = DIRECTION ( 'NONE',  ( -1.224646799147353207E-16, -0.0000000000000000000, -1.000000000000000000 ) ) ;
#95 = AXIS2_PLACEMENT_3D ( 'NONE', #132, #66, #12 ) ;
#96 = ADVANCED_FACE ( 'NONE', ( #211 ), #147, .T. ) ;
#97 = PRESENTATION_LAYER_ASSIGNMENT (  '', '', ( #215 ) ) ;
#98 = DIRECTION ( 'NONE',  ( 1.224646799147353207E-16, 0.0000000000000000000, 1.000000000000000000 ) ) ;
#99 = ORIENTED_EDGE ( 'NONE', *, *, #145, .T. ) ;
#100 = CARTESIAN_POINT ( 'NONE',  ( 2.748217635498583829E-17, 0.0000000000000000000, 0.2244089999999999974 ) ) ;
#101 = ORIENTED_EDGE ( 'NONE', *, *, #230, .F. ) ;
#102 = ADVANCED_FACE ( 'NONE', ( #46 ), #221, .T. ) ;
#103 = PRESENTATION_STYLE_ASSIGNMENT (( #175 ) ) ;
#104 = EDGE_LOOP ( 'NONE', ( #176, #29, #154, #170 ) ) ;
#105 = AXIS2_PLACEMENT_3D ( 'NONE', #114, #214, #69 ) ;
#106 = ORIENTED_EDGE ( 'NONE', *, *, #47, .T. ) ;
#107 = DIRECTION ( 'NONE',  ( 1.000000000000000000, 0.0000000000000000000, 0.0000000000000000000 ) ) ;
#108 = DIRECTION ( 'NONE',  ( 0.0000000000000000000, 0.0000000000000000000, -1.000000000000000000 ) ) ;
#109 = AXIS2_PLACEMENT_3D ( 'NONE', #233, #294, #192 ) ;
#110 = ORIENTED_EDGE ( 'NONE', *, *, #178, .F. ) ;
#111 = LENGTH_MEASURE_WITH_UNIT ( LENGTH_MEASURE( 0.02539999999999999897 ), #14 );
#112 = CIRCLE ( 'NONE', #256, 0.07874000000000001831 ) ;
#113 = DIRECTION ( 'NONE',  ( -0.1736481776669311916, 2.126576849575783316E-17, 0.9848077530122080203 ) ) ;
#114 = CARTESIAN_POINT ( 'NONE',  ( 0.0000000000000000000, 0.0000000000000000000, 0.0000000000000000000 ) ) ;
#115 = FACE_OUTER_BOUND ( 'NONE', #203, .T. ) ;
#116 = DIRECTION ( 'NONE',  ( 1.000000000000000000, 0.0000000000000000000, -0.0000000000000000000 ) ) ;
#117 =( GEOMETRIC_REPRESENTATION_CONTEXT ( 3 ) GLOBAL_UNCERTAINTY_ASSIGNED_CONTEXT ( ( #238 ) ) GLOBAL_UNIT_ASSIGNED_CONTEXT ( ( #277, #299, #150 ) ) REPRESENTATION_CONTEXT ( 'NONE', 'WORKASPACE' ) );
#118 = DIRECTION ( 'NONE',  ( 1.000000000000000000, 0.0000000000000000000, 0.0000000000000000000 ) ) ;
#119 = EDGE_CURVE ( 'NONE', #183, #266, #288, .T. ) ;
#120 = ORIENTED_EDGE ( 'NONE', *, *, #193, .T. ) ;
#121 = CARTESIAN_POINT ( 'NONE',  ( -0.03736409849999999117, 0.0000000000000000000, 9.151564726210282937E-18 ) ) ;
#122 = ORIENTED_EDGE ( 'NONE', *, *, #43, .T. ) ;
#123 = CONICAL_SURFACE ( 'NONE', #141, 0.06374000000000018540, 0.7853981633974528309 ) ;
#124 =( LENGTH_UNIT ( ) NAMED_UNIT ( * ) SI_UNIT ( $, .METRE. ) );
#125 = APPLICATION_CONTEXT ( 'automotive_design' ) ;
#126 = EDGE_CURVE ( 'NONE', #28, #87, #44, .T. ) ;
#127 =( NAMED_UNIT ( * ) SI_UNIT ( $, .STERADIAN. ) SOLID_ANGLE_UNIT ( ) );
#128 = ORIENTED_EDGE ( 'NONE', *, *, #193, .F. ) ;
#129 = AXIS2_PLACEMENT_3D ( 'NONE', #40, #247, #10 ) ;
#130 = ORIENTED_EDGE ( 'NONE', *, *, #70, .T. ) ;
#131 = VECTOR ( 'NONE', #75, 39.37007874015748143 ) ;
#132 = CARTESIAN_POINT ( 'NONE',  ( 2.748217635498583829E-17, 0.0000000000000000000, 0.2244089999999999974 ) ) ;
#133 = DIRECTION ( 'NONE',  ( 0.0000000000000000000, 0.0000000000000000000, -1.000000000000000000 ) ) ;
#134 = EDGE_CURVE ( 'NONE', #280, #87, #190, .T. ) ;
#135 = CARTESIAN_POINT ( 'NONE',  ( 0.06374000000000018540, 8.724383797125754882E-18, 1.968503999999999809 ) ) ;
#136 = AXIS2_PLACEMENT_3D ( 'NONE', #35, #287, #85 ) ;
#137 = DIRECTION ( 'NONE',  ( 0.0000000000000000000, 0.0000000000000000000, -1.000000000000000000 ) ) ;
#138 = DIRECTION ( 'NONE',  ( 0.1736481776669313859, 0.0000000000000000000, 0.9848077530122077983 ) ) ;
#139 = DIRECTION ( 'NONE',  ( -1.224646799147353207E-16, -0.0000000000000000000, -1.000000000000000000 ) ) ;
#140 = AXIS2_PLACEMENT_3D ( 'NONE', #225, #133, #107 ) ;
#141 = AXIS2_PLACEMENT_3D ( 'NONE', #38, #108, #206 ) ;
#142 = PLANE ( 'NONE',  #26 ) ;
#143 = DIMENSIONAL_EXPONENTS ( 1.000000000000000000, 0.0000000000000000000, 0.0000000000000000000, 0.0000000000000000000, 0.0000000000000000000, 0.0000000000000000000, 0.0000000000000000000 ) ;
#144 = CARTESIAN_POINT ( 'NONE',  ( -0.03736409849999997035, 4.575782363105141468E-18, 0.2244089999999999974 ) ) ;
#145 = EDGE_CURVE ( 'NONE', #266, #183, #112, .T. ) ;
#146 = CARTESIAN_POINT ( 'NONE',  ( 5.603717224571623841E-34, 0.0000000000000000000, 4.575782363105141468E-18 ) ) ;
#147 = CYLINDRICAL_SURFACE ( 'NONE', #276, 0.03736409849999999117 ) ;
#148 = CIRCLE ( 'NONE', #174, 0.07874000000000001831 ) ;
#149 = EDGE_CURVE ( 'NONE', #9, #266, #187, .T. ) ;
#150 =( NAMED_UNIT ( * ) SI_UNIT ( $, .STERADIAN. ) SOLID_ANGLE_UNIT ( ) );
#151 = CARTESIAN_POINT ( 'NONE',  ( 0.06374000000000018540, 7.805898697765251255E-18, 1.968503999999999809 ) ) ;
#152 = ORIENTED_EDGE ( 'NONE', *, *, #149, .T. ) ;
#153 = CONICAL_SURFACE ( 'NONE', #13, 0.03736409849999999117, 0.1745329251994338915 ) ;
#154 = ORIENTED_EDGE ( 'NONE', *, *, #279, .F. ) ;
#155 = EDGE_LOOP ( 'NONE', ( #270, #58, #54, #128 ) ) ;
#156 = ADVANCED_FACE ( 'NONE', ( #115 ), #17, .T. ) ;
#157 = CARTESIAN_POINT ( 'NONE',  ( 0.07874000000000001831, 9.642868896486260050E-18, 1.953504000000000129 ) ) ;
#158 = CYLINDRICAL_SURFACE ( 'NONE', #136, 0.07874000000000001831 ) ;
#159 = FILL_AREA_STYLE ('',( #86 ) ) ;
#160 = ADVANCED_FACE ( 'NONE', ( #251 ), #142, .T. ) ;
#161 =( GEOMETRIC_REPRESENTATION_CONTEXT ( 3 ) GLOBAL_UNCERTAINTY_ASSIGNED_CONTEXT ( ( #171 ) ) GLOBAL_UNIT_ASSIGNED_CONTEXT ( ( #82, #164, #167 ) ) REPRESENTATION_CONTEXT ( 'NONE', 'WORKASPACE' ) );
#162 = CARTESIAN_POINT ( 'NONE',  ( 0.03736409850000001892, 0.0000000000000000000, 0.2244089999999999974 ) ) ;
#163 = DIRECTION ( 'NONE',  ( 0.0000000000000000000, 0.0000000000000000000, 1.000000000000000000 ) ) ;
#164 =( NAMED_UNIT ( * ) PLANE_ANGLE_UNIT ( ) SI_UNIT ( $, .RADIAN. ) );
#165 = DIRECTION ( 'NONE',  ( -0.0000000000000000000, -0.0000000000000000000, -1.000000000000000000 ) ) ;
#166 = CARTESIAN_POINT ( 'NONE',  ( 5.603717224571623841E-34, 0.0000000000000000000, 4.575782363105141468E-18 ) ) ;
#167 =( NAMED_UNIT ( * ) SI_UNIT ( $, .STERADIAN. ) SOLID_ANGLE_UNIT ( ) );
#168 = LINE ( 'NONE', #151, #185 ) ;
#169 = ORIENTED_EDGE ( 'NONE', *, *, #18, .F. ) ;
#170 = ORIENTED_EDGE ( 'NONE', *, *, #47, .F. ) ;
#171 = UNCERTAINTY_MEASURE_WITH_UNIT (LENGTH_MEASURE( 1.000000000000000082E-05 ), #82, 'distance_accuracy_value', 'NONE');
#172 = DIRECTION ( 'NONE',  ( 1.000000000000000000, 0.0000000000000000000, 0.0000000000000000000 ) ) ;
#173 = EDGE_LOOP ( 'NONE', ( #7, #197, #208, #99 ) ) ;
#174 = AXIS2_PLACEMENT_3D ( 'NONE', #236, #50, #172 ) ;
#175 = SURFACE_STYLE_USAGE ( .BOTH. , #6 ) ;
#176 = ORIENTED_EDGE ( 'NONE', *, *, #11, .F. ) ;
#177 = DIRECTION ( 'NONE',  ( -0.0000000000000000000, -0.0000000000000000000, -1.000000000000000000 ) ) ;
#178 = EDGE_CURVE ( 'NONE', #5, #52, #297, .T. ) ;
#179 = ORIENTED_EDGE ( 'NONE', *, *, #126, .F. ) ;
#180 = SURFACE_STYLE_FILL_AREA ( #159 ) ;
#181 = EDGE_CURVE ( 'NONE', #28, #245, #239, .T. ) ;
#182 = SURFACE_STYLE_USAGE ( .BOTH. , #249 ) ;
#183 = VERTEX_POINT ( 'NONE', #91 ) ;
#184 = CIRCLE ( 'NONE', #95, 0.03736409849999999117 ) ;
#185 = VECTOR ( 'NONE', #240, 39.37007874015748143 ) ;
#186 = PLANE ( 'NONE',  #67 ) ;
#187 = LINE ( 'NONE', #71, #76 ) ;
#188 = PRODUCT_DEFINITION ( 'UNKNOWN', '', #23, #201 ) ;
#189 = DIRECTION ( 'NONE',  ( 1.224646799147353207E-16, 0.0000000000000000000, 1.000000000000000000 ) ) ;
#190 = CIRCLE ( 'NONE', #55, 0.03736409849999999117 ) ;
#191 = DIRECTION ( 'NONE',  ( -1.224646799147353207E-16, -0.0000000000000000000, -1.000000000000000000 ) ) ;
#192 = DIRECTION ( 'NONE',  ( -1.000000000000000000, 0.0000000000000000000, 0.0000000000000000000 ) ) ;
#193 = EDGE_CURVE ( 'NONE', #245, #280, #291, .T. ) ;
#194 = DIRECTION ( 'NONE',  ( 1.000000000000000000, 0.0000000000000000000, 0.0000000000000000000 ) ) ;
#195 = DIRECTION ( 'NONE',  ( -1.000000000000000000, 0.0000000000000000000, 0.0000000000000000000 ) ) ;
#196 = AXIS2_PLACEMENT_3D ( 'NONE', #231, #189, #271 ) ;
#197 = ORIENTED_EDGE ( 'NONE', *, *, #181, .F. ) ;
#198 =( GEOMETRIC_REPRESENTATION_CONTEXT ( 3 ) GLOBAL_UNCERTAINTY_ASSIGNED_CONTEXT ( ( #4 ) ) GLOBAL_UNIT_ASSIGNED_CONTEXT ( ( #80, #56, #127 ) ) REPRESENTATION_CONTEXT ( 'NONE', 'WORKASPACE' ) );
#199 = FILL_AREA_STYLE_COLOUR ( '', #21 ) ;
#200 = ORIENTED_EDGE ( 'NONE', *, *, #149, .F. ) ;
#201 = PRODUCT_DEFINITION_CONTEXT ( 'detailed design', #125, 'design' ) ;
#202 = DIRECTION ( 'NONE',  ( -0.0000000000000000000, -0.0000000000000000000, -1.000000000000000000 ) ) ;
#203 = EDGE_LOOP ( 'NONE', ( #179, #205, #120, #101 ) ) ;
#204 = COLOUR_RGB ( '',0.7921568627450980005, 0.8196078431372548767, 0.9333333333333333481 ) ;
#205 = ORIENTED_EDGE ( 'NONE', *, *, #181, .T. ) ;
#206 = DIRECTION ( 'NONE',  ( -1.000000000000000000, 0.0000000000000000000, 0.0000000000000000000 ) ) ;
#207 = CARTESIAN_POINT ( 'NONE',  ( 0.0000000000000000000, 0.0000000000000000000, 1.968503999999999809 ) ) ;
#208 = ORIENTED_EDGE ( 'NONE', *, *, #18, .T. ) ;
#209 = DIRECTION ( 'NONE',  ( -0.7071067811865507924, 0.0000000000000000000, -0.7071067811865443531 ) ) ;
#210 = PRESENTATION_LAYER_ASSIGNMENT (  '', '', ( #292 ) ) ;
#211 = FACE_OUTER_BOUND ( 'NONE', #155, .T. ) ;
#212 = APPLICATION_CONTEXT ( 'automotive_design' ) ;
#213 = CARTESIAN_POINT ( 'NONE',  ( 5.621905209017974867E-17, 0.0000000000000000000, 0.4590633979472419912 ) ) ;
#214 = DIRECTION ( 'NONE',  ( -1.224646799147353207E-16, -0.0000000000000000000, -1.000000000000000000 ) ) ;
#215 = STYLED_ITEM ( 'NONE', ( #64 ), #65 ) ;
#216 = LINE ( 'NONE', #144, #1 ) ;
#217 = MECHANICAL_DESIGN_GEOMETRIC_PRESENTATION_REPRESENTATION (  '', ( #292 ), #198 ) ;
#218 = DIRECTION ( 'NONE',  ( -1.000000000000000000, 0.0000000000000000000, 1.224646799147353207E-16 ) ) ;
#219 = EDGE_LOOP ( 'NONE', ( #77, #33 ) ) ;
#220 = APPLICATION_PROTOCOL_DEFINITION ( 'draft international standard', 'automotive_design', 1998, #212 ) ;
#221 = CONICAL_SURFACE ( 'NONE', #196, 0.03736409849999999117, 0.1745329251994338915 ) ;
#222 = VERTEX_POINT ( 'NONE', #73 ) ;
#223 = FACE_OUTER_BOUND ( 'NONE', #173, .T. ) ;
#224 = ORIENTED_EDGE ( 'NONE', *, *, #145, .F. ) ;
#225 = CARTESIAN_POINT ( 'NONE',  ( 0.0000000000000000000, 0.0000000000000000000, 1.953504000000000129 ) ) ;
#226 = FACE_OUTER_BOUND ( 'NONE', #104, .T. ) ;
#227 = DIRECTION ( 'NONE',  ( 0.0000000000000000000, 0.0000000000000000000, 1.000000000000000000 ) ) ;
#228 = FACE_OUTER_BOUND ( 'NONE', #2, .T. ) ;
#229 = DIRECTION ( 'NONE',  ( -1.000000000000000000, 0.0000000000000000000, 0.0000000000000000000 ) ) ;
#230 = EDGE_CURVE ( 'NONE', #87, #280, #273, .T. ) ;
#231 = CARTESIAN_POINT ( 'NONE',  ( 2.748217635498583829E-17, 0.0000000000000000000, 0.2244089999999999974 ) ) ;
#232 = AXIS2_PLACEMENT_3D ( 'NONE', #296, #163, #118 ) ;
#233 = CARTESIAN_POINT ( 'NONE',  ( 2.748217635498583829E-17, 0.0000000000000000000, 0.2244089999999999974 ) ) ;
#234 = DIRECTION ( 'NONE',  ( -1.224646799147353207E-16, -0.0000000000000000000, -1.000000000000000000 ) ) ;
#235 = CARTESIAN_POINT ( 'NONE',  ( 0.0000000000000000000, 0.0000000000000000000, 0.0000000000000000000 ) ) ;
#236 = CARTESIAN_POINT ( 'NONE',  ( 0.0000000000000000000, 0.0000000000000000000, 1.953504000000000129 ) ) ;
#237 = ADVANCED_FACE ( 'NONE', ( #223 ), #153, .T. ) ;
#238 = UNCERTAINTY_MEASURE_WITH_UNIT (LENGTH_MEASURE( 1.000000000000000082E-05 ), #277, 'distance_accuracy_value', 'NONE');
#239 = CIRCLE ( 'NONE', #109, 0.03736409849999999117 ) ;
#240 = DIRECTION ( 'NONE',  ( 0.7071067811865507924, 8.659560562354973534E-17, -0.7071067811865443531 ) ) ;
#241 = EDGE_CURVE ( 'NONE', #52, #9, #168, .T. ) ;
#242 = EDGE_LOOP ( 'NONE', ( #200, #59, #122, #224 ) ) ;
#243 = CIRCLE ( 'NONE', #140, 0.07874000000000001831 ) ;
#244 = DIRECTION ( 'NONE',  ( 1.000000000000000000, 0.0000000000000000000, 0.0000000000000000000 ) ) ;
#245 = VERTEX_POINT ( 'NONE', #27 ) ;
#246 = APPLICATION_PROTOCOL_DEFINITION ( 'draft international standard', 'automotive_design', 1998, #125 ) ;
#247 = DIRECTION ( 'NONE',  ( 0.0000000000000000000, 0.0000000000000000000, 1.000000000000000000 ) ) ;
#248 = FACE_OUTER_BOUND ( 'NONE', #284, .T. ) ;
#249 = SURFACE_SIDE_STYLE ('',( #180 ) ) ;
#250 = LINE ( 'NONE', #289, #282 ) ;
#251 = FACE_OUTER_BOUND ( 'NONE', #219, .T. ) ;
#252 = CLOSED_SHELL ( 'NONE', ( #96, #102, #53, #62, #253, #160, #36, #237, #156, #74 ) ) ;
#253 = ADVANCED_FACE ( 'NONE', ( #257 ), #261, .T. ) ;
#254 = CARTESIAN_POINT ( 'NONE',  ( 5.621905209017974867E-17, 0.0000000000000000000, 0.4590633979472419912 ) ) ;
#255 = CARTESIAN_POINT ( 'NONE',  ( 0.0000000000000000000, 0.0000000000000000000, 0.0000000000000000000 ) ) ;
#256 = AXIS2_PLACEMENT_3D ( 'NONE', #213, #234, #20 ) ;
#257 = FACE_OUTER_BOUND ( 'NONE', #242, .T. ) ;
#258 = ORIENTED_EDGE ( 'NONE', *, *, #241, .F. ) ;
#259 = FILL_AREA_STYLE ('',( #199 ) ) ;
#260 = ORIENTED_EDGE ( 'NONE', *, *, #3, .F. ) ;
#261 = CYLINDRICAL_SURFACE ( 'NONE', #39, 0.07874000000000001831 ) ;
#262 = ORIENTED_EDGE ( 'NONE', *, *, #43, .F. ) ;
#263 =( LENGTH_UNIT ( ) NAMED_UNIT ( * ) SI_UNIT ( $, .METRE. ) );
#264 = ORIENTED_EDGE ( 'NONE', *, *, #30, .F. ) ;
#265 = CARTESIAN_POINT ( 'NONE',  ( 0.03736409850000001892, 0.0000000000000000000, 0.2244089999999999974 ) ) ;
#266 = VERTEX_POINT ( 'NONE', #78 ) ;
#267 = LINE ( 'NONE', #265, #37 ) ;
#268 = ORIENTED_EDGE ( 'NONE', *, *, #134, .T. ) ;
#269 = SHAPE_DEFINITION_REPRESENTATION ( #32, #8 ) ;
#270 = ORIENTED_EDGE ( 'NONE', *, *, #3, .T. ) ;
#271 = DIRECTION ( 'NONE',  ( 1.000000000000000000, 0.0000000000000000000, 0.0000000000000000000 ) ) ;
#272 = DIRECTION ( 'NONE',  ( 0.0000000000000000000, 0.0000000000000000000, 1.000000000000000000 ) ) ;
#273 = CIRCLE ( 'NONE', #93, 0.03736409849999999117 ) ;
#274 = CARTESIAN_POINT ( 'NONE',  ( 0.03736409849999999117, 4.575782363105141468E-18, -4.575782363105141468E-18 ) ) ;
#275 = LENGTH_MEASURE_WITH_UNIT ( LENGTH_MEASURE( 0.02539999999999999897 ), #124 );
#276 = AXIS2_PLACEMENT_3D ( 'NONE', #235, #94, #42 ) ;
#277 =( CONVERSION_BASED_UNIT ( 'INCH', #275 ) LENGTH_UNIT ( ) NAMED_UNIT ( #41 ) );
#278 = ORIENTED_EDGE ( 'NONE', *, *, #230, .T. ) ;
#279 = EDGE_CURVE ( 'NONE', #222, #9, #148, .T. ) ;
#280 = VERTEX_POINT ( 'NONE', #121 ) ;
#281 = VECTOR ( 'NONE', #177, 39.37007874015748143 ) ;
#282 = VECTOR ( 'NONE', #209, 39.37007874015748143 ) ;
#283 = CARTESIAN_POINT ( 'NONE',  ( 0.0000000000000000000, 0.0000000000000000000, 0.0000000000000000000 ) ) ;
#284 = EDGE_LOOP ( 'NONE', ( #61, #152, #57, #262 ) ) ;
#285 = FACE_OUTER_BOUND ( 'NONE', #24, .T. ) ;
#286 = CIRCLE ( 'NONE', #129, 0.06374000000000018540 ) ;
#287 = DIRECTION ( 'NONE',  ( -0.0000000000000000000, -0.0000000000000000000, -1.000000000000000000 ) ) ;
#288 = CIRCLE ( 'NONE', #45, 0.07874000000000001831 ) ;
#289 = CARTESIAN_POINT ( 'NONE',  ( -0.06374000000000018540, 0.0000000000000000000, 1.968503999999999809 ) ) ;
#290 = AXIS2_PLACEMENT_3D ( 'NONE', #207, #137, #229 ) ;
#291 = LINE ( 'NONE', #92, #131 ) ;
#292 = STYLED_ITEM ( 'NONE', ( #103 ), #8 ) ;
#293 = DIRECTION ( 'NONE',  ( 1.000000000000000000, 0.0000000000000000000, 0.0000000000000000000 ) ) ;
#294 = DIRECTION ( 'NONE',  ( -1.224646799147353207E-16, -0.0000000000000000000, -1.000000000000000000 ) ) ;
#295 = PRODUCT_RELATED_PRODUCT_CATEGORY ( 'part', '', ( #68 ) ) ;
#296 = CARTESIAN_POINT ( 'NONE',  ( 0.0000000000000000000, 0.0000000000000000000, 1.968503999999999809 ) ) ;
#297 = CIRCLE ( 'NONE', #232, 0.06374000000000018540 ) ;
#298 = DIRECTION ( 'NONE',  ( 1.000000000000000000, 0.0000000000000000000, -0.0000000000000000000 ) ) ;
#299 =( NAMED_UNIT ( * ) PLANE_ANGLE_UNIT ( ) SI_UNIT ( $, .RADIAN. ) );
ENDSEC;
END-ISO-10303-21;
