ISO-10303-21;
HEADER;
FILE_DESCRIPTION (( 'STEP AP214' ),
    '1' );
FILE_NAME ('59513.STEP',
    '2023-07-24T15:48:16',
    ( '' ),
    ( '' ),
    'SwSTEP 2.0',
    'SolidWorks 2023',
    '' );
FILE_SCHEMA (( 'AUTOMOTIVE_DESIGN' ));
ENDSEC;

DATA;
#1 = SURFACE_STYLE_FILL_AREA ( #194 ) ;
#2 = FILL_AREA_STYLE ('',( #94 ) ) ;
#3 =( LENGTH_UNIT ( ) NAMED_UNIT ( * ) SI_UNIT ( .MILLI., .METRE. ) );
#4 = CARTESIAN_POINT ( 'NONE',  ( 0.000000000000000000, 24.00000000000000000, 0.000000000000000000 ) ) ;
#5 = SURFACE_SIDE_STYLE ('',( #33 ) ) ;
#6 = DIRECTION ( 'NONE',  ( -2.881521880346713429E-17, 1.000000000000000000, -0.000000000000000000 ) ) ;
#7 = SURFACE_SIDE_STYLE ('',( #115 ) ) ;
#8 = SURFACE_SIDE_STYLE ('',( #77 ) ) ;
#9 = EDGE_CURVE ( 'NONE', #246, #169, #254, .T. ) ;
#10 = LINE ( 'NONE', #54, #59 ) ;
#11 = SURFACE_STYLE_USAGE ( .BOTH. , #8 ) ;
#12 =( NAMED_UNIT ( * ) PLANE_ANGLE_UNIT ( ) SI_UNIT ( $, .RADIAN. ) );
#13 = DIRECTION ( 'NONE',  ( -1.000000000000000000, 0.000000000000000000, 0.000000000000000000 ) ) ;
#14 = STYLED_ITEM ( 'NONE', ( #79 ), #112 ) ;
#15 = PRESENTATION_LAYER_ASSIGNMENT (  '', '', ( #261 ) ) ;
#16 = ORIENTED_EDGE ( 'NONE', *, *, #9, .T. ) ;
#17 = DIRECTION ( 'NONE',  ( -2.881521880346713429E-17, 1.000000000000000000, -0.000000000000000000 ) ) ;
#18 =( NAMED_UNIT ( * ) SI_UNIT ( $, .STERADIAN. ) SOLID_ANGLE_UNIT ( ) );
#19 = PRESENTATION_STYLE_ASSIGNMENT (( #20 ) ) ;
#20 = SURFACE_STYLE_USAGE ( .BOTH. , #5 ) ;
#21 = ORIENTED_EDGE ( 'NONE', *, *, #78, .F. ) ;
#22 = FACE_OUTER_BOUND ( 'NONE', #278, .T. ) ;
#23 = MECHANICAL_DESIGN_GEOMETRIC_PRESENTATION_REPRESENTATION (  '', ( #14 ), #162 ) ;
#24 = DIRECTION ( 'NONE',  ( 2.881521880346713429E-17, -1.000000000000000000, 0.000000000000000000 ) ) ;
#25 = DIRECTION ( 'NONE',  ( -2.881521880346713429E-17, 1.000000000000000000, -0.000000000000000000 ) ) ;
#26 = FILL_AREA_STYLE ('',( #65 ) ) ;
#27 = AXIS2_PLACEMENT_3D ( 'NONE', #190, #17, #154 ) ;
#28 = ADVANCED_FACE ( 'NONE', ( #22 ), #207, .T. ) ;
#29 = STYLED_ITEM ( 'NONE', ( #222 ), #28 ) ;
#30 = DIRECTION ( 'NONE',  ( -0.000000000000000000, -1.000000000000000000, -0.000000000000000000 ) ) ;
#31 = CARTESIAN_POINT ( 'NONE',  ( -1.469576158976823750E-15, 75.00000000000000000, 0.000000000000000000 ) ) ;
#32 = ORIENTED_EDGE ( 'NONE', *, *, #134, .F. ) ;
#33 = SURFACE_STYLE_FILL_AREA ( #241 ) ;
#34 = ORIENTED_EDGE ( 'NONE', *, *, #78, .T. ) ;
#35 = CIRCLE ( 'NONE', #125, 4.000000000000000000 ) ;
#36 = DIRECTION ( 'NONE',  ( 0.000000000000000000, 0.000000000000000000, 1.000000000000000000 ) ) ;
#37 = DIRECTION ( 'NONE',  ( -0.000000000000000000, -1.000000000000000000, -0.000000000000000000 ) ) ;
#38 = MANIFOLD_SOLID_BREP ( 'Revolve - Tool Body (Straight Shanked)', #74 ) ;
#39 = ORIENTED_EDGE ( 'NONE', *, *, #275, .F. ) ;
#40 = ORIENTED_EDGE ( 'NONE', *, *, #9, .F. ) ;
#41 = PRESENTATION_STYLE_ASSIGNMENT (( #270 ) ) ;
#42 = VERTEX_POINT ( 'NONE', #181 ) ;
#43 = COLOUR_RGB ( '',1.000000000000000000, 0.000000000000000000, 0.000000000000000000 ) ;
#44 =( NAMED_UNIT ( * ) SI_UNIT ( $, .STERADIAN. ) SOLID_ANGLE_UNIT ( ) );
#45 = UNCERTAINTY_MEASURE_WITH_UNIT (LENGTH_MEASURE( 1.000000000000000082E-05 ), #196, 'distance_accuracy_value', 'NONE');
#46 = EDGE_CURVE ( 'NONE', #146, #268, #260, .T. ) ;
#47 = SURFACE_STYLE_USAGE ( .BOTH. , #223 ) ;
#48 = PRESENTATION_STYLE_ASSIGNMENT (( #253 ) ) ;
#49 = FACE_OUTER_BOUND ( 'NONE', #55, .T. ) ;
#50 = LINE ( 'NONE', #183, #277 ) ;
#51 = DIRECTION ( 'NONE',  ( -1.000000000000000000, 0.000000000000000000, 0.000000000000000000 ) ) ;
#52 = SURFACE_STYLE_USAGE ( .BOTH. , #280 ) ;
#53 =( GEOMETRIC_REPRESENTATION_CONTEXT ( 3 ) GLOBAL_UNCERTAINTY_ASSIGNED_CONTEXT ( ( #147 ) ) GLOBAL_UNIT_ASSIGNED_CONTEXT ( ( #3, #64, #44 ) ) REPRESENTATION_CONTEXT ( 'NONE', 'WORKASPACE' ) );
#54 = CARTESIAN_POINT ( 'NONE',  ( 0.000000000000000000, 0.000000000000000000, -4.000000000000000000 ) ) ;
#55 = EDGE_LOOP ( 'NONE', ( #16, #251, #32, #39 ) ) ;
#56 =( NAMED_UNIT ( * ) SI_UNIT ( $, .STERADIAN. ) SOLID_ANGLE_UNIT ( ) );
#57 = ORIENTED_EDGE ( 'NONE', *, *, #46, .F. ) ;
#58 = DIRECTION ( 'NONE',  ( 0.000000000000000000, 0.000000000000000000, -1.000000000000000000 ) ) ;
#59 = VECTOR ( 'NONE', #30, 1000.000000000000000 ) ;
#60 = ORIENTED_EDGE ( 'NONE', *, *, #202, .F. ) ;
#61 =( NAMED_UNIT ( * ) PLANE_ANGLE_UNIT ( ) SI_UNIT ( $, .RADIAN. ) );
#62 = EDGE_LOOP ( 'NONE', ( #153, #279, #203, #21 ) ) ;
#63 = PRODUCT_RELATED_PRODUCT_CATEGORY ( 'part', '', ( #193 ) ) ;
#64 =( NAMED_UNIT ( * ) PLANE_ANGLE_UNIT ( ) SI_UNIT ( $, .RADIAN. ) );
#65 = FILL_AREA_STYLE_COLOUR ( '', #167 ) ;
#66 = COLOUR_RGB ( '',1.000000000000000000, 0.000000000000000000, 0.000000000000000000 ) ;
#67 = DIRECTION ( 'NONE',  ( -1.000000000000000000, 0.000000000000000000, 0.000000000000000000 ) ) ;
#68 = MECHANICAL_DESIGN_GEOMETRIC_PRESENTATION_REPRESENTATION (  '', ( #29 ), #240 ) ;
#69 = DIRECTION ( 'NONE',  ( 1.000000000000000000, 2.881521880346713429E-17, 0.000000000000000000 ) ) ;
#70 = CARTESIAN_POINT ( 'NONE',  ( 0.000000000000000000, 0.000000000000000000, 0.000000000000000000 ) ) ;
#71 = DIRECTION ( 'NONE',  ( 0.000000000000000000, 0.000000000000000000, -1.000000000000000000 ) ) ;
#72 = EDGE_LOOP ( 'NONE', ( #40, #60 ) ) ;
#73 = EDGE_CURVE ( 'NONE', #86, #182, #249, .T. ) ;
#74 = CLOSED_SHELL ( 'NONE', ( #287, #174, #170, #233 ) ) ;
#75 = CYLINDRICAL_SURFACE ( 'NONE', #177, 4.000000000000000000 ) ;
#76 = DIRECTION ( 'NONE',  ( 0.000000000000000000, 0.000000000000000000, -1.000000000000000000 ) ) ;
#77 = SURFACE_STYLE_FILL_AREA ( #118 ) ;
#78 = EDGE_CURVE ( 'NONE', #218, #182, #10, .T. ) ;
#79 = PRESENTATION_STYLE_ASSIGNMENT (( #52 ) ) ;
#80 = DIRECTION ( 'NONE',  ( 0.000000000000000000, -0.000000000000000000, 1.000000000000000000 ) ) ;
#81 = AXIS2_PLACEMENT_3D ( 'NONE', #266, #164, #184 ) ;
#82 = PRESENTATION_LAYER_ASSIGNMENT (  '', '', ( #168 ) ) ;
#83 =( LENGTH_UNIT ( ) NAMED_UNIT ( * ) SI_UNIT ( .MILLI., .METRE. ) );
#84 = FILL_AREA_STYLE_COLOUR ( '', #43 ) ;
#85 = PRODUCT_DEFINITION_SHAPE ( 'NONE', 'NONE',  #210 ) ;
#86 = VERTEX_POINT ( 'NONE', #97 ) ;
#87 = CIRCLE ( 'NONE', #136, 4.000000000000000000 ) ;
#88 = SURFACE_SIDE_STYLE ('',( #1 ) ) ;
#89 =( NAMED_UNIT ( * ) PLANE_ANGLE_UNIT ( ) SI_UNIT ( $, .RADIAN. ) );
#90 =( NAMED_UNIT ( * ) SI_UNIT ( $, .STERADIAN. ) SOLID_ANGLE_UNIT ( ) );
#91 = STYLED_ITEM ( 'NONE', ( #48 ), #38 ) ;
#92 = COLOUR_RGB ( '',0.7921568627450980005, 0.8196078431372548767, 0.9333333333333333481 ) ;
#93 = CLOSED_SHELL ( 'NONE', ( #224, #112, #98, #28 ) ) ;
#94 = FILL_AREA_STYLE_COLOUR ( '', #171 ) ;
#95 = DIRECTION ( 'NONE',  ( -1.000000000000000000, 0.000000000000000000, 0.000000000000000000 ) ) ;
#96 = UNCERTAINTY_MEASURE_WITH_UNIT (LENGTH_MEASURE( 1.000000000000000082E-05 ), #83, 'distance_accuracy_value', 'NONE');
#97 = CARTESIAN_POINT ( 'NONE',  ( 4.898587196589412829E-16, 0.000000000000000000, 4.000000000000000000 ) ) ;
#98 = ADVANCED_FACE ( 'NONE', ( #257 ), #75, .T. ) ;
#99 = CYLINDRICAL_SURFACE ( 'NONE', #273, 4.000000000000000888 ) ;
#100 =( NAMED_UNIT ( * ) PLANE_ANGLE_UNIT ( ) SI_UNIT ( $, .RADIAN. ) );
#101 = CARTESIAN_POINT ( 'NONE',  ( 4.000000000000000000, 75.00000000000000000, 4.898587196589413815E-16 ) ) ;
#102 =( GEOMETRIC_REPRESENTATION_CONTEXT ( 3 ) GLOBAL_UNCERTAINTY_ASSIGNED_CONTEXT ( ( #96 ) ) GLOBAL_UNIT_ASSIGNED_CONTEXT ( ( #83, #142, #56 ) ) REPRESENTATION_CONTEXT ( 'NONE', 'WORKASPACE' ) );
#103 = CARTESIAN_POINT ( 'NONE',  ( 0.000000000000000000, 0.000000000000000000, 0.000000000000000000 ) ) ;
#104 = DIRECTION ( 'NONE',  ( -1.000000000000000000, -2.881521880346713429E-17, 0.000000000000000000 ) ) ;
#105 = PLANE ( 'NONE',  #248 ) ;
#106 = FILL_AREA_STYLE_COLOUR ( '', #92 ) ;
#107 = CARTESIAN_POINT ( 'NONE',  ( 3.999999999999999112, 75.00000000000000000, 4.898587196589413815E-16 ) ) ;
#108 = ORIENTED_EDGE ( 'NONE', *, *, #134, .T. ) ;
#109 = FACE_OUTER_BOUND ( 'NONE', #244, .T. ) ;
#110 = DIRECTION ( 'NONE',  ( 0.000000000000000000, 0.000000000000000000, -1.000000000000000000 ) ) ;
#111 = MECHANICAL_DESIGN_GEOMETRIC_PRESENTATION_REPRESENTATION (  '', ( #91 ), #124 ) ;
#112 = ADVANCED_FACE ( 'NONE', ( #234 ), #141, .T. ) ;
#113 = CIRCLE ( 'NONE', #226, 4.000000000000000000 ) ;
#114 = APPLICATION_CONTEXT ( 'automotive_design' ) ;
#115 = SURFACE_STYLE_FILL_AREA ( #26 ) ;
#116 = DIRECTION ( 'NONE',  ( -2.881521880346713429E-17, 1.000000000000000000, -0.000000000000000000 ) ) ;
#117 = EDGE_CURVE ( 'NONE', #218, #42, #35, .T. ) ;
#118 = FILL_AREA_STYLE ('',( #144 ) ) ;
#119 = FILL_AREA_STYLE ('',( #239 ) ) ;
#120 = DIRECTION ( 'NONE',  ( -0.000000000000000000, -1.000000000000000000, -0.000000000000000000 ) ) ;
#121 = CARTESIAN_POINT ( 'NONE',  ( 0.000000000000000000, 24.00000000000000000, 0.000000000000000000 ) ) ;
#122 = ORIENTED_EDGE ( 'NONE', *, *, #46, .T. ) ;
#123 = DIRECTION ( 'NONE',  ( -2.881521880346713429E-17, 1.000000000000000000, 0.000000000000000000 ) ) ;
#124 =( GEOMETRIC_REPRESENTATION_CONTEXT ( 3 ) GLOBAL_UNCERTAINTY_ASSIGNED_CONTEXT ( ( #212 ) ) GLOBAL_UNIT_ASSIGNED_CONTEXT ( ( #228, #89, #131 ) ) REPRESENTATION_CONTEXT ( 'NONE', 'WORKASPACE' ) );
#125 = AXIS2_PLACEMENT_3D ( 'NONE', #262, #238, #214 ) ;
#126 = ORIENTED_EDGE ( 'NONE', *, *, #258, .F. ) ;
#127 = FACE_OUTER_BOUND ( 'NONE', #242, .T. ) ;
#128 = ORIENTED_EDGE ( 'NONE', *, *, #117, .F. ) ;
#129 = CYLINDRICAL_SURFACE ( 'NONE', #216, 4.000000000000000000 ) ;
#130 = ORIENTED_EDGE ( 'NONE', *, *, #202, .T. ) ;
#131 =( NAMED_UNIT ( * ) SI_UNIT ( $, .STERADIAN. ) SOLID_ANGLE_UNIT ( ) );
#132 = DIRECTION ( 'NONE',  ( 1.000000000000000000, 0.000000000000000000, 0.000000000000000000 ) ) ;
#133 = ORIENTED_EDGE ( 'NONE', *, *, #256, .T. ) ;
#134 = EDGE_CURVE ( 'NONE', #268, #146, #178, .T. ) ;
#135 = AXIS2_PLACEMENT_3D ( 'NONE', #121, #231, #80 ) ;
#136 = AXIS2_PLACEMENT_3D ( 'NONE', #192, #217, #67 ) ;
#137 = SURFACE_STYLE_FILL_AREA ( #2 ) ;
#138 = DIRECTION ( 'NONE',  ( 0.000000000000000000, -1.000000000000000000, -0.000000000000000000 ) ) ;
#139 =( GEOMETRIC_REPRESENTATION_CONTEXT ( 3 ) GLOBAL_UNCERTAINTY_ASSIGNED_CONTEXT ( ( #187 ) ) GLOBAL_UNIT_ASSIGNED_CONTEXT ( ( #166, #12, #18 ) ) REPRESENTATION_CONTEXT ( 'NONE', 'WORKASPACE' ) );
#140 = DIRECTION ( 'NONE',  ( -0.000000000000000000, -1.000000000000000000, -0.000000000000000000 ) ) ;
#141 = PLANE ( 'NONE',  #135 ) ;
#142 =( NAMED_UNIT ( * ) PLANE_ANGLE_UNIT ( ) SI_UNIT ( $, .RADIAN. ) );
#143 =( NAMED_UNIT ( * ) SI_UNIT ( $, .STERADIAN. ) SOLID_ANGLE_UNIT ( ) );
#144 = FILL_AREA_STYLE_COLOUR ( '', #66 ) ;
#145 = APPLICATION_CONTEXT ( 'automotive_design' ) ;
#146 = VERTEX_POINT ( 'NONE', #101 ) ;
#147 = UNCERTAINTY_MEASURE_WITH_UNIT (LENGTH_MEASURE( 1.000000000000000082E-05 ), #3, 'distance_accuracy_value', 'NONE');
#148 = SHAPE_DEFINITION_REPRESENTATION ( #85, #229 ) ;
#149 = PRESENTATION_STYLE_ASSIGNMENT (( #11 ) ) ;
#150 = LINE ( 'NONE', #107, #269 ) ;
#151 = COLOUR_RGB ( '',1.000000000000000000, 0.000000000000000000, 0.000000000000000000 ) ;
#152 = EDGE_CURVE ( 'NONE', #42, #86, #189, .T. ) ;
#153 = ORIENTED_EDGE ( 'NONE', *, *, #117, .T. ) ;
#154 = DIRECTION ( 'NONE',  ( -1.000000000000000000, 0.000000000000000000, 0.000000000000000000 ) ) ;
#155 = MECHANICAL_DESIGN_GEOMETRIC_PRESENTATION_REPRESENTATION (  '', ( #247 ), #102 ) ;
#156 = VECTOR ( 'NONE', #37, 1000.000000000000000 ) ;
#157 = FACE_OUTER_BOUND ( 'NONE', #72, .T. ) ;
#158 = MECHANICAL_DESIGN_GEOMETRIC_PRESENTATION_REPRESENTATION (  '', ( #168 ), #53 ) ;
#159 = CARTESIAN_POINT ( 'NONE',  ( -4.000000000000000000, 24.00000000000000000, 0.000000000000000000 ) ) ;
#160 = DIRECTION ( 'NONE',  ( -1.000000000000000000, 0.000000000000000000, 0.000000000000000000 ) ) ;
#161 = EDGE_LOOP ( 'NONE', ( #128, #126 ) ) ;
#162 =( GEOMETRIC_REPRESENTATION_CONTEXT ( 3 ) GLOBAL_UNCERTAINTY_ASSIGNED_CONTEXT ( ( #230 ) ) GLOBAL_UNIT_ASSIGNED_CONTEXT ( ( #185, #100, #143 ) ) REPRESENTATION_CONTEXT ( 'NONE', 'WORKASPACE' ) );
#163 = AXIS2_PLACEMENT_3D ( 'NONE', #250, #179, #71 ) ;
#164 = DIRECTION ( 'NONE',  ( -0.000000000000000000, -1.000000000000000000, -0.000000000000000000 ) ) ;
#165 = DIRECTION ( 'NONE',  ( -2.881521880346713429E-17, 1.000000000000000000, -0.000000000000000000 ) ) ;
#166 =( LENGTH_UNIT ( ) NAMED_UNIT ( * ) SI_UNIT ( .MILLI., .METRE. ) );
#167 = COLOUR_RGB ( '',0.7921568627450980005, 0.8196078431372548767, 0.9333333333333333481 ) ;
#168 = STYLED_ITEM ( 'NONE', ( #41 ), #232 ) ;
#169 = VERTEX_POINT ( 'NONE', #172 ) ;
#170 = ADVANCED_FACE ( 'NONE', ( #127 ), #219, .T. ) ;
#171 = COLOUR_RGB ( '',1.000000000000000000, 0.000000000000000000, 0.000000000000000000 ) ;
#172 = CARTESIAN_POINT ( 'NONE',  ( 4.000000000000000000, 24.00000000000000000, 4.898587196589413815E-16 ) ) ;
#173 = ORIENTED_EDGE ( 'NONE', *, *, #73, .T. ) ;
#174 = ADVANCED_FACE ( 'NONE', ( #157 ), #105, .F. ) ;
#175 =( NAMED_UNIT ( * ) SI_UNIT ( $, .STERADIAN. ) SOLID_ANGLE_UNIT ( ) );
#176 = DIRECTION ( 'NONE',  ( -0.000000000000000000, -1.000000000000000000, -0.000000000000000000 ) ) ;
#177 = AXIS2_PLACEMENT_3D ( 'NONE', #236, #120, #209 ) ;
#178 = CIRCLE ( 'NONE', #235, 4.000000000000001776 ) ;
#179 = DIRECTION ( 'NONE',  ( -0.000000000000000000, -1.000000000000000000, -0.000000000000000000 ) ) ;
#180 = EDGE_CURVE ( 'NONE', #169, #146, #150, .T. ) ;
#181 = CARTESIAN_POINT ( 'NONE',  ( 4.898587196589412829E-16, 24.00000000000000000, 4.000000000000000000 ) ) ;
#182 = VERTEX_POINT ( 'NONE', #288 ) ;
#183 = CARTESIAN_POINT ( 'NONE',  ( -4.000000000000002665, 75.00000000000000000, 0.000000000000000000 ) ) ;
#184 = DIRECTION ( 'NONE',  ( 0.000000000000000000, 0.000000000000000000, -1.000000000000000000 ) ) ;
#185 =( LENGTH_UNIT ( ) NAMED_UNIT ( * ) SI_UNIT ( .MILLI., .METRE. ) );
#186 = CARTESIAN_POINT ( 'NONE',  ( -1.469576158976823750E-15, 75.00000000000000000, 0.000000000000000000 ) ) ;
#187 = UNCERTAINTY_MEASURE_WITH_UNIT (LENGTH_MEASURE( 1.000000000000000082E-05 ), #166, 'distance_accuracy_value', 'NONE');
#188 = AXIS2_PLACEMENT_3D ( 'NONE', #199, #24, #69 ) ;
#189 = LINE ( 'NONE', #283, #156 ) ;
#190 = CARTESIAN_POINT ( 'NONE',  ( -1.469576158976823750E-15, 75.00000000000000000, 0.000000000000000000 ) ) ;
#191 = ORIENTED_EDGE ( 'NONE', *, *, #152, .F. ) ;
#192 = CARTESIAN_POINT ( 'NONE',  ( 0.000000000000000000, 24.00000000000000000, 0.000000000000000000 ) ) ;
#193 = PRODUCT ( '59513', '59513', '', ( #265 ) ) ;
#194 = FILL_AREA_STYLE ('',( #106 ) ) ;
#195 = PRODUCT_DEFINITION_FORMATION_WITH_SPECIFIED_SOURCE ( 'ANY', '', #193, .NOT_KNOWN. ) ;
#196 =( LENGTH_UNIT ( ) NAMED_UNIT ( * ) SI_UNIT ( .MILLI., .METRE. ) );
#197 =( NAMED_UNIT ( * ) PLANE_ANGLE_UNIT ( ) SI_UNIT ( $, .RADIAN. ) );
#198 = APPLICATION_PROTOCOL_DEFINITION ( 'draft international standard', 'automotive_design', 1998, #114 ) ;
#199 = CARTESIAN_POINT ( 'NONE',  ( 4.000000000000000000, 75.00000000000000000, 0.000000000000000000 ) ) ;
#200 = AXIS2_PLACEMENT_3D ( 'NONE', #70, #138, #110 ) ;
#201 =( GEOMETRIC_REPRESENTATION_CONTEXT ( 3 ) GLOBAL_UNCERTAINTY_ASSIGNED_CONTEXT ( ( #45 ) ) GLOBAL_UNIT_ASSIGNED_CONTEXT ( ( #196, #61, #90 ) ) REPRESENTATION_CONTEXT ( 'NONE', 'WORKASPACE' ) );
#202 = EDGE_CURVE ( 'NONE', #169, #246, #87, .T. ) ;
#203 = ORIENTED_EDGE ( 'NONE', *, *, #256, .F. ) ;
#204 = AXIS2_PLACEMENT_3D ( 'NONE', #276, #25, #160 ) ;
#205 = MECHANICAL_DESIGN_GEOMETRIC_PRESENTATION_REPRESENTATION (  '', ( #261 ), #201 ) ;
#206 = CARTESIAN_POINT ( 'NONE',  ( 0.000000000000000000, 24.00000000000000000, 0.000000000000000000 ) ) ;
#207 = PLANE ( 'NONE',  #200 ) ;
#208 = UNCERTAINTY_MEASURE_WITH_UNIT (LENGTH_MEASURE( 1.000000000000000082E-05 ), #227, 'distance_accuracy_value', 'NONE');
#209 = DIRECTION ( 'NONE',  ( 0.000000000000000000, 0.000000000000000000, -1.000000000000000000 ) ) ;
#210 = PRODUCT_DEFINITION ( 'UNKNOWN', '', #195, #264 ) ;
#211 = AXIS2_PLACEMENT_3D ( 'NONE', #4, #6, #95 ) ;
#212 = UNCERTAINTY_MEASURE_WITH_UNIT (LENGTH_MEASURE( 1.000000000000000082E-05 ), #228, 'distance_accuracy_value', 'NONE');
#213 = SURFACE_STYLE_FILL_AREA ( #119 ) ;
#214 = DIRECTION ( 'NONE',  ( 0.000000000000000000, 0.000000000000000000, -1.000000000000000000 ) ) ;
#215 = PRESENTATION_LAYER_ASSIGNMENT (  '', '', ( #14 ) ) ;
#216 = AXIS2_PLACEMENT_3D ( 'NONE', #267, #176, #58 ) ;
#217 = DIRECTION ( 'NONE',  ( -2.881521880346713429E-17, 1.000000000000000000, -0.000000000000000000 ) ) ;
#218 = VERTEX_POINT ( 'NONE', #285 ) ;
#219 = CYLINDRICAL_SURFACE ( 'NONE', #27, 4.000000000000000888 ) ;
#220 = PLANE ( 'NONE',  #188 ) ;
#221 = ORIENTED_EDGE ( 'NONE', *, *, #275, .T. ) ;
#222 = PRESENTATION_STYLE_ASSIGNMENT (( #47 ) ) ;
#223 = SURFACE_SIDE_STYLE ('',( #137 ) ) ;
#224 = ADVANCED_FACE ( 'NONE', ( #245 ), #129, .T. ) ;
#225 = PRESENTATION_LAYER_ASSIGNMENT (  '', '', ( #29 ) ) ;
#226 = AXIS2_PLACEMENT_3D ( 'NONE', #206, #140, #76 ) ;
#227 =( LENGTH_UNIT ( ) NAMED_UNIT ( * ) SI_UNIT ( .MILLI., .METRE. ) );
#228 =( LENGTH_UNIT ( ) NAMED_UNIT ( * ) SI_UNIT ( .MILLI., .METRE. ) );
#229 = ADVANCED_BREP_SHAPE_REPRESENTATION ( '59513', ( #232, #38, #282 ), #139 ) ;
#230 = UNCERTAINTY_MEASURE_WITH_UNIT (LENGTH_MEASURE( 1.000000000000000082E-05 ), #185, 'distance_accuracy_value', 'NONE');
#231 = DIRECTION ( 'NONE',  ( 0.000000000000000000, 1.000000000000000000, 0.000000000000000000 ) ) ;
#232 = MANIFOLD_SOLID_BREP ( 'Revolve - Cutting Edge', #93 ) ;
#233 = ADVANCED_FACE ( 'NONE', ( #109 ), #220, .F. ) ;
#234 = FACE_OUTER_BOUND ( 'NONE', #161, .T. ) ;
#235 = AXIS2_PLACEMENT_3D ( 'NONE', #31, #116, #13 ) ;
#236 = CARTESIAN_POINT ( 'NONE',  ( 0.000000000000000000, 0.000000000000000000, 0.000000000000000000 ) ) ;
#237 = DIRECTION ( 'NONE',  ( -2.881521880346713429E-17, 1.000000000000000000, -0.000000000000000000 ) ) ;
#238 = DIRECTION ( 'NONE',  ( -0.000000000000000000, -1.000000000000000000, -0.000000000000000000 ) ) ;
#239 = FILL_AREA_STYLE_COLOUR ( '', #151 ) ;
#240 =( GEOMETRIC_REPRESENTATION_CONTEXT ( 3 ) GLOBAL_UNCERTAINTY_ASSIGNED_CONTEXT ( ( #208 ) ) GLOBAL_UNIT_ASSIGNED_CONTEXT ( ( #227, #197, #175 ) ) REPRESENTATION_CONTEXT ( 'NONE', 'WORKASPACE' ) );
#241 = FILL_AREA_STYLE ('',( #84 ) ) ;
#242 = EDGE_LOOP ( 'NONE', ( #263, #130, #221, #57 ) ) ;
#243 = DIRECTION ( 'NONE',  ( -2.881521880346713429E-17, 1.000000000000000000, -0.000000000000000000 ) ) ;
#244 = EDGE_LOOP ( 'NONE', ( #108, #122 ) ) ;
#245 = FACE_OUTER_BOUND ( 'NONE', #62, .T. ) ;
#246 = VERTEX_POINT ( 'NONE', #159 ) ;
#247 = STYLED_ITEM ( 'NONE', ( #149 ), #98 ) ;
#248 = AXIS2_PLACEMENT_3D ( 'NONE', #272, #123, #104 ) ;
#249 = CIRCLE ( 'NONE', #81, 4.000000000000000000 ) ;
#250 = CARTESIAN_POINT ( 'NONE',  ( 0.000000000000000000, 0.000000000000000000, 0.000000000000000000 ) ) ;
#251 = ORIENTED_EDGE ( 'NONE', *, *, #180, .T. ) ;
#252 = ORIENTED_EDGE ( 'NONE', *, *, #73, .F. ) ;
#253 = SURFACE_STYLE_USAGE ( .BOTH. , #7 ) ;
#254 = CIRCLE ( 'NONE', #211, 4.000000000000000000 ) ;
#255 = CIRCLE ( 'NONE', #163, 4.000000000000000000 ) ;
#256 = EDGE_CURVE ( 'NONE', #182, #86, #255, .T. ) ;
#257 = FACE_OUTER_BOUND ( 'NONE', #271, .T. ) ;
#258 = EDGE_CURVE ( 'NONE', #42, #218, #113, .T. ) ;
#259 = CARTESIAN_POINT ( 'NONE',  ( -4.000000000000003553, 75.00000000000000000, 0.000000000000000000 ) ) ;
#260 = CIRCLE ( 'NONE', #204, 4.000000000000001776 ) ;
#261 = STYLED_ITEM ( 'NONE', ( #19 ), #224 ) ;
#262 = CARTESIAN_POINT ( 'NONE',  ( 0.000000000000000000, 24.00000000000000000, 0.000000000000000000 ) ) ;
#263 = ORIENTED_EDGE ( 'NONE', *, *, #180, .F. ) ;
#264 = PRODUCT_DEFINITION_CONTEXT ( 'detailed design', #145, 'design' ) ;
#265 = PRODUCT_CONTEXT ( 'NONE', #114, 'mechanical' ) ;
#266 = CARTESIAN_POINT ( 'NONE',  ( 0.000000000000000000, 0.000000000000000000, 0.000000000000000000 ) ) ;
#267 = CARTESIAN_POINT ( 'NONE',  ( 0.000000000000000000, 0.000000000000000000, 0.000000000000000000 ) ) ;
#268 = VERTEX_POINT ( 'NONE', #259 ) ;
#269 = VECTOR ( 'NONE', #243, 1000.000000000000000 ) ;
#270 = SURFACE_STYLE_USAGE ( .BOTH. , #88 ) ;
#271 = EDGE_LOOP ( 'NONE', ( #191, #286, #34, #252 ) ) ;
#272 = CARTESIAN_POINT ( 'NONE',  ( 1.660633669383371668E-33, 24.00000000000000000, 0.000000000000000000 ) ) ;
#273 = AXIS2_PLACEMENT_3D ( 'NONE', #186, #165, #51 ) ;
#274 = PRESENTATION_LAYER_ASSIGNMENT (  '', '', ( #91 ) ) ;
#275 = EDGE_CURVE ( 'NONE', #246, #268, #50, .T. ) ;
#276 = CARTESIAN_POINT ( 'NONE',  ( -1.469576158976823750E-15, 75.00000000000000000, 0.000000000000000000 ) ) ;
#277 = VECTOR ( 'NONE', #237, 1000.000000000000000 ) ;
#278 = EDGE_LOOP ( 'NONE', ( #133, #173 ) ) ;
#279 = ORIENTED_EDGE ( 'NONE', *, *, #152, .T. ) ;
#280 = SURFACE_SIDE_STYLE ('',( #213 ) ) ;
#281 = PRESENTATION_LAYER_ASSIGNMENT (  '', '', ( #247 ) ) ;
#282 = AXIS2_PLACEMENT_3D ( 'NONE', #103, #36, #132 ) ;
#283 = CARTESIAN_POINT ( 'NONE',  ( 4.898587196589412829E-16, 0.000000000000000000, 4.000000000000000000 ) ) ;
#284 = APPLICATION_PROTOCOL_DEFINITION ( 'draft international standard', 'automotive_design', 1998, #145 ) ;
#285 = CARTESIAN_POINT ( 'NONE',  ( 0.000000000000000000, 24.00000000000000000, -4.000000000000000000 ) ) ;
#286 = ORIENTED_EDGE ( 'NONE', *, *, #258, .T. ) ;
#287 = ADVANCED_FACE ( 'NONE', ( #49 ), #99, .T. ) ;
#288 = CARTESIAN_POINT ( 'NONE',  ( 0.000000000000000000, 0.000000000000000000, -4.000000000000000000 ) ) ;
ENDSEC;
END-ISO-10303-21;
