ISO-10303-21;
HEADER;
FILE_DESCRIPTION (( 'STEP AP214' ),
    '1' );
FILE_NAME ('84750.STEP',
    '2023-06-30T23:41:33',
    ( '' ),
    ( '' ),
    'SwSTEP 2.0',
    'SolidWorks 2023',
    '' );
FILE_SCHEMA (( 'AUTOMOTIVE_DESIGN' ));
ENDSEC;

DATA;
#1 =( NAMED_UNIT ( * ) SI_UNIT ( $, .STERADIAN. ) SOLID_ANGLE_UNIT ( ) );
#2 = LINE ( 'NONE', #235, #316 ) ;
#3 = DIRECTION ( 'NONE',  ( 0.000000000000000000, 1.000000000000000000, 0.000000000000000000 ) ) ;
#4 = FILL_AREA_STYLE_COLOUR ( '', #137 ) ;
#5 = APPLICATION_CONTEXT ( 'automotive_design' ) ;
#6 = AXIS2_PLACEMENT_3D ( 'NONE', #175, #146, #332 ) ;
#7 = CARTESIAN_POINT ( 'NONE',  ( -0.06249999999999888284, 2.500000000000000000, 0.000000000000000000 ) ) ;
#8 = UNCERTAINTY_MEASURE_WITH_UNIT (LENGTH_MEASURE( 1.000000000000000082E-05 ), #359, 'distance_accuracy_value', 'NONE');
#9 = DIRECTION ( 'NONE',  ( 0.000000000000000000, 0.000000000000000000, -1.000000000000000000 ) ) ;
#10 = ORIENTED_EDGE ( 'NONE', *, *, #360, .T. ) ;
#11 =( GEOMETRIC_REPRESENTATION_CONTEXT ( 3 ) GLOBAL_UNCERTAINTY_ASSIGNED_CONTEXT ( ( #206 ) ) GLOBAL_UNIT_ASSIGNED_CONTEXT ( ( #196, #230, #317 ) ) REPRESENTATION_CONTEXT ( 'NONE', 'WORKASPACE' ) );
#12 = PRESENTATION_LAYER_ASSIGNMENT (  '', '', ( #185 ) ) ;
#13 = CARTESIAN_POINT ( 'NONE',  ( 4.898587196589413815E-16, 2.500000000000000000, 0.000000000000000000 ) ) ;
#14 = ORIENTED_EDGE ( 'NONE', *, *, #285, .T. ) ;
#15 = DIRECTION ( 'NONE',  ( -1.000000000000000000, 0.000000000000000000, 0.000000000000000000 ) ) ;
#16 = ORIENTED_EDGE ( 'NONE', *, *, #177, .T. ) ;
#17 = ORIENTED_EDGE ( 'NONE', *, *, #173, .T. ) ;
#18 = EDGE_CURVE ( 'NONE', #103, #82, #90, .T. ) ;
#19 = CARTESIAN_POINT ( 'NONE',  ( 4.898587196589413815E-16, 2.500000000000000000, 0.000000000000000000 ) ) ;
#20 =( CONVERSION_BASED_UNIT ( 'INCH', #345 ) LENGTH_UNIT ( ) NAMED_UNIT ( #288 ) );
#21 =( LENGTH_UNIT ( ) NAMED_UNIT ( * ) SI_UNIT ( $, .METRE. ) );
#22 =( NAMED_UNIT ( * ) SI_UNIT ( $, .STERADIAN. ) SOLID_ANGLE_UNIT ( ) );
#23 = FILL_AREA_STYLE_COLOUR ( '', #207 ) ;
#24 = FACE_OUTER_BOUND ( 'NONE', #52, .T. ) ;
#25 = DIRECTION ( 'NONE',  ( 0.000000000000000000, 0.000000000000000000, -1.000000000000000000 ) ) ;
#26 = LENGTH_MEASURE_WITH_UNIT ( LENGTH_MEASURE( 0.02539999999999999897 ), #263 );
#27 = CYLINDRICAL_SURFACE ( 'NONE', #61, 0.06249999999999997918 ) ;
#28 =( NAMED_UNIT ( * ) SI_UNIT ( $, .STERADIAN. ) SOLID_ANGLE_UNIT ( ) );
#29 = PRESENTATION_STYLE_ASSIGNMENT (( #169 ) ) ;
#30 =( CONVERSION_BASED_UNIT ( 'INCH', #134 ) LENGTH_UNIT ( ) NAMED_UNIT ( #215 ) );
#31 = VECTOR ( 'NONE', #148, 39.37007874015748143 ) ;
#32 = SURFACE_STYLE_FILL_AREA ( #202 ) ;
#33 = ADVANCED_FACE ( 'NONE', ( #112 ), #347, .F. ) ;
#34 = DIRECTION ( 'NONE',  ( -0.000000000000000000, -1.000000000000000000, -0.000000000000000000 ) ) ;
#35 = APPLICATION_PROTOCOL_DEFINITION ( 'draft international standard', 'automotive_design', 1998, #5 ) ;
#36 = SPHERICAL_SURFACE ( 'NONE', #6, 0.06250000000000001388 ) ;
#37 =( GEOMETRIC_REPRESENTATION_CONTEXT ( 3 ) GLOBAL_UNCERTAINTY_ASSIGNED_CONTEXT ( ( #105 ) ) GLOBAL_UNIT_ASSIGNED_CONTEXT ( ( #20, #226, #22 ) ) REPRESENTATION_CONTEXT ( 'NONE', 'WORKASPACE' ) );
#38 = UNCERTAINTY_MEASURE_WITH_UNIT (LENGTH_MEASURE( 1.000000000000000082E-05 ), #321, 'distance_accuracy_value', 'NONE');
#39 = DIMENSIONAL_EXPONENTS ( 1.000000000000000000, 0.000000000000000000, 0.000000000000000000, 0.000000000000000000, 0.000000000000000000, 0.000000000000000000, 0.000000000000000000 ) ;
#40 = DIRECTION ( 'NONE',  ( -1.000000000000000000, 0.000000000000000000, 0.000000000000000000 ) ) ;
#41 = DIRECTION ( 'NONE',  ( -1.000000000000000000, 0.000000000000000000, 0.000000000000000000 ) ) ;
#42 = ORIENTED_EDGE ( 'NONE', *, *, #18, .F. ) ;
#43 = COLOUR_RGB ( '',1.000000000000000000, 0.000000000000000000, 0.000000000000000000 ) ;
#44 = AXIS2_PLACEMENT_3D ( 'NONE', #126, #365, #104 ) ;
#45 = PRODUCT_DEFINITION_FORMATION_WITH_SPECIFIED_SOURCE ( 'ANY', '', #75, .NOT_KNOWN. ) ;
#46 = CARTESIAN_POINT ( 'NONE',  ( 0.06249999999999995837, 0.7499999999999998890, 7.654042494670886671E-18 ) ) ;
#47 = ADVANCED_FACE ( 'NONE', ( #318 ), #287, .F. ) ;
#48 = VERTEX_POINT ( 'NONE', #373 ) ;
#49 =( LENGTH_UNIT ( ) NAMED_UNIT ( * ) SI_UNIT ( $, .METRE. ) );
#50 = ORIENTED_EDGE ( 'NONE', *, *, #275, .F. ) ;
#51 = CARTESIAN_POINT ( 'NONE',  ( 0.06249999999999985428, 2.500000000000000000, 7.654042494670880508E-18 ) ) ;
#52 = EDGE_LOOP ( 'NONE', ( #56, #156, #159, #42, #187 ) ) ;
#53 = PRODUCT_DEFINITION ( 'UNKNOWN', '', #45, #186 ) ;
#54 = DIRECTION ( 'NONE',  ( 0.000000000000000000, 0.000000000000000000, -1.000000000000000000 ) ) ;
#55 = AXIS2_PLACEMENT_3D ( 'NONE', #293, #182, #40 ) ;
#56 = ORIENTED_EDGE ( 'NONE', *, *, #193, .T. ) ;
#57 = CARTESIAN_POINT ( 'NONE',  ( 7.654042494670959086E-18, 0.06250000000000001388, 0.06250000000000001388 ) ) ;
#58 = CARTESIAN_POINT ( 'NONE',  ( 0.06249999999999995143, 2.500000000000000000, 0.000000000000000000 ) ) ;
#59 = DIRECTION ( 'NONE',  ( 1.224646799147353207E-16, -0.000000000000000000, 1.000000000000000000 ) ) ;
#60 = SURFACE_STYLE_FILL_AREA ( #165 ) ;
#61 = AXIS2_PLACEMENT_3D ( 'NONE', #191, #305, #54 ) ;
#62 = CARTESIAN_POINT ( 'NONE',  ( 6.688342786475879891E-16, 0.7499999999999998890, 0.000000000000000000 ) ) ;
#63 = MECHANICAL_DESIGN_GEOMETRIC_PRESENTATION_REPRESENTATION (  '', ( #219 ), #119 ) ;
#64 =( LENGTH_UNIT ( ) NAMED_UNIT ( * ) SI_UNIT ( $, .METRE. ) );
#65 = FILL_AREA_STYLE ('',( #161 ) ) ;
#66 =( NAMED_UNIT ( * ) PLANE_ANGLE_UNIT ( ) SI_UNIT ( $, .RADIAN. ) );
#67 = SURFACE_STYLE_USAGE ( .BOTH. , #355 ) ;
#68 = PRODUCT_DEFINITION_SHAPE ( 'NONE', 'NONE',  #53 ) ;
#69 = EDGE_CURVE ( 'NONE', #273, #103, #2, .T. ) ;
#70 = DIRECTION ( 'NONE',  ( -1.022717479935123085E-16, 1.000000000000000000, -0.000000000000000000 ) ) ;
#71 = CIRCLE ( 'NONE', #227, 0.06250000000000001388 ) ;
#72 = DIRECTION ( 'NONE',  ( -0.000000000000000000, -1.000000000000000000, -0.000000000000000000 ) ) ;
#73 = CIRCLE ( 'NONE', #153, 0.06249999999999995143 ) ;
#74 =( GEOMETRIC_REPRESENTATION_CONTEXT ( 3 ) GLOBAL_UNCERTAINTY_ASSIGNED_CONTEXT ( ( #8 ) ) GLOBAL_UNIT_ASSIGNED_CONTEXT ( ( #359, #358, #290 ) ) REPRESENTATION_CONTEXT ( 'NONE', 'WORKASPACE' ) );
#75 = PRODUCT ( '84750', '84750', '', ( #123 ) ) ;
#76 = APPLICATION_PROTOCOL_DEFINITION ( 'draft international standard', 'automotive_design', 1998, #106 ) ;
#77 = CARTESIAN_POINT ( 'NONE',  ( 4.898587196589413815E-16, 2.500000000000000000, 0.000000000000000000 ) ) ;
#78 = DIMENSIONAL_EXPONENTS ( 1.000000000000000000, 0.000000000000000000, 0.000000000000000000, 0.000000000000000000, 0.000000000000000000, 0.000000000000000000, 0.000000000000000000 ) ;
#79 = ORIENTED_EDGE ( 'NONE', *, *, #18, .T. ) ;
#80 = DIRECTION ( 'NONE',  ( 0.000000000000000000, 0.000000000000000000, -1.000000000000000000 ) ) ;
#81 = ADVANCED_FACE ( 'NONE', ( #238 ), #100, .T. ) ;
#82 = VERTEX_POINT ( 'NONE', #133 ) ;
#83 = COLOUR_RGB ( '',1.000000000000000000, 0.000000000000000000, 0.000000000000000000 ) ;
#84 = AXIS2_PLACEMENT_3D ( 'NONE', #141, #308, #349 ) ;
#85 = EDGE_LOOP ( 'NONE', ( #216, #303, #247, #341, #300 ) ) ;
#86 = UNCERTAINTY_MEASURE_WITH_UNIT (LENGTH_MEASURE( 1.000000000000000082E-05 ), #30, 'distance_accuracy_value', 'NONE');
#87 = MANIFOLD_SOLID_BREP ( 'Revolve - Tool Body (Straight Shanked)', #281 ) ;
#88 = EDGE_LOOP ( 'NONE', ( #213, #369, #79, #223 ) ) ;
#89 = SURFACE_STYLE_FILL_AREA ( #65 ) ;
#90 = CIRCLE ( 'NONE', #44, 0.06250000000000001388 ) ;
#91 = FILL_AREA_STYLE_COLOUR ( '', #43 ) ;
#92 = DIRECTION ( 'NONE',  ( -1.022717479935122961E-16, 1.000000000000000000, 0.000000000000000000 ) ) ;
#93 = DIRECTION ( 'NONE',  ( 1.000000000000000000, 0.000000000000000000, -1.224646799147353207E-16 ) ) ;
#94 = SURFACE_STYLE_USAGE ( .BOTH. , #95 ) ;
#95 = SURFACE_SIDE_STYLE ('',( #231 ) ) ;
#96 = ADVANCED_FACE ( 'NONE', ( #222 ), #354, .T. ) ;
#97 = AXIS2_PLACEMENT_3D ( 'NONE', #77, #245, #178 ) ;
#98 =( NAMED_UNIT ( * ) SI_UNIT ( $, .STERADIAN. ) SOLID_ANGLE_UNIT ( ) );
#99 = PLANE ( 'NONE',  #109 ) ;
#100 = SPHERICAL_SURFACE ( 'NONE', #228, 0.06250000000000001388 ) ;
#101 = AXIS2_PLACEMENT_3D ( 'NONE', #62, #92, #309 ) ;
#102 = CARTESIAN_POINT ( 'NONE',  ( -0.06250000000000001388, 0.06250000000000001388, 7.654042494670959086E-18 ) ) ;
#103 = VERTEX_POINT ( 'NONE', #340 ) ;
#104 = DIRECTION ( 'NONE',  ( 0.000000000000000000, 0.000000000000000000, -1.000000000000000000 ) ) ;
#105 = UNCERTAINTY_MEASURE_WITH_UNIT (LENGTH_MEASURE( 1.000000000000000082E-05 ), #20, 'distance_accuracy_value', 'NONE');
#106 = APPLICATION_CONTEXT ( 'automotive_design' ) ;
#107 = DIRECTION ( 'NONE',  ( -0.000000000000000000, -1.000000000000000000, -0.000000000000000000 ) ) ;
#108 = VERTEX_POINT ( 'NONE', #189 ) ;
#109 = AXIS2_PLACEMENT_3D ( 'NONE', #205, #3, #167 ) ;
#110 = ORIENTED_EDGE ( 'NONE', *, *, #140, .T. ) ;
#111 = DIRECTION ( 'NONE',  ( -1.022717479935123085E-16, 1.000000000000000000, -0.000000000000000000 ) ) ;
#112 = FACE_OUTER_BOUND ( 'NONE', #218, .T. ) ;
#113 = MECHANICAL_DESIGN_GEOMETRIC_PRESENTATION_REPRESENTATION (  '', ( #185 ), #368 ) ;
#114 = DIRECTION ( 'NONE',  ( 1.022717479935122961E-16, -1.000000000000000000, 0.000000000000000000 ) ) ;
#115 =( NAMED_UNIT ( * ) SI_UNIT ( $, .STERADIAN. ) SOLID_ANGLE_UNIT ( ) );
#116 = SURFACE_SIDE_STYLE ('',( #170 ) ) ;
#117 = MECHANICAL_DESIGN_GEOMETRIC_PRESENTATION_REPRESENTATION (  '', ( #291 ), #251 ) ;
#118 = CARTESIAN_POINT ( 'NONE',  ( 7.654042494670954463E-18, 0.7499999999999998890, 0.06249999999999995143 ) ) ;
#119 =( GEOMETRIC_REPRESENTATION_CONTEXT ( 3 ) GLOBAL_UNCERTAINTY_ASSIGNED_CONTEXT ( ( #38 ) ) GLOBAL_UNIT_ASSIGNED_CONTEXT ( ( #321, #66, #28 ) ) REPRESENTATION_CONTEXT ( 'NONE', 'WORKASPACE' ) );
#120 = DIRECTION ( 'NONE',  ( -1.022717479935122961E-16, 1.000000000000000000, -0.000000000000000000 ) ) ;
#121 = EDGE_CURVE ( 'NONE', #82, #331, #194, .T. ) ;
#122 = CARTESIAN_POINT ( 'NONE',  ( 6.688342786475879891E-16, 0.7499999999999998890, 0.000000000000000000 ) ) ;
#123 = PRODUCT_CONTEXT ( 'NONE', #106, 'mechanical' ) ;
#124 = CIRCLE ( 'NONE', #237, 0.06250000000000001388 ) ;
#125 = COLOUR_RGB ( '',0.7921568627450980005, 0.8196078431372548767, 0.9333333333333333481 ) ;
#126 = CARTESIAN_POINT ( 'NONE',  ( 0.000000000000000000, 0.06250000000000001388, 0.000000000000000000 ) ) ;
#127 = LINE ( 'NONE', #51, #31 ) ;
#128 = VERTEX_POINT ( 'NONE', #46 ) ;
#129 = CIRCLE ( 'NONE', #270, 0.06249999999999945877 ) ;
#130 = ORIENTED_EDGE ( 'NONE', *, *, #140, .F. ) ;
#131 = DIRECTION ( 'NONE',  ( -0.000000000000000000, -1.000000000000000000, -0.000000000000000000 ) ) ;
#132 =( CONVERSION_BASED_UNIT ( 'INCH', #372 ) LENGTH_UNIT ( ) NAMED_UNIT ( #181 ) );
#133 = CARTESIAN_POINT ( 'NONE',  ( 0.06250000000000001388, 0.06250000000000001388, 0.000000000000000000 ) ) ;
#134 = LENGTH_MEASURE_WITH_UNIT ( LENGTH_MEASURE( 0.02539999999999999897 ), #139 );
#135 = VECTOR ( 'NONE', #120, 39.37007874015748143 ) ;
#136 = SURFACE_STYLE_USAGE ( .BOTH. , #254 ) ;
#137 = COLOUR_RGB ( '',1.000000000000000000, 0.000000000000000000, 0.000000000000000000 ) ;
#138 = DIRECTION ( 'NONE',  ( -0.000000000000000000, -1.000000000000000000, -0.000000000000000000 ) ) ;
#139 =( LENGTH_UNIT ( ) NAMED_UNIT ( * ) SI_UNIT ( $, .METRE. ) );
#140 = EDGE_CURVE ( 'NONE', #128, #48, #259, .T. ) ;
#141 = CARTESIAN_POINT ( 'NONE',  ( 0.000000000000000000, 0.000000000000000000, 0.000000000000000000 ) ) ;
#142 =( NAMED_UNIT ( * ) PLANE_ANGLE_UNIT ( ) SI_UNIT ( $, .RADIAN. ) );
#143 = SURFACE_STYLE_FILL_AREA ( #163 ) ;
#144 = SURFACE_SIDE_STYLE ('',( #32 ) ) ;
#145 = MECHANICAL_DESIGN_GEOMETRIC_PRESENTATION_REPRESENTATION (  '', ( #283 ), #172 ) ;
#146 = DIRECTION ( 'NONE',  ( 0.000000000000000000, 0.000000000000000000, 1.000000000000000000 ) ) ;
#147 = EDGE_CURVE ( 'NONE', #128, #334, #127, .T. ) ;
#148 = DIRECTION ( 'NONE',  ( -1.022717479935122961E-16, 1.000000000000000000, -0.000000000000000000 ) ) ;
#149 = LENGTH_MEASURE_WITH_UNIT ( LENGTH_MEASURE( 0.02539999999999999897 ), #363 );
#150 = DIRECTION ( 'NONE',  ( -1.000000000000000000, 0.000000000000000000, 0.000000000000000000 ) ) ;
#151 = AXIS2_PLACEMENT_3D ( 'NONE', #315, #59, #93 ) ;
#152 = EDGE_LOOP ( 'NONE', ( #155, #14 ) ) ;
#153 = AXIS2_PLACEMENT_3D ( 'NONE', #366, #107, #217 ) ;
#154 = MECHANICAL_DESIGN_GEOMETRIC_PRESENTATION_REPRESENTATION (  '', ( #356 ), #11 ) ;
#155 = ORIENTED_EDGE ( 'NONE', *, *, #275, .T. ) ;
#156 = ORIENTED_EDGE ( 'NONE', *, *, #319, .T. ) ;
#157 = EDGE_LOOP ( 'NONE', ( #276, #110, #10, #296 ) ) ;
#158 = CARTESIAN_POINT ( 'NONE',  ( 0.000000000000000000, 0.7499999999999998890, -0.06249999999999995143 ) ) ;
#159 = ORIENTED_EDGE ( 'NONE', *, *, #173, .F. ) ;
#160 = FILL_AREA_STYLE_COLOUR ( '', #246 ) ;
#161 = FILL_AREA_STYLE_COLOUR ( '', #208 ) ;
#162 = DIRECTION ( 'NONE',  ( 0.000000000000000000, 0.000000000000000000, 1.000000000000000000 ) ) ;
#163 = FILL_AREA_STYLE ('',( #323 ) ) ;
#164 =( GEOMETRIC_REPRESENTATION_CONTEXT ( 3 ) GLOBAL_UNCERTAINTY_ASSIGNED_CONTEXT ( ( #265 ) ) GLOBAL_UNIT_ASSIGNED_CONTEXT ( ( #342, #304, #115 ) ) REPRESENTATION_CONTEXT ( 'NONE', 'WORKASPACE' ) );
#165 = FILL_AREA_STYLE ('',( #91 ) ) ;
#166 = SURFACE_STYLE_USAGE ( .BOTH. , #314 ) ;
#167 = DIRECTION ( 'NONE',  ( 0.000000000000000000, -0.000000000000000000, 1.000000000000000000 ) ) ;
#168 = SURFACE_SIDE_STYLE ('',( #60 ) ) ;
#169 = SURFACE_STYLE_USAGE ( .BOTH. , #116 ) ;
#170 = SURFACE_STYLE_FILL_AREA ( #239 ) ;
#171 = AXIS2_PLACEMENT_3D ( 'NONE', #361, #34, #80 ) ;
#172 =( GEOMETRIC_REPRESENTATION_CONTEXT ( 3 ) GLOBAL_UNCERTAINTY_ASSIGNED_CONTEXT ( ( #241 ) ) GLOBAL_UNIT_ASSIGNED_CONTEXT ( ( #280, #142, #98 ) ) REPRESENTATION_CONTEXT ( 'NONE', 'WORKASPACE' ) );
#173 = EDGE_CURVE ( 'NONE', #82, #252, #124, .T. ) ;
#174 = CARTESIAN_POINT ( 'NONE',  ( 0.06249999999999995837, 2.500000000000000000, 7.654042494670886671E-18 ) ) ;
#175 = CARTESIAN_POINT ( 'NONE',  ( -7.654042494670957545E-18, 0.06250000000000001388, 0.000000000000000000 ) ) ;
#176 = AXIS2_PLACEMENT_3D ( 'NONE', #122, #302, #150 ) ;
#177 = EDGE_CURVE ( 'NONE', #48, #128, #277, .T. ) ;
#178 = DIRECTION ( 'NONE',  ( -1.000000000000000000, 0.000000000000000000, 0.000000000000000000 ) ) ;
#179 = CARTESIAN_POINT ( 'NONE',  ( 6.688342786475879891E-16, 0.7499999999999998890, 0.000000000000000000 ) ) ;
#180 = EDGE_LOOP ( 'NONE', ( #344, #250 ) ) ;
#181 = DIMENSIONAL_EXPONENTS ( 1.000000000000000000, 0.000000000000000000, 0.000000000000000000, 0.000000000000000000, 0.000000000000000000, 0.000000000000000000, 0.000000000000000000 ) ;
#182 = DIRECTION ( 'NONE',  ( 0.000000000000000000, 0.000000000000000000, -1.000000000000000000 ) ) ;
#183 = AXIS2_PLACEMENT_3D ( 'NONE', #268, #330, #209 ) ;
#184 = PRESENTATION_LAYER_ASSIGNMENT (  '', '', ( #356 ) ) ;
#185 = STYLED_ITEM ( 'NONE', ( #29 ), #328 ) ;
#186 = PRODUCT_DEFINITION_CONTEXT ( 'detailed design', #5, 'design' ) ;
#187 = ORIENTED_EDGE ( 'NONE', *, *, #69, .F. ) ;
#188 = PRESENTATION_STYLE_ASSIGNMENT (( #240 ) ) ;
#189 = CARTESIAN_POINT ( 'NONE',  ( -0.06249999999999897304, 2.500000000000000000, 0.000000000000000000 ) ) ;
#190 = ADVANCED_FACE ( 'NONE', ( #364 ), #271, .T. ) ;
#191 = CARTESIAN_POINT ( 'NONE',  ( 0.000000000000000000, 0.000000000000000000, 0.000000000000000000 ) ) ;
#192 = ORIENTED_EDGE ( 'NONE', *, *, #121, .F. ) ;
#193 = EDGE_CURVE ( 'NONE', #273, #362, #73, .T. ) ;
#194 = CIRCLE ( 'NONE', #55, 0.06250000000000001388 ) ;
#195 =( LENGTH_UNIT ( ) NAMED_UNIT ( * ) SI_UNIT ( $, .METRE. ) );
#196 =( CONVERSION_BASED_UNIT ( 'INCH', #313 ) LENGTH_UNIT ( ) NAMED_UNIT ( #322 ) );
#197 = PRESENTATION_STYLE_ASSIGNMENT (( #94 ) ) ;
#198 = CARTESIAN_POINT ( 'NONE',  ( 7.654042494670956004E-18, 0.000000000000000000, 0.06249999999999997918 ) ) ;
#199 = CARTESIAN_POINT ( 'NONE',  ( 0.000000000000000000, 0.06250000000000001388, 0.000000000000000000 ) ) ;
#200 = CIRCLE ( 'NONE', #171, 0.06249999999999995143 ) ;
#201 = DIRECTION ( 'NONE',  ( -0.000000000000000000, -1.000000000000000000, -0.000000000000000000 ) ) ;
#202 = FILL_AREA_STYLE ('',( #4 ) ) ;
#203 = DIMENSIONAL_EXPONENTS ( 1.000000000000000000, 0.000000000000000000, 0.000000000000000000, 0.000000000000000000, 0.000000000000000000, 0.000000000000000000, 0.000000000000000000 ) ;
#204 =( LENGTH_UNIT ( ) NAMED_UNIT ( * ) SI_UNIT ( $, .METRE. ) );
#205 = CARTESIAN_POINT ( 'NONE',  ( 0.000000000000000000, 0.7499999999999998890, 0.000000000000000000 ) ) ;
#206 = UNCERTAINTY_MEASURE_WITH_UNIT (LENGTH_MEASURE( 1.000000000000000082E-05 ), #196, 'distance_accuracy_value', 'NONE');
#207 = COLOUR_RGB ( '',1.000000000000000000, 0.000000000000000000, 0.000000000000000000 ) ;
#208 = COLOUR_RGB ( '',1.000000000000000000, 0.000000000000000000, 0.000000000000000000 ) ;
#209 = DIRECTION ( 'NONE',  ( 1.000000000000000000, 0.000000000000000000, 0.000000000000000000 ) ) ;
#210 = EDGE_CURVE ( 'NONE', #338, #103, #371, .T. ) ;
#211 = SHAPE_DEFINITION_REPRESENTATION ( #68, #353 ) ;
#212 = DIMENSIONAL_EXPONENTS ( 1.000000000000000000, 0.000000000000000000, 0.000000000000000000, 0.000000000000000000, 0.000000000000000000, 0.000000000000000000, 0.000000000000000000 ) ;
#213 = ORIENTED_EDGE ( 'NONE', *, *, #326, .F. ) ;
#214 = LINE ( 'NONE', #7, #135 ) ;
#215 = DIMENSIONAL_EXPONENTS ( 1.000000000000000000, 0.000000000000000000, 0.000000000000000000, 0.000000000000000000, 0.000000000000000000, 0.000000000000000000, 0.000000000000000000 ) ;
#216 = ORIENTED_EDGE ( 'NONE', *, *, #319, .F. ) ;
#217 = DIRECTION ( 'NONE',  ( 0.000000000000000000, 0.000000000000000000, -1.000000000000000000 ) ) ;
#218 = EDGE_LOOP ( 'NONE', ( #248, #130 ) ) ;
#219 = STYLED_ITEM ( 'NONE', ( #197 ), #81 ) ;
#220 = ADVANCED_FACE ( 'NONE', ( #255 ), #310, .T. ) ;
#221 = ORIENTED_EDGE ( 'NONE', *, *, #147, .T. ) ;
#222 = FACE_OUTER_BOUND ( 'NONE', #157, .T. ) ;
#223 = ORIENTED_EDGE ( 'NONE', *, *, #121, .T. ) ;
#224 = PRODUCT_RELATED_PRODUCT_CATEGORY ( 'part', '', ( #75 ) ) ;
#225 = DIRECTION ( 'NONE',  ( -1.000000000000000000, 0.000000000000000000, 0.000000000000000000 ) ) ;
#226 =( NAMED_UNIT ( * ) PLANE_ANGLE_UNIT ( ) SI_UNIT ( $, .RADIAN. ) );
#227 = AXIS2_PLACEMENT_3D ( 'NONE', #199, #131, #233 ) ;
#228 = AXIS2_PLACEMENT_3D ( 'NONE', #311, #162, #260 ) ;
#229 = MECHANICAL_DESIGN_GEOMETRIC_PRESENTATION_REPRESENTATION (  '', ( #325 ), #164 ) ;
#230 =( NAMED_UNIT ( * ) PLANE_ANGLE_UNIT ( ) SI_UNIT ( $, .RADIAN. ) );
#231 = SURFACE_STYLE_FILL_AREA ( #261 ) ;
#232 = CARTESIAN_POINT ( 'NONE',  ( -3.827021247335478002E-18, 0.000000000000000000, 0.000000000000000000 ) ) ;
#233 = DIRECTION ( 'NONE',  ( 0.000000000000000000, 0.000000000000000000, -1.000000000000000000 ) ) ;
#234 =( NAMED_UNIT ( * ) PLANE_ANGLE_UNIT ( ) SI_UNIT ( $, .RADIAN. ) );
#235 = CARTESIAN_POINT ( 'NONE',  ( 0.000000000000000000, 0.000000000000000000, -0.06249999999999997918 ) ) ;
#236 = FACE_OUTER_BOUND ( 'NONE', #180, .T. ) ;
#237 = AXIS2_PLACEMENT_3D ( 'NONE', #269, #333, #9 ) ;
#238 = FACE_OUTER_BOUND ( 'NONE', #367, .T. ) ;
#239 = FILL_AREA_STYLE ('',( #23 ) ) ;
#240 = SURFACE_STYLE_USAGE ( .BOTH. , #144 ) ;
#241 = UNCERTAINTY_MEASURE_WITH_UNIT (LENGTH_MEASURE( 1.000000000000000082E-05 ), #280, 'distance_accuracy_value', 'NONE');
#242 = CIRCLE ( 'NONE', #289, 0.06249999999999945877 ) ;
#243 = PRESENTATION_LAYER_ASSIGNMENT (  '', '', ( #325 ) ) ;
#244 = EDGE_CURVE ( 'NONE', #252, #338, #71, .T. ) ;
#245 = DIRECTION ( 'NONE',  ( -1.022717479935123085E-16, 1.000000000000000000, -0.000000000000000000 ) ) ;
#246 = COLOUR_RGB ( '',0.7921568627450980005, 0.8196078431372548767, 0.9333333333333333481 ) ;
#247 = ORIENTED_EDGE ( 'NONE', *, *, #69, .T. ) ;
#248 = ORIENTED_EDGE ( 'NONE', *, *, #177, .F. ) ;
#249 = DIRECTION ( 'NONE',  ( -1.000000000000000000, 0.000000000000000000, 0.000000000000000000 ) ) ;
#250 = ORIENTED_EDGE ( 'NONE', *, *, #346, .F. ) ;
#251 =( GEOMETRIC_REPRESENTATION_CONTEXT ( 3 ) GLOBAL_UNCERTAINTY_ASSIGNED_CONTEXT ( ( #335 ) ) GLOBAL_UNIT_ASSIGNED_CONTEXT ( ( #132, #370, #1 ) ) REPRESENTATION_CONTEXT ( 'NONE', 'WORKASPACE' ) );
#252 = VERTEX_POINT ( 'NONE', #57 ) ;
#253 = ORIENTED_EDGE ( 'NONE', *, *, #326, .T. ) ;
#254 = SURFACE_SIDE_STYLE ('',( #89 ) ) ;
#255 = FACE_OUTER_BOUND ( 'NONE', #85, .T. ) ;
#256 = SURFACE_STYLE_FILL_AREA ( #279 ) ;
#257 = VECTOR ( 'NONE', #72, 39.37007874015748143 ) ;
#258 =( NAMED_UNIT ( * ) SI_UNIT ( $, .STERADIAN. ) SOLID_ANGLE_UNIT ( ) );
#259 = CIRCLE ( 'NONE', #176, 0.06249999999999928529 ) ;
#260 = DIRECTION ( 'NONE',  ( 1.000000000000000000, 0.000000000000000000, 0.000000000000000000 ) ) ;
#261 = FILL_AREA_STYLE ('',( #284 ) ) ;
#262 = ADVANCED_FACE ( 'NONE', ( #24 ), #27, .T. ) ;
#263 =( LENGTH_UNIT ( ) NAMED_UNIT ( * ) SI_UNIT ( $, .METRE. ) );
#264 = LINE ( 'NONE', #198, #257 ) ;
#265 = UNCERTAINTY_MEASURE_WITH_UNIT (LENGTH_MEASURE( 1.000000000000000082E-05 ), #342, 'distance_accuracy_value', 'NONE');
#266 = MECHANICAL_DESIGN_GEOMETRIC_PRESENTATION_REPRESENTATION (  '', ( #307 ), #37 ) ;
#267 = CARTESIAN_POINT ( 'NONE',  ( 4.898587196589413815E-16, 2.500000000000000000, 0.000000000000000000 ) ) ;
#268 = CARTESIAN_POINT ( 'NONE',  ( 0.000000000000000000, 0.000000000000000000, 0.000000000000000000 ) ) ;
#269 = CARTESIAN_POINT ( 'NONE',  ( 0.000000000000000000, 0.06250000000000001388, 0.000000000000000000 ) ) ;
#270 = AXIS2_PLACEMENT_3D ( 'NONE', #19, #111, #225 ) ;
#271 = CYLINDRICAL_SURFACE ( 'NONE', #272, 0.06249999999999936856 ) ;
#272 = AXIS2_PLACEMENT_3D ( 'NONE', #13, #298, #249 ) ;
#273 = VERTEX_POINT ( 'NONE', #158 ) ;
#274 = ORIENTED_EDGE ( 'NONE', *, *, #360, .F. ) ;
#275 = EDGE_CURVE ( 'NONE', #108, #334, #129, .T. ) ;
#276 = ORIENTED_EDGE ( 'NONE', *, *, #147, .F. ) ;
#277 = CIRCLE ( 'NONE', #329, 0.06249999999999928529 ) ;
#278 = SURFACE_STYLE_USAGE ( .BOTH. , #168 ) ;
#279 = FILL_AREA_STYLE ('',( #160 ) ) ;
#280 =( CONVERSION_BASED_UNIT ( 'INCH', #351 ) LENGTH_UNIT ( ) NAMED_UNIT ( #78 ) );
#281 = CLOSED_SHELL ( 'NONE', ( #190, #33, #96, #47 ) ) ;
#282 = AXIS2_PLACEMENT_3D ( 'NONE', #58, #114, #348 ) ;
#283 = STYLED_ITEM ( 'NONE', ( #312 ), #327 ) ;
#284 = FILL_AREA_STYLE_COLOUR ( '', #83 ) ;
#285 = EDGE_CURVE ( 'NONE', #334, #108, #242, .T. ) ;
#286 = PRESENTATION_STYLE_ASSIGNMENT (( #278 ) ) ;
#287 = PLANE ( 'NONE',  #282 ) ;
#288 = DIMENSIONAL_EXPONENTS ( 1.000000000000000000, 0.000000000000000000, 0.000000000000000000, 0.000000000000000000, 0.000000000000000000, 0.000000000000000000, 0.000000000000000000 ) ;
#289 = AXIS2_PLACEMENT_3D ( 'NONE', #267, #70, #15 ) ;
#290 =( NAMED_UNIT ( * ) SI_UNIT ( $, .STERADIAN. ) SOLID_ANGLE_UNIT ( ) );
#291 = STYLED_ITEM ( 'NONE', ( #286 ), #262 ) ;
#292 = CLOSED_SHELL ( 'NONE', ( #81, #262, #294, #220, #328 ) ) ;
#293 = CARTESIAN_POINT ( 'NONE',  ( -7.654042494670957545E-18, 0.06250000000000001388, 0.000000000000000000 ) ) ;
#294 = ADVANCED_FACE ( 'NONE', ( #236 ), #99, .T. ) ;
#295 = DIRECTION ( 'NONE',  ( -1.022717479935123085E-16, 1.000000000000000000, -0.000000000000000000 ) ) ;
#296 = ORIENTED_EDGE ( 'NONE', *, *, #285, .F. ) ;
#297 = PRESENTATION_LAYER_ASSIGNMENT (  '', '', ( #291 ) ) ;
#298 = DIRECTION ( 'NONE',  ( -1.022717479935123085E-16, 1.000000000000000000, -0.000000000000000000 ) ) ;
#299 = AXIS2_PLACEMENT_3D ( 'NONE', #337, #201, #25 ) ;
#300 = ORIENTED_EDGE ( 'NONE', *, *, #244, .F. ) ;
#301 = ORIENTED_EDGE ( 'NONE', *, *, #244, .T. ) ;
#302 = DIRECTION ( 'NONE',  ( -1.022717479935123085E-16, 1.000000000000000000, -0.000000000000000000 ) ) ;
#303 = ORIENTED_EDGE ( 'NONE', *, *, #346, .T. ) ;
#304 =( NAMED_UNIT ( * ) PLANE_ANGLE_UNIT ( ) SI_UNIT ( $, .RADIAN. ) );
#305 = DIRECTION ( 'NONE',  ( -0.000000000000000000, -1.000000000000000000, -0.000000000000000000 ) ) ;
#306 = EDGE_LOOP ( 'NONE', ( #16, #221, #50, #274 ) ) ;
#307 = STYLED_ITEM ( 'NONE', ( #350 ), #87 ) ;
#308 = DIRECTION ( 'NONE',  ( -0.000000000000000000, -1.000000000000000000, -0.000000000000000000 ) ) ;
#309 = DIRECTION ( 'NONE',  ( -1.000000000000000000, -1.022717479935122961E-16, 0.000000000000000000 ) ) ;
#310 = CYLINDRICAL_SURFACE ( 'NONE', #84, 0.06249999999999997918 ) ;
#311 = CARTESIAN_POINT ( 'NONE',  ( -7.654042494670957545E-18, 0.06250000000000001388, 0.000000000000000000 ) ) ;
#312 = PRESENTATION_STYLE_ASSIGNMENT (( #67 ) ) ;
#313 = LENGTH_MEASURE_WITH_UNIT ( LENGTH_MEASURE( 0.02539999999999999897 ), #195 );
#314 = SURFACE_SIDE_STYLE ('',( #256 ) ) ;
#315 = CARTESIAN_POINT ( 'NONE',  ( -7.654042494670957545E-18, 0.06250000000000001388, 0.000000000000000000 ) ) ;
#316 = VECTOR ( 'NONE', #138, 39.37007874015748143 ) ;
#317 =( NAMED_UNIT ( * ) SI_UNIT ( $, .STERADIAN. ) SOLID_ANGLE_UNIT ( ) );
#318 = FACE_OUTER_BOUND ( 'NONE', #152, .T. ) ;
#319 = EDGE_CURVE ( 'NONE', #362, #252, #264, .T. ) ;
#320 = FACE_OUTER_BOUND ( 'NONE', #88, .T. ) ;
#321 =( CONVERSION_BASED_UNIT ( 'INCH', #26 ) LENGTH_UNIT ( ) NAMED_UNIT ( #203 ) );
#322 = DIMENSIONAL_EXPONENTS ( 1.000000000000000000, 0.000000000000000000, 0.000000000000000000, 0.000000000000000000, 0.000000000000000000, 0.000000000000000000, 0.000000000000000000 ) ;
#323 = FILL_AREA_STYLE_COLOUR ( '', #125 ) ;
#324 = PRESENTATION_LAYER_ASSIGNMENT (  '', '', ( #219 ) ) ;
#325 = STYLED_ITEM ( 'NONE', ( #188 ), #294 ) ;
#326 = EDGE_CURVE ( 'NONE', #338, #331, #336, .T. ) ;
#327 = MANIFOLD_SOLID_BREP ( 'Revolve - Cutting Edge', #292 ) ;
#328 = ADVANCED_FACE ( 'NONE', ( #320 ), #36, .T. ) ;
#329 = AXIS2_PLACEMENT_3D ( 'NONE', #179, #295, #41 ) ;
#330 = DIRECTION ( 'NONE',  ( 0.000000000000000000, 0.000000000000000000, 1.000000000000000000 ) ) ;
#331 = VERTEX_POINT ( 'NONE', #232 ) ;
#332 = DIRECTION ( 'NONE',  ( 1.000000000000000000, 0.000000000000000000, 0.000000000000000000 ) ) ;
#333 = DIRECTION ( 'NONE',  ( -0.000000000000000000, -1.000000000000000000, -0.000000000000000000 ) ) ;
#334 = VERTEX_POINT ( 'NONE', #174 ) ;
#335 = UNCERTAINTY_MEASURE_WITH_UNIT (LENGTH_MEASURE( 1.000000000000000082E-05 ), #132, 'distance_accuracy_value', 'NONE');
#336 = CIRCLE ( 'NONE', #151, 0.06250000000000001388 ) ;
#337 = CARTESIAN_POINT ( 'NONE',  ( 0.000000000000000000, 0.06250000000000001388, 0.000000000000000000 ) ) ;
#338 = VERTEX_POINT ( 'NONE', #102 ) ;
#339 = LENGTH_MEASURE_WITH_UNIT ( LENGTH_MEASURE( 0.02539999999999999897 ), #49 );
#340 = CARTESIAN_POINT ( 'NONE',  ( 0.000000000000000000, 0.06250000000000001388, -0.06250000000000001388 ) ) ;
#341 = ORIENTED_EDGE ( 'NONE', *, *, #210, .F. ) ;
#342 =( CONVERSION_BASED_UNIT ( 'INCH', #339 ) LENGTH_UNIT ( ) NAMED_UNIT ( #39 ) );
#343 = PRESENTATION_STYLE_ASSIGNMENT (( #136 ) ) ;
#344 = ORIENTED_EDGE ( 'NONE', *, *, #193, .F. ) ;
#345 = LENGTH_MEASURE_WITH_UNIT ( LENGTH_MEASURE( 0.02539999999999999897 ), #204 );
#346 = EDGE_CURVE ( 'NONE', #362, #273, #200, .T. ) ;
#347 = PLANE ( 'NONE',  #101 ) ;
#348 = DIRECTION ( 'NONE',  ( 1.000000000000000000, 1.022717479935122961E-16, 0.000000000000000000 ) ) ;
#349 = DIRECTION ( 'NONE',  ( 0.000000000000000000, 0.000000000000000000, -1.000000000000000000 ) ) ;
#350 = PRESENTATION_STYLE_ASSIGNMENT (( #166 ) ) ;
#351 = LENGTH_MEASURE_WITH_UNIT ( LENGTH_MEASURE( 0.02539999999999999897 ), #64 );
#352 = PRESENTATION_LAYER_ASSIGNMENT (  '', '', ( #307 ) ) ;
#353 = ADVANCED_BREP_SHAPE_REPRESENTATION ( '84750', ( #327, #87, #183 ), #74 ) ;
#354 = CYLINDRICAL_SURFACE ( 'NONE', #97, 0.06249999999999936856 ) ;
#355 = SURFACE_SIDE_STYLE ('',( #143 ) ) ;
#356 = STYLED_ITEM ( 'NONE', ( #343 ), #220 ) ;
#357 = PRESENTATION_LAYER_ASSIGNMENT (  '', '', ( #283 ) ) ;
#358 =( NAMED_UNIT ( * ) PLANE_ANGLE_UNIT ( ) SI_UNIT ( $, .RADIAN. ) );
#359 =( CONVERSION_BASED_UNIT ( 'INCH', #149 ) LENGTH_UNIT ( ) NAMED_UNIT ( #212 ) );
#360 = EDGE_CURVE ( 'NONE', #48, #108, #214, .T. ) ;
#361 = CARTESIAN_POINT ( 'NONE',  ( 0.000000000000000000, 0.7499999999999998890, 0.000000000000000000 ) ) ;
#362 = VERTEX_POINT ( 'NONE', #118 ) ;
#363 =( LENGTH_UNIT ( ) NAMED_UNIT ( * ) SI_UNIT ( $, .METRE. ) );
#364 = FACE_OUTER_BOUND ( 'NONE', #306, .T. ) ;
#365 = DIRECTION ( 'NONE',  ( -0.000000000000000000, -1.000000000000000000, -0.000000000000000000 ) ) ;
#366 = CARTESIAN_POINT ( 'NONE',  ( 0.000000000000000000, 0.7499999999999998890, 0.000000000000000000 ) ) ;
#367 = EDGE_LOOP ( 'NONE', ( #301, #253, #192, #17 ) ) ;
#368 =( GEOMETRIC_REPRESENTATION_CONTEXT ( 3 ) GLOBAL_UNCERTAINTY_ASSIGNED_CONTEXT ( ( #86 ) ) GLOBAL_UNIT_ASSIGNED_CONTEXT ( ( #30, #234, #258 ) ) REPRESENTATION_CONTEXT ( 'NONE', 'WORKASPACE' ) );
#369 = ORIENTED_EDGE ( 'NONE', *, *, #210, .T. ) ;
#370 =( NAMED_UNIT ( * ) PLANE_ANGLE_UNIT ( ) SI_UNIT ( $, .RADIAN. ) );
#371 = CIRCLE ( 'NONE', #299, 0.06250000000000001388 ) ;
#372 = LENGTH_MEASURE_WITH_UNIT ( LENGTH_MEASURE( 0.02539999999999999897 ), #21 );
#373 = CARTESIAN_POINT ( 'NONE',  ( -0.06249999999999861916, 0.7499999999999998890, 0.000000000000000000 ) ) ;
ENDSEC;
END-ISO-10303-21;
