ISO-10303-21;
HEADER;
FILE_DESCRIPTION (( 'STEP AP214' ),
    '1' );
FILE_NAME ('Micro_SEM-234-04.STEP',
    '2021-09-02T02:24:34',
    ( '' ),
    ( '' ),
    'SwSTEP 2.0',
    'SolidWorks 2020',
    '' );
FILE_SCHEMA (( 'AUTOMOTIVE_DESIGN' ));
ENDSEC;

DATA;
#1 = CARTESIAN_POINT ( 'NONE',  ( 0.1250000000000000000, 1.530808498934191509E-17, 1.984999999999999432 ) ) ;
#2 = AXIS2_PLACEMENT_3D ( 'NONE', #193, #191, #277 ) ;
#3 = AXIS2_PLACEMENT_3D ( 'NONE', #258, #120, #166 ) ;
#4 = LINE ( 'NONE', #257, #128 ) ;
#5 = CARTESIAN_POINT ( 'NONE',  ( -0.1099999999999996397, 0.0000000000000000000, 2.000000000000000000 ) ) ;
#6 = CARTESIAN_POINT ( 'NONE',  ( 0.1170828000000000008, 1.433850762552097401E-17, 1.895600338963814870E-33 ) ) ;
#7 = DIMENSIONAL_EXPONENTS ( 1.000000000000000000, 0.0000000000000000000, 0.0000000000000000000, 0.0000000000000000000, 0.0000000000000000000, 0.0000000000000000000, 0.0000000000000000000 ) ;
#8 = EDGE_CURVE ( 'NONE', #82, #15, #83, .T. ) ;
#9 = ORIENTED_EDGE ( 'NONE', *, *, #60, .F. ) ;
#10 = FILL_AREA_STYLE_COLOUR ( '', #239 ) ;
#11 = CIRCLE ( 'NONE', #107, 0.1170828000000000146 ) ;
#12 = MANIFOLD_SOLID_BREP ( 'Cut-Revolve1', #297 ) ;
#13 =( GEOMETRIC_REPRESENTATION_CONTEXT ( 3 ) GLOBAL_UNCERTAINTY_ASSIGNED_CONTEXT ( ( #162 ) ) GLOBAL_UNIT_ASSIGNED_CONTEXT ( ( #185, #65, #90 ) ) REPRESENTATION_CONTEXT ( 'NONE', 'WORKASPACE' ) );
#14 = EDGE_CURVE ( 'NONE', #147, #289, #276, .T. ) ;
#15 = VERTEX_POINT ( 'NONE', #156 ) ;
#16 = PRODUCT_DEFINITION ( 'UNKNOWN', '', #237, #232 ) ;
#17 = CIRCLE ( 'NONE', #190, 0.1250000000000000000 ) ;
#18 = EDGE_CURVE ( 'NONE', #289, #147, #89, .T. ) ;
#19 = FACE_OUTER_BOUND ( 'NONE', #125, .T. ) ;
#20 =( LENGTH_UNIT ( ) NAMED_UNIT ( * ) SI_UNIT ( $, .METRE. ) );
#21 = SURFACE_SIDE_STYLE ('',( #44 ) ) ;
#22 = ORIENTED_EDGE ( 'NONE', *, *, #248, .T. ) ;
#23 = CARTESIAN_POINT ( 'NONE',  ( 0.0000000000000000000, 0.0000000000000000000, 1.984999999999999432 ) ) ;
#24 = DIRECTION ( 'NONE',  ( -1.224646799147353207E-16, -0.0000000000000000000, -1.000000000000000000 ) ) ;
#25 = CARTESIAN_POINT ( 'NONE',  ( 1.755960746814417673E-33, 0.0000000000000000000, 1.433850762552097401E-17 ) ) ;
#26 = AXIS2_PLACEMENT_3D ( 'NONE', #57, #285, #148 ) ;
#27 = UNCERTAINTY_MEASURE_WITH_UNIT (LENGTH_MEASURE( 1.000000000000000082E-05 ), #228, 'distance_accuracy_value', 'NONE');
#28 = DIRECTION ( 'NONE',  ( 1.000000000000000000, 0.0000000000000000000, -0.0000000000000000000 ) ) ;
#29 = CYLINDRICAL_SURFACE ( 'NONE', #186, 0.1250000000000000000 ) ;
#30 =( NAMED_UNIT ( * ) SI_UNIT ( $, .STERADIAN. ) SOLID_ANGLE_UNIT ( ) );
#31 = AXIS2_PLACEMENT_3D ( 'NONE', #142, #217, #294 ) ;
#32 = FILL_AREA_STYLE ('',( #10 ) ) ;
#33 =( NAMED_UNIT ( * ) PLANE_ANGLE_UNIT ( ) SI_UNIT ( $, .RADIAN. ) );
#34 = EDGE_LOOP ( 'NONE', ( #240, #152 ) ) ;
#35 = ADVANCED_FACE ( 'NONE', ( #106 ), #139, .F. ) ;
#36 = CARTESIAN_POINT ( 'NONE',  ( -0.1250000000000000000, 0.0000000000000000000, 2.000000000000000000 ) ) ;
#37 = ORIENTED_EDGE ( 'NONE', *, *, #224, .F. ) ;
#38 = AXIS2_PLACEMENT_3D ( 'NONE', #215, #282, #188 ) ;
#39 = COLOUR_RGB ( '',0.7921568627450980005, 0.8196078431372548767, 0.9333333333333333481 ) ;
#40 = CIRCLE ( 'NONE', #207, 0.1170828000000000146 ) ;
#41 =( NAMED_UNIT ( * ) SI_UNIT ( $, .STERADIAN. ) SOLID_ANGLE_UNIT ( ) );
#42 = PRESENTATION_STYLE_ASSIGNMENT (( #113 ) ) ;
#43 = CARTESIAN_POINT ( 'NONE',  ( 0.0000000000000000000, 0.0000000000000000000, 2.000000000000000000 ) ) ;
#44 = SURFACE_STYLE_FILL_AREA ( #249 ) ;
#45 = FACE_OUTER_BOUND ( 'NONE', #114, .T. ) ;
#46 = DIRECTION ( 'NONE',  ( -0.1736481776669311639, 2.126576849575782392E-17, 0.9848077530122080203 ) ) ;
#47 = VERTEX_POINT ( 'NONE', #52 ) ;
#48 = DIMENSIONAL_EXPONENTS ( 1.000000000000000000, 0.0000000000000000000, 0.0000000000000000000, 0.0000000000000000000, 0.0000000000000000000, 0.0000000000000000000, 0.0000000000000000000 ) ;
#49 = PLANE ( 'NONE',  #268 ) ;
#50 = PRODUCT_CONTEXT ( 'NONE', #145, 'mechanical' ) ;
#51 = MECHANICAL_DESIGN_GEOMETRIC_PRESENTATION_REPRESENTATION (  '', ( #182 ), #246 ) ;
#52 = CARTESIAN_POINT ( 'NONE',  ( 0.1170828000000000702, 0.0000000000000000000, 0.4380000000000000004 ) ) ;
#53 = FACE_OUTER_BOUND ( 'NONE', #138, .T. ) ;
#54 = ORIENTED_EDGE ( 'NONE', *, *, #224, .T. ) ;
#55 = EDGE_CURVE ( 'NONE', #263, #116, #184, .T. ) ;
#56 = APPLICATION_CONTEXT ( 'automotive_design' ) ;
#57 = CARTESIAN_POINT ( 'NONE',  ( 0.0000000000000000000, 0.0000000000000000000, 2.000000000000000000 ) ) ;
#58 = ORIENTED_EDGE ( 'NONE', *, *, #111, .T. ) ;
#59 = ORIENTED_EDGE ( 'NONE', *, *, #214, .F. ) ;
#60 = EDGE_CURVE ( 'NONE', #289, #82, #247, .T. ) ;
#61 = ORIENTED_EDGE ( 'NONE', *, *, #130, .T. ) ;
#62 = ORIENTED_EDGE ( 'NONE', *, *, #18, .F. ) ;
#63 = FACE_OUTER_BOUND ( 'NONE', #87, .T. ) ;
#64 = DIRECTION ( 'NONE',  ( 0.0000000000000000000, 0.0000000000000000000, 1.000000000000000000 ) ) ;
#65 =( NAMED_UNIT ( * ) PLANE_ANGLE_UNIT ( ) SI_UNIT ( $, .RADIAN. ) );
#66 = DIRECTION ( 'NONE',  ( -1.000000000000000000, 0.0000000000000000000, 0.0000000000000000000 ) ) ;
#67 = CIRCLE ( 'NONE', #241, 0.1250000000000000000 ) ;
#68 = DIRECTION ( 'NONE',  ( -1.000000000000000000, 0.0000000000000000000, 0.0000000000000000000 ) ) ;
#69 = ADVANCED_FACE ( 'NONE', ( #155 ), #293, .T. ) ;
#70 = DIRECTION ( 'NONE',  ( -1.000000000000000000, 0.0000000000000000000, 1.224646799147353207E-16 ) ) ;
#71 = CARTESIAN_POINT ( 'NONE',  ( 0.0000000000000000000, 0.0000000000000000000, 2.000000000000000000 ) ) ;
#72 = CARTESIAN_POINT ( 'NONE',  ( 5.363952980265406880E-17, 0.0000000000000000000, 0.4380000000000000004 ) ) ;
#73 = DIRECTION ( 'NONE',  ( -1.224646799147353207E-16, -0.0000000000000000000, -1.000000000000000000 ) ) ;
#74 = ORIENTED_EDGE ( 'NONE', *, *, #173, .T. ) ;
#75 = CARTESIAN_POINT ( 'NONE',  ( -0.1170827999999999591, 1.433850762552097401E-17, 0.4380000000000000004 ) ) ;
#76 = FACE_OUTER_BOUND ( 'NONE', #275, .T. ) ;
#77 = CARTESIAN_POINT ( 'NONE',  ( 0.0000000000000000000, 0.0000000000000000000, 2.000000000000000000 ) ) ;
#78 = DIMENSIONAL_EXPONENTS ( 1.000000000000000000, 0.0000000000000000000, 0.0000000000000000000, 0.0000000000000000000, 0.0000000000000000000, 0.0000000000000000000, 0.0000000000000000000 ) ;
#79 = AXIS2_PLACEMENT_3D ( 'NONE', #160, #192, #278 ) ;
#80 =( GEOMETRIC_REPRESENTATION_CONTEXT ( 3 ) GLOBAL_UNCERTAINTY_ASSIGNED_CONTEXT ( ( #27 ) ) GLOBAL_UNIT_ASSIGNED_CONTEXT ( ( #228, #269, #41 ) ) REPRESENTATION_CONTEXT ( 'NONE', 'WORKASPACE' ) );
#81 = EDGE_CURVE ( 'NONE', #197, #116, #118, .T. ) ;
#82 = VERTEX_POINT ( 'NONE', #1 ) ;
#83 = CIRCLE ( 'NONE', #235, 0.1250000000000000000 ) ;
#84 = CARTESIAN_POINT ( 'NONE',  ( 0.0000000000000000000, 0.0000000000000000000, 1.984999999999999432 ) ) ;
#85 = ORIENTED_EDGE ( 'NONE', *, *, #173, .F. ) ;
#86 = AXIS2_PLACEMENT_3D ( 'NONE', #140, #115, #255 ) ;
#87 = EDGE_LOOP ( 'NONE', ( #37, #102, #74, #165 ) ) ;
#88 = LENGTH_MEASURE_WITH_UNIT ( LENGTH_MEASURE( 0.02539999999999999897 ), #201 );
#89 = CIRCLE ( 'NONE', #31, 0.1099999999999996397 ) ;
#90 =( NAMED_UNIT ( * ) SI_UNIT ( $, .STERADIAN. ) SOLID_ANGLE_UNIT ( ) );
#91 = DIRECTION ( 'NONE',  ( 1.000000000000000000, 0.0000000000000000000, -0.0000000000000000000 ) ) ;
#92 = ORIENTED_EDGE ( 'NONE', *, *, #55, .F. ) ;
#93 = ADVANCED_FACE ( 'NONE', ( #76 ), #200, .T. ) ;
#94 = DIRECTION ( 'NONE',  ( 1.000000000000000000, 0.0000000000000000000, 0.0000000000000000000 ) ) ;
#95 = ADVANCED_FACE ( 'NONE', ( #210 ), #49, .T. ) ;
#96 = DIRECTION ( 'NONE',  ( 1.000000000000000000, 0.0000000000000000000, 0.0000000000000000000 ) ) ;
#97 = DIRECTION ( 'NONE',  ( -1.224646799147353207E-16, -0.0000000000000000000, -1.000000000000000000 ) ) ;
#98 = CARTESIAN_POINT ( 'NONE',  ( 0.1250000000000000555, 1.530808498934192125E-17, 0.4829006724222770219 ) ) ;
#99 = PRESENTATION_LAYER_ASSIGNMENT (  '', '', ( #182 ) ) ;
#100 = ORIENTED_EDGE ( 'NONE', *, *, #110, .F. ) ;
#101 = EDGE_LOOP ( 'NONE', ( #54, #61, #59, #92 ) ) ;
#102 = ORIENTED_EDGE ( 'NONE', *, *, #105, .T. ) ;
#103 = SURFACE_STYLE_USAGE ( .BOTH. , #266 ) ;
#104 = EDGE_LOOP ( 'NONE', ( #22, #231, #85, #267 ) ) ;
#105 = EDGE_CURVE ( 'NONE', #263, #168, #169, .T. ) ;
#106 = FACE_OUTER_BOUND ( 'NONE', #234, .T. ) ;
#107 = AXIS2_PLACEMENT_3D ( 'NONE', #238, #164, #252 ) ;
#108 = CARTESIAN_POINT ( 'NONE',  ( 5.363952980265406880E-17, 0.0000000000000000000, 0.4380000000000000004 ) ) ;
#109 = LENGTH_MEASURE_WITH_UNIT ( LENGTH_MEASURE( 0.02539999999999999897 ), #251 );
#110 = EDGE_CURVE ( 'NONE', #82, #199, #4, .T. ) ;
#111 = EDGE_CURVE ( 'NONE', #199, #168, #67, .T. ) ;
#112 = CONICAL_SURFACE ( 'NONE', #86, 0.1099999999999996397, 0.7853981633974426169 ) ;
#113 = SURFACE_STYLE_USAGE ( .BOTH. , #21 ) ;
#114 = EDGE_LOOP ( 'NONE', ( #100, #223, #220, #176 ) ) ;
#115 = DIRECTION ( 'NONE',  ( 0.0000000000000000000, 0.0000000000000000000, -1.000000000000000000 ) ) ;
#116 = VERTEX_POINT ( 'NONE', #137 ) ;
#117 = FACE_OUTER_BOUND ( 'NONE', #104, .T. ) ;
#118 = CIRCLE ( 'NONE', #79, 0.1170828000000000008 ) ;
#119 = FACE_OUTER_BOUND ( 'NONE', #101, .T. ) ;
#120 = DIRECTION ( 'NONE',  ( 0.0000000000000000000, 0.0000000000000000000, 1.000000000000000000 ) ) ;
#121 = DIRECTION ( 'NONE',  ( -1.224646799147353207E-16, -0.0000000000000000000, -1.000000000000000000 ) ) ;
#122 = ORIENTED_EDGE ( 'NONE', *, *, #60, .T. ) ;
#123 = ORIENTED_EDGE ( 'NONE', *, *, #14, .F. ) ;
#124 = ORIENTED_EDGE ( 'NONE', *, *, #226, .T. ) ;
#125 = EDGE_LOOP ( 'NONE', ( #9, #123, #283, #172 ) ) ;
#126 = PRODUCT_RELATED_PRODUCT_CATEGORY ( 'part', '', ( #178 ) ) ;
#127 = CARTESIAN_POINT ( 'NONE',  ( -0.1170827999999999591, 1.482329630743144455E-17, 0.4380000000000000004 ) ) ;
#128 = VECTOR ( 'NONE', #195, 39.37007874015748143 ) ;
#129 = DIRECTION ( 'NONE',  ( 0.7071067811865434649, 8.659560562354883554E-17, -0.7071067811865515695 ) ) ;
#130 = EDGE_CURVE ( 'NONE', #47, #197, #213, .T. ) ;
#131 = FILL_AREA_STYLE_COLOUR ( '', #39 ) ;
#132 = DIRECTION ( 'NONE',  ( 0.1736481776669313304, 0.0000000000000000000, 0.9848077530122077983 ) ) ;
#133 = CIRCLE ( 'NONE', #154, 0.1250000000000000000 ) ;
#134 = MECHANICAL_DESIGN_GEOMETRIC_PRESENTATION_REPRESENTATION (  '', ( #218 ), #80 ) ;
#135 = ADVANCED_FACE ( 'NONE', ( #53 ), #112, .T. ) ;
#136 = DIRECTION ( 'NONE',  ( 1.000000000000000000, 0.0000000000000000000, 0.0000000000000000000 ) ) ;
#137 = CARTESIAN_POINT ( 'NONE',  ( -0.1170828000000000008, 0.0000000000000000000, 2.867701525104194802E-17 ) ) ;
#138 = EDGE_LOOP ( 'NONE', ( #62, #122, #180, #151 ) ) ;
#139 = PLANE ( 'NONE',  #295 ) ;
#140 = CARTESIAN_POINT ( 'NONE',  ( 0.0000000000000000000, 0.0000000000000000000, 2.000000000000000000 ) ) ;
#141 = ORIENTED_EDGE ( 'NONE', *, *, #105, .F. ) ;
#142 = CARTESIAN_POINT ( 'NONE',  ( 0.0000000000000000000, 0.0000000000000000000, 2.000000000000000000 ) ) ;
#143 = CARTESIAN_POINT ( 'NONE',  ( 5.913827627880460296E-17, 0.0000000000000000000, 0.4829006724222770219 ) ) ;
#144 = EDGE_LOOP ( 'NONE', ( #174, #189, #243, #259 ) ) ;
#145 = APPLICATION_CONTEXT ( 'automotive_design' ) ;
#146 = CARTESIAN_POINT ( 'NONE',  ( 0.1170828000000000146, 1.433850762552097401E-17, -1.433850762552097401E-17 ) ) ;
#147 = VERTEX_POINT ( 'NONE', #5 ) ;
#148 = DIRECTION ( 'NONE',  ( 1.000000000000000000, 0.0000000000000000000, 0.0000000000000000000 ) ) ;
#149 = VECTOR ( 'NONE', #264, 39.37007874015748143 ) ;
#150 = PRESENTATION_STYLE_ASSIGNMENT (( #103 ) ) ;
#151 = ORIENTED_EDGE ( 'NONE', *, *, #298, .F. ) ;
#152 = ORIENTED_EDGE ( 'NONE', *, *, #18, .T. ) ;
#153 = EDGE_CURVE ( 'NONE', #47, #263, #11, .T. ) ;
#154 = AXIS2_PLACEMENT_3D ( 'NONE', #23, #245, #181 ) ;
#155 = FACE_OUTER_BOUND ( 'NONE', #144, .T. ) ;
#156 = CARTESIAN_POINT ( 'NONE',  ( -0.1250000000000000000, 0.0000000000000000000, 1.984999999999999432 ) ) ;
#157 = CARTESIAN_POINT ( 'NONE',  ( -0.1099999999999996397, 0.0000000000000000000, 2.000000000000000000 ) ) ;
#158 = ADVANCED_FACE ( 'NONE', ( #45 ), #29, .T. ) ;
#159 = PRESENTATION_LAYER_ASSIGNMENT (  '', '', ( #218 ) ) ;
#160 = CARTESIAN_POINT ( 'NONE',  ( 1.755960746814417673E-33, 0.0000000000000000000, 1.433850762552097401E-17 ) ) ;
#161 = CARTESIAN_POINT ( 'NONE',  ( 0.1099999999999996397, 1.438959988998137757E-17, 2.000000000000000000 ) ) ;
#162 = UNCERTAINTY_MEASURE_WITH_UNIT (LENGTH_MEASURE( 1.000000000000000082E-05 ), #185, 'distance_accuracy_value', 'NONE');
#163 = DIRECTION ( 'NONE',  ( -1.000000000000000000, 0.0000000000000000000, 1.224646799147353207E-16 ) ) ;
#164 = DIRECTION ( 'NONE',  ( -1.224646799147353207E-16, -0.0000000000000000000, -1.000000000000000000 ) ) ;
#165 = ORIENTED_EDGE ( 'NONE', *, *, #226, .F. ) ;
#166 = DIRECTION ( 'NONE',  ( 1.000000000000000000, 0.0000000000000000000, 0.0000000000000000000 ) ) ;
#167 = DIRECTION ( 'NONE',  ( -0.0000000000000000000, -0.0000000000000000000, -1.000000000000000000 ) ) ;
#168 = VERTEX_POINT ( 'NONE', #216 ) ;
#169 = LINE ( 'NONE', #75, #290 ) ;
#170 = VECTOR ( 'NONE', #129, 39.37007874015748143 ) ;
#171 = APPLICATION_PROTOCOL_DEFINITION ( 'draft international standard', 'automotive_design', 1998, #56 ) ;
#172 = ORIENTED_EDGE ( 'NONE', *, *, #8, .F. ) ;
#173 = EDGE_CURVE ( 'NONE', #168, #199, #17, .T. ) ;
#174 = ORIENTED_EDGE ( 'NONE', *, *, #130, .F. ) ;
#175 = AXIS2_PLACEMENT_3D ( 'NONE', #25, #73, #163 ) ;
#176 = ORIENTED_EDGE ( 'NONE', *, *, #111, .F. ) ;
#177 = CARTESIAN_POINT ( 'NONE',  ( 0.0000000000000000000, 0.0000000000000000000, 0.0000000000000000000 ) ) ;
#178 = PRODUCT ( 'Micro_SEM-234-04', 'Micro_SEM-234-04', '', ( #50 ) ) ;
#179 = SURFACE_STYLE_FILL_AREA ( #32 ) ;
#180 = ORIENTED_EDGE ( 'NONE', *, *, #248, .F. ) ;
#181 = DIRECTION ( 'NONE',  ( 1.000000000000000000, 0.0000000000000000000, 0.0000000000000000000 ) ) ;
#182 = STYLED_ITEM ( 'NONE', ( #150 ), #12 ) ;
#183 = AXIS2_PLACEMENT_3D ( 'NONE', #71, #291, #68 ) ;
#184 = LINE ( 'NONE', #209, #149 ) ;
#185 =( CONVERSION_BASED_UNIT ( 'INCH', #109 ) LENGTH_UNIT ( ) NAMED_UNIT ( #48 ) );
#186 = AXIS2_PLACEMENT_3D ( 'NONE', #254, #167, #233 ) ;
#187 = DIRECTION ( 'NONE',  ( -0.0000000000000000000, -0.0000000000000000000, -1.000000000000000000 ) ) ;
#188 = DIRECTION ( 'NONE',  ( -1.000000000000000000, 0.0000000000000000000, 1.224646799147353207E-16 ) ) ;
#189 = ORIENTED_EDGE ( 'NONE', *, *, #153, .T. ) ;
#190 = AXIS2_PLACEMENT_3D ( 'NONE', #236, #97, #96 ) ;
#191 = DIRECTION ( 'NONE',  ( 1.224646799147353207E-16, 0.0000000000000000000, 1.000000000000000000 ) ) ;
#192 = DIRECTION ( 'NONE',  ( -1.224646799147353207E-16, -0.0000000000000000000, -1.000000000000000000 ) ) ;
#193 = CARTESIAN_POINT ( 'NONE',  ( 5.363952980265406880E-17, 0.0000000000000000000, 0.4380000000000000004 ) ) ;
#194 = SHAPE_DEFINITION_REPRESENTATION ( #284, #270 ) ;
#195 = DIRECTION ( 'NONE',  ( -0.0000000000000000000, -0.0000000000000000000, -1.000000000000000000 ) ) ;
#196 = CONICAL_SURFACE ( 'NONE', #183, 0.1099999999999996397, 0.7853981633974426169 ) ;
#197 = VERTEX_POINT ( 'NONE', #6 ) ;
#198 =( CONVERSION_BASED_UNIT ( 'INCH', #88 ) LENGTH_UNIT ( ) NAMED_UNIT ( #7 ) );
#199 = VERTEX_POINT ( 'NONE', #98 ) ;
#200 = CONICAL_SURFACE ( 'NONE', #2, 0.1170828000000000146, 0.1745329251994338360 ) ;
#201 =( LENGTH_UNIT ( ) NAMED_UNIT ( * ) SI_UNIT ( $, .METRE. ) );
#202 = APPLICATION_PROTOCOL_DEFINITION ( 'draft international standard', 'automotive_design', 1998, #145 ) ;
#203 = AXIS2_PLACEMENT_3D ( 'NONE', #292, #271, #70 ) ;
#204 = DIRECTION ( 'NONE',  ( -1.000000000000000000, 0.0000000000000000000, 0.0000000000000000000 ) ) ;
#205 = LINE ( 'NONE', #157, #287 ) ;
#206 = DIRECTION ( 'NONE',  ( -0.0000000000000000000, -0.0000000000000000000, -1.000000000000000000 ) ) ;
#207 = AXIS2_PLACEMENT_3D ( 'NONE', #72, #272, #204 ) ;
#208 = LENGTH_MEASURE_WITH_UNIT ( LENGTH_MEASURE( 0.02539999999999999897 ), #20 );
#209 = CARTESIAN_POINT ( 'NONE',  ( -0.1170828000000000146, 0.0000000000000000000, 1.433850762552097401E-17 ) ) ;
#210 = FACE_OUTER_BOUND ( 'NONE', #34, .T. ) ;
#211 = ADVANCED_FACE ( 'NONE', ( #119 ), #274, .T. ) ;
#212 = VECTOR ( 'NONE', #121, 39.37007874015748143 ) ;
#213 = LINE ( 'NONE', #146, #212 ) ;
#214 = EDGE_CURVE ( 'NONE', #116, #197, #225, .T. ) ;
#215 = CARTESIAN_POINT ( 'NONE',  ( 0.0000000000000000000, 0.0000000000000000000, 0.0000000000000000000 ) ) ;
#216 = CARTESIAN_POINT ( 'NONE',  ( -0.1249999999999999445, 0.0000000000000000000, 0.4829006724222770219 ) ) ;
#217 = DIRECTION ( 'NONE',  ( 0.0000000000000000000, 0.0000000000000000000, 1.000000000000000000 ) ) ;
#218 = STYLED_ITEM ( 'NONE', ( #42 ), #270 ) ;
#219 = DIRECTION ( 'NONE',  ( 0.0000000000000000000, 0.0000000000000000000, -1.000000000000000000 ) ) ;
#220 = ORIENTED_EDGE ( 'NONE', *, *, #253, .T. ) ;
#221 = ORIENTED_EDGE ( 'NONE', *, *, #153, .F. ) ;
#222 = ADVANCED_FACE ( 'NONE', ( #117 ), #230, .T. ) ;
#223 = ORIENTED_EDGE ( 'NONE', *, *, #8, .T. ) ;
#224 = EDGE_CURVE ( 'NONE', #263, #47, #40, .T. ) ;
#225 = CIRCLE ( 'NONE', #175, 0.1170828000000000008 ) ;
#226 = EDGE_CURVE ( 'NONE', #47, #199, #250, .T. ) ;
#227 = DIRECTION ( 'NONE',  ( 1.224646799147353207E-16, 0.0000000000000000000, 1.000000000000000000 ) ) ;
#228 =( CONVERSION_BASED_UNIT ( 'INCH', #208 ) LENGTH_UNIT ( ) NAMED_UNIT ( #78 ) );
#229 = CARTESIAN_POINT ( 'NONE',  ( 0.1170828000000000702, 0.0000000000000000000, 0.4380000000000000004 ) ) ;
#230 = CYLINDRICAL_SURFACE ( 'NONE', #256, 0.1250000000000000000 ) ;
#231 = ORIENTED_EDGE ( 'NONE', *, *, #110, .T. ) ;
#232 = PRODUCT_DEFINITION_CONTEXT ( 'detailed design', #56, 'design' ) ;
#233 = DIRECTION ( 'NONE',  ( -1.000000000000000000, 0.0000000000000000000, 0.0000000000000000000 ) ) ;
#234 = EDGE_LOOP ( 'NONE', ( #244, #299 ) ) ;
#235 = AXIS2_PLACEMENT_3D ( 'NONE', #84, #219, #261 ) ;
#236 = CARTESIAN_POINT ( 'NONE',  ( 5.913827627880460296E-17, 0.0000000000000000000, 0.4829006724222770219 ) ) ;
#237 = PRODUCT_DEFINITION_FORMATION_WITH_SPECIFIED_SOURCE ( 'ANY', '', #178, .NOT_KNOWN. ) ;
#238 = CARTESIAN_POINT ( 'NONE',  ( 5.363952980265406880E-17, 0.0000000000000000000, 0.4380000000000000004 ) ) ;
#239 = COLOUR_RGB ( '',0.7921568627450980005, 0.8196078431372548767, 0.9333333333333333481 ) ;
#240 = ORIENTED_EDGE ( 'NONE', *, *, #14, .T. ) ;
#241 = AXIS2_PLACEMENT_3D ( 'NONE', #143, #24, #94 ) ;
#242 = CONICAL_SURFACE ( 'NONE', #281, 0.1170828000000000146, 0.1745329251994338360 ) ;
#243 = ORIENTED_EDGE ( 'NONE', *, *, #55, .T. ) ;
#244 = ORIENTED_EDGE ( 'NONE', *, *, #214, .T. ) ;
#245 = DIRECTION ( 'NONE',  ( 0.0000000000000000000, 0.0000000000000000000, -1.000000000000000000 ) ) ;
#246 =( GEOMETRIC_REPRESENTATION_CONTEXT ( 3 ) GLOBAL_UNCERTAINTY_ASSIGNED_CONTEXT ( ( #265 ) ) GLOBAL_UNIT_ASSIGNED_CONTEXT ( ( #198, #33, #30 ) ) REPRESENTATION_CONTEXT ( 'NONE', 'WORKASPACE' ) );
#247 = LINE ( 'NONE', #296, #170 ) ;
#248 = EDGE_CURVE ( 'NONE', #15, #82, #133, .T. ) ;
#249 = FILL_AREA_STYLE ('',( #131 ) ) ;
#250 = LINE ( 'NONE', #229, #280 ) ;
#251 =( LENGTH_UNIT ( ) NAMED_UNIT ( * ) SI_UNIT ( $, .METRE. ) );
#252 = DIRECTION ( 'NONE',  ( -1.000000000000000000, 0.0000000000000000000, 0.0000000000000000000 ) ) ;
#253 = EDGE_CURVE ( 'NONE', #15, #168, #260, .T. ) ;
#254 = CARTESIAN_POINT ( 'NONE',  ( 0.0000000000000000000, 0.0000000000000000000, 2.000000000000000000 ) ) ;
#255 = DIRECTION ( 'NONE',  ( -1.000000000000000000, 0.0000000000000000000, 0.0000000000000000000 ) ) ;
#256 = AXIS2_PLACEMENT_3D ( 'NONE', #43, #206, #66 ) ;
#257 = CARTESIAN_POINT ( 'NONE',  ( 0.1250000000000000000, 1.530808498934191509E-17, 2.000000000000000000 ) ) ;
#258 = CARTESIAN_POINT ( 'NONE',  ( 0.0000000000000000000, 0.0000000000000000000, 0.0000000000000000000 ) ) ;
#259 = ORIENTED_EDGE ( 'NONE', *, *, #81, .F. ) ;
#260 = LINE ( 'NONE', #36, #286 ) ;
#261 = DIRECTION ( 'NONE',  ( 1.000000000000000000, 0.0000000000000000000, 0.0000000000000000000 ) ) ;
#262 = ADVANCED_FACE ( 'NONE', ( #19 ), #196, .T. ) ;
#263 = VERTEX_POINT ( 'NONE', #127 ) ;
#264 = DIRECTION ( 'NONE',  ( -1.224646799147353207E-16, -0.0000000000000000000, -1.000000000000000000 ) ) ;
#265 = UNCERTAINTY_MEASURE_WITH_UNIT (LENGTH_MEASURE( 1.000000000000000082E-05 ), #198, 'distance_accuracy_value', 'NONE');
#266 = SURFACE_SIDE_STYLE ('',( #179 ) ) ;
#267 = ORIENTED_EDGE ( 'NONE', *, *, #253, .F. ) ;
#268 = AXIS2_PLACEMENT_3D ( 'NONE', #77, #279, #28 ) ;
#269 =( NAMED_UNIT ( * ) PLANE_ANGLE_UNIT ( ) SI_UNIT ( $, .RADIAN. ) );
#270 = ADVANCED_BREP_SHAPE_REPRESENTATION ( 'Micro_SEM-234-04', ( #12, #3 ), #13 ) ;
#271 = DIRECTION ( 'NONE',  ( -1.224646799147353207E-16, -0.0000000000000000000, -1.000000000000000000 ) ) ;
#272 = DIRECTION ( 'NONE',  ( -1.224646799147353207E-16, -0.0000000000000000000, -1.000000000000000000 ) ) ;
#273 = DIRECTION ( 'NONE',  ( -0.7071067811865434649, 0.0000000000000000000, -0.7071067811865515695 ) ) ;
#274 = CYLINDRICAL_SURFACE ( 'NONE', #38, 0.1170828000000000146 ) ;
#275 = EDGE_LOOP ( 'NONE', ( #141, #221, #124, #58 ) ) ;
#276 = CIRCLE ( 'NONE', #26, 0.1099999999999996397 ) ;
#277 = DIRECTION ( 'NONE',  ( 1.000000000000000000, 0.0000000000000000000, 0.0000000000000000000 ) ) ;
#278 = DIRECTION ( 'NONE',  ( -1.000000000000000000, 0.0000000000000000000, 1.224646799147353207E-16 ) ) ;
#279 = DIRECTION ( 'NONE',  ( 0.0000000000000000000, 0.0000000000000000000, 1.000000000000000000 ) ) ;
#280 = VECTOR ( 'NONE', #132, 39.37007874015748143 ) ;
#281 = AXIS2_PLACEMENT_3D ( 'NONE', #108, #227, #136 ) ;
#282 = DIRECTION ( 'NONE',  ( -1.224646799147353207E-16, -0.0000000000000000000, -1.000000000000000000 ) ) ;
#283 = ORIENTED_EDGE ( 'NONE', *, *, #298, .T. ) ;
#284 = PRODUCT_DEFINITION_SHAPE ( 'NONE', 'NONE',  #16 ) ;
#285 = DIRECTION ( 'NONE',  ( 0.0000000000000000000, 0.0000000000000000000, 1.000000000000000000 ) ) ;
#286 = VECTOR ( 'NONE', #187, 39.37007874015748143 ) ;
#287 = VECTOR ( 'NONE', #273, 39.37007874015748143 ) ;
#288 = ADVANCED_FACE ( 'NONE', ( #63 ), #242, .T. ) ;
#289 = VERTEX_POINT ( 'NONE', #161 ) ;
#290 = VECTOR ( 'NONE', #46, 39.37007874015747433 ) ;
#291 = DIRECTION ( 'NONE',  ( 0.0000000000000000000, 0.0000000000000000000, -1.000000000000000000 ) ) ;
#292 = CARTESIAN_POINT ( 'NONE',  ( 0.0000000000000000000, 0.0000000000000000000, 0.0000000000000000000 ) ) ;
#293 = CYLINDRICAL_SURFACE ( 'NONE', #203, 0.1170828000000000146 ) ;
#294 = DIRECTION ( 'NONE',  ( 1.000000000000000000, 0.0000000000000000000, 0.0000000000000000000 ) ) ;
#295 = AXIS2_PLACEMENT_3D ( 'NONE', #177, #64, #91 ) ;
#296 = CARTESIAN_POINT ( 'NONE',  ( 0.1099999999999996397, 1.347111479062084158E-17, 2.000000000000000000 ) ) ;
#297 = CLOSED_SHELL ( 'NONE', ( #211, #288, #135, #222, #158, #95, #262, #93, #69, #35 ) ) ;
#298 = EDGE_CURVE ( 'NONE', #147, #15, #205, .T. ) ;
#299 = ORIENTED_EDGE ( 'NONE', *, *, #81, .T. ) ;
ENDSEC;
END-ISO-10303-21;
