ISO-10303-21;
HEADER;
FILE_DESCRIPTION (( 'STEP AP214' ),
    '1' );
FILE_NAME ('83522.STEP',
    '2023-06-23T10:29:12',
    ( '' ),
    ( '' ),
    'SwSTEP 2.0',
    'SolidWorks 2023',
    '' );
FILE_SCHEMA (( 'AUTOMOTIVE_DESIGN' ));
ENDSEC;

DATA;
#1 =( NAMED_UNIT ( * ) SI_UNIT ( $, .STERADIAN. ) SOLID_ANGLE_UNIT ( ) );
#2 =( NAMED_UNIT ( * ) PLANE_ANGLE_UNIT ( ) SI_UNIT ( $, .RADIAN. ) );
#3 = FACE_OUTER_BOUND ( 'NONE', #119, .T. ) ;
#4 = FACE_OUTER_BOUND ( 'NONE', #9, .T. ) ;
#5 = AXIS2_PLACEMENT_3D ( 'NONE', #269, #54, #150 ) ;
#6 = STYLED_ITEM ( 'NONE', ( #289 ), #301 ) ;
#7 = FILL_AREA_STYLE_COLOUR ( '', #205 ) ;
#8 = CARTESIAN_POINT ( 'NONE',  ( 0.000000000000000000, 0.000000000000000000, 0.000000000000000000 ) ) ;
#9 = EDGE_LOOP ( 'NONE', ( #208, #197, #306, #193 ) ) ;
#10 = VECTOR ( 'NONE', #130, 39.37007874015748143 ) ;
#11 = DIRECTION ( 'NONE',  ( -0.000000000000000000, -1.000000000000000000, -0.000000000000000000 ) ) ;
#12 = COLOUR_RGB ( '',0.7921568627450980005, 0.8196078431372548767, 0.9333333333333333481 ) ;
#13 = CYLINDRICAL_SURFACE ( 'NONE', #247, 0.06250000000000001388 ) ;
#14 = DIRECTION ( 'NONE',  ( -1.000000000000000000, 0.000000000000000000, 0.000000000000000000 ) ) ;
#15 = LENGTH_MEASURE_WITH_UNIT ( LENGTH_MEASURE( 0.02539999999999999897 ), #155 );
#16 = ORIENTED_EDGE ( 'NONE', *, *, #85, .T. ) ;
#17 = EDGE_CURVE ( 'NONE', #229, #275, #168, .T. ) ;
#18 = ORIENTED_EDGE ( 'NONE', *, *, #274, .F. ) ;
#19 = DIRECTION ( 'NONE',  ( 1.000000000000000000, -7.536287994752941486E-17, 0.000000000000000000 ) ) ;
#20 = SURFACE_STYLE_FILL_AREA ( #180 ) ;
#21 = CARTESIAN_POINT ( 'NONE',  ( 0.000000000000000000, 0.000000000000000000, 0.000000000000000000 ) ) ;
#22 = CIRCLE ( 'NONE', #98, 0.06249999999999986122 ) ;
#23 = EDGE_LOOP ( 'NONE', ( #18, #293 ) ) ;
#24 =( CONVERSION_BASED_UNIT ( 'INCH', #77 ) LENGTH_UNIT ( ) NAMED_UNIT ( #165 ) );
#25 = SURFACE_STYLE_USAGE ( .BOTH. , #48 ) ;
#26 =( GEOMETRIC_REPRESENTATION_CONTEXT ( 3 ) GLOBAL_UNCERTAINTY_ASSIGNED_CONTEXT ( ( #218 ) ) GLOBAL_UNIT_ASSIGNED_CONTEXT ( ( #95, #2, #1 ) ) REPRESENTATION_CONTEXT ( 'NONE', 'WORKASPACE' ) );
#27 = EDGE_CURVE ( 'NONE', #245, #275, #144, .T. ) ;
#28 = EDGE_CURVE ( 'NONE', #275, #229, #29, .T. ) ;
#29 = CIRCLE ( 'NONE', #298, 0.06250000000000001388 ) ;
#30 = SURFACE_STYLE_FILL_AREA ( #151 ) ;
#31 = UNCERTAINTY_MEASURE_WITH_UNIT (LENGTH_MEASURE( 1.000000000000000082E-05 ), #73, 'distance_accuracy_value', 'NONE');
#32 =( CONVERSION_BASED_UNIT ( 'INCH', #112 ) LENGTH_UNIT ( ) NAMED_UNIT ( #46 ) );
#33 = SURFACE_STYLE_USAGE ( .BOTH. , #225 ) ;
#34 =( NAMED_UNIT ( * ) SI_UNIT ( $, .STERADIAN. ) SOLID_ANGLE_UNIT ( ) );
#35 = PRESENTATION_LAYER_ASSIGNMENT (  '', '', ( #243 ) ) ;
#36 = CARTESIAN_POINT ( 'NONE',  ( 0.000000000000000000, 0.8750000000000000000, -0.06250000000000001388 ) ) ;
#37 = DIRECTION ( 'NONE',  ( -1.000000000000000000, 7.536287994752941486E-17, 0.000000000000000000 ) ) ;
#38 = ADVANCED_FACE ( 'NONE', ( #213 ), #128, .T. ) ;
#39 = DIRECTION ( 'NONE',  ( 1.000000000000000000, 0.000000000000000000, 0.000000000000000000 ) ) ;
#40 = FILL_AREA_STYLE_COLOUR ( '', #284 ) ;
#41 = SURFACE_SIDE_STYLE ('',( #20 ) ) ;
#42 = APPLICATION_PROTOCOL_DEFINITION ( 'draft international standard', 'automotive_design', 1998, #74 ) ;
#43 = DIRECTION ( 'NONE',  ( 0.000000000000000000, 1.000000000000000000, 0.000000000000000000 ) ) ;
#44 = ORIENTED_EDGE ( 'NONE', *, *, #149, .T. ) ;
#45 = PLANE ( 'NONE',  #257 ) ;
#46 = DIMENSIONAL_EXPONENTS ( 1.000000000000000000, 0.000000000000000000, 0.000000000000000000, 0.000000000000000000, 0.000000000000000000, 0.000000000000000000, 0.000000000000000000 ) ;
#47 =( NAMED_UNIT ( * ) PLANE_ANGLE_UNIT ( ) SI_UNIT ( $, .RADIAN. ) );
#48 = SURFACE_SIDE_STYLE ('',( #210 ) ) ;
#49 = DIMENSIONAL_EXPONENTS ( 1.000000000000000000, 0.000000000000000000, 0.000000000000000000, 0.000000000000000000, 0.000000000000000000, 0.000000000000000000, 0.000000000000000000 ) ;
#50 = FACE_OUTER_BOUND ( 'NONE', #111, .T. ) ;
#51 = CIRCLE ( 'NONE', #266, 0.06250000000000001388 ) ;
#52 = APPLICATION_CONTEXT ( 'automotive_design' ) ;
#53 = FILL_AREA_STYLE ('',( #236 ) ) ;
#54 = DIRECTION ( 'NONE',  ( 7.536287994752941486E-17, 1.000000000000000000, -0.000000000000000000 ) ) ;
#55 = DIRECTION ( 'NONE',  ( -0.000000000000000000, -1.000000000000000000, -0.000000000000000000 ) ) ;
#56 = PRESENTATION_STYLE_ASSIGNMENT (( #295 ) ) ;
#57 = FACE_OUTER_BOUND ( 'NONE', #83, .T. ) ;
#58 = ORIENTED_EDGE ( 'NONE', *, *, #274, .T. ) ;
#59 = DIRECTION ( 'NONE',  ( 7.536287994752941486E-17, 1.000000000000000000, -0.000000000000000000 ) ) ;
#60 =( LENGTH_UNIT ( ) NAMED_UNIT ( * ) SI_UNIT ( $, .METRE. ) );
#61 = CARTESIAN_POINT ( 'NONE',  ( 0.000000000000000000, 0.8750000000000000000, 0.000000000000000000 ) ) ;
#62 = DIRECTION ( 'NONE',  ( 7.536287994752941486E-17, 1.000000000000000000, -0.000000000000000000 ) ) ;
#63 = EDGE_CURVE ( 'NONE', #217, #239, #109, .T. ) ;
#64 = DIRECTION ( 'NONE',  ( 0.000000000000000000, 0.000000000000000000, 1.000000000000000000 ) ) ;
#65 = CARTESIAN_POINT ( 'NONE',  ( 0.000000000000000000, 0.000000000000000000, 0.000000000000000000 ) ) ;
#66 = PLANE ( 'NONE',  #110 ) ;
#67 = SURFACE_STYLE_USAGE ( .BOTH. , #41 ) ;
#68 = CIRCLE ( 'NONE', #216, 0.06250000000000001388 ) ;
#69 = DIRECTION ( 'NONE',  ( 7.536287994752941486E-17, 1.000000000000000000, -0.000000000000000000 ) ) ;
#70 = VERTEX_POINT ( 'NONE', #36 ) ;
#71 = PRESENTATION_STYLE_ASSIGNMENT (( #120 ) ) ;
#72 = DIRECTION ( 'NONE',  ( -1.000000000000000000, 0.000000000000000000, 0.000000000000000000 ) ) ;
#73 =( CONVERSION_BASED_UNIT ( 'INCH', #258 ) LENGTH_UNIT ( ) NAMED_UNIT ( #49 ) );
#74 = APPLICATION_CONTEXT ( 'automotive_design' ) ;
#75 = DIRECTION ( 'NONE',  ( 0.000000000000000000, 0.000000000000000000, -1.000000000000000000 ) ) ;
#76 = AXIS2_PLACEMENT_3D ( 'NONE', #281, #64, #39 ) ;
#77 = LENGTH_MEASURE_WITH_UNIT ( LENGTH_MEASURE( 0.02539999999999999897 ), #115 );
#78 = UNCERTAINTY_MEASURE_WITH_UNIT (LENGTH_MEASURE( 1.000000000000000082E-05 ), #24, 'distance_accuracy_value', 'NONE');
#79 = AXIS2_PLACEMENT_3D ( 'NONE', #65, #185, #172 ) ;
#80 = AXIS2_PLACEMENT_3D ( 'NONE', #251, #59, #14 ) ;
#81 = FILL_AREA_STYLE ('',( #40 ) ) ;
#82 = LINE ( 'NONE', #270, #237 ) ;
#83 = EDGE_LOOP ( 'NONE', ( #242, #233 ) ) ;
#84 = CIRCLE ( 'NONE', #80, 0.06250000000000001388 ) ;
#85 = EDGE_CURVE ( 'NONE', #70, #229, #82, .T. ) ;
#86 = ORIENTED_EDGE ( 'NONE', *, *, #28, .F. ) ;
#87 = PLANE ( 'NONE',  #89 ) ;
#88 = DIRECTION ( 'NONE',  ( 0.000000000000000000, 0.000000000000000000, -1.000000000000000000 ) ) ;
#89 = AXIS2_PLACEMENT_3D ( 'NONE', #277, #62, #37 ) ;
#90 = AXIS2_PLACEMENT_3D ( 'NONE', #21, #125, #207 ) ;
#91 = CARTESIAN_POINT ( 'NONE',  ( 1.224646799147353207E-16, 2.500000000000000000, 0.000000000000000000 ) ) ;
#92 =( NAMED_UNIT ( * ) SI_UNIT ( $, .STERADIAN. ) SOLID_ANGLE_UNIT ( ) );
#93 = SHAPE_DEFINITION_REPRESENTATION ( #157, #292 ) ;
#94 = FACE_OUTER_BOUND ( 'NONE', #219, .T. ) ;
#95 =( CONVERSION_BASED_UNIT ( 'INCH', #211 ) LENGTH_UNIT ( ) NAMED_UNIT ( #160 ) );
#96 = ORIENTED_EDGE ( 'NONE', *, *, #17, .T. ) ;
#97 = STYLED_ITEM ( 'NONE', ( #102 ), #38 ) ;
#98 = AXIS2_PLACEMENT_3D ( 'NONE', #91, #69, #307 ) ;
#99 = CARTESIAN_POINT ( 'NONE',  ( -0.06250000000000001388, 0.8749999999999997780, 0.000000000000000000 ) ) ;
#100 =( NAMED_UNIT ( * ) SI_UNIT ( $, .STERADIAN. ) SOLID_ANGLE_UNIT ( ) );
#101 = ORIENTED_EDGE ( 'NONE', *, *, #27, .T. ) ;
#102 = PRESENTATION_STYLE_ASSIGNMENT (( #25 ) ) ;
#103 = DIRECTION ( 'NONE',  ( 0.000000000000000000, 0.000000000000000000, -1.000000000000000000 ) ) ;
#104 = PRODUCT_DEFINITION_FORMATION_WITH_SPECIFIED_SOURCE ( 'ANY', '', #202, .NOT_KNOWN. ) ;
#105 = UNCERTAINTY_MEASURE_WITH_UNIT (LENGTH_MEASURE( 1.000000000000000082E-05 ), #153, 'distance_accuracy_value', 'NONE');
#106 = CARTESIAN_POINT ( 'NONE',  ( 0.000000000000000000, 0.8750000000000000000, 0.000000000000000000 ) ) ;
#107 = DIRECTION ( 'NONE',  ( 7.536287994752941486E-17, 1.000000000000000000, -0.000000000000000000 ) ) ;
#108 = PRODUCT_DEFINITION_CONTEXT ( 'detailed design', #74, 'design' ) ;
#109 = CIRCLE ( 'NONE', #201, 0.06249999999999986122 ) ;
#110 = AXIS2_PLACEMENT_3D ( 'NONE', #106, #43, #253 ) ;
#111 = EDGE_LOOP ( 'NONE', ( #304, #44, #271, #183 ) ) ;
#112 = LENGTH_MEASURE_WITH_UNIT ( LENGTH_MEASURE( 0.02539999999999999897 ), #263 );
#113 = DIRECTION ( 'NONE',  ( 7.536287994752941486E-17, 1.000000000000000000, -0.000000000000000000 ) ) ;
#114 =( CONVERSION_BASED_UNIT ( 'INCH', #15 ) LENGTH_UNIT ( ) NAMED_UNIT ( #203 ) );
#115 =( LENGTH_UNIT ( ) NAMED_UNIT ( * ) SI_UNIT ( $, .METRE. ) );
#116 = VERTEX_POINT ( 'NONE', #214 ) ;
#117 = DIMENSIONAL_EXPONENTS ( 1.000000000000000000, 0.000000000000000000, 0.000000000000000000, 0.000000000000000000, 0.000000000000000000, 0.000000000000000000, 0.000000000000000000 ) ;
#118 =( LENGTH_UNIT ( ) NAMED_UNIT ( * ) SI_UNIT ( $, .METRE. ) );
#119 = EDGE_LOOP ( 'NONE', ( #140, #123, #16, #86 ) ) ;
#120 = SURFACE_STYLE_USAGE ( .BOTH. , #161 ) ;
#121 = CYLINDRICAL_SURFACE ( 'NONE', #279, 0.06249999999999993755 ) ;
#122 =( NAMED_UNIT ( * ) SI_UNIT ( $, .STERADIAN. ) SOLID_ANGLE_UNIT ( ) );
#123 = ORIENTED_EDGE ( 'NONE', *, *, #169, .T. ) ;
#124 = CARTESIAN_POINT ( 'NONE',  ( 7.654042494670959086E-18, 0.8750000000000000000, 0.06250000000000001388 ) ) ;
#125 = DIRECTION ( 'NONE',  ( -0.000000000000000000, -1.000000000000000000, -0.000000000000000000 ) ) ;
#126 = UNCERTAINTY_MEASURE_WITH_UNIT (LENGTH_MEASURE( 1.000000000000000082E-05 ), #296, 'distance_accuracy_value', 'NONE');
#127 =( GEOMETRIC_REPRESENTATION_CONTEXT ( 3 ) GLOBAL_UNCERTAINTY_ASSIGNED_CONTEXT ( ( #105 ) ) GLOBAL_UNIT_ASSIGNED_CONTEXT ( ( #153, #47, #290 ) ) REPRESENTATION_CONTEXT ( 'NONE', 'WORKASPACE' ) );
#128 = PLANE ( 'NONE',  #265 ) ;
#129 = SURFACE_STYLE_FILL_AREA ( #81 ) ;
#130 = DIRECTION ( 'NONE',  ( 7.536287994752941486E-17, 1.000000000000000000, -0.000000000000000000 ) ) ;
#131 = STYLED_ITEM ( 'NONE', ( #200 ), #192 ) ;
#132 = LINE ( 'NONE', #167, #178 ) ;
#133 = FILL_AREA_STYLE_COLOUR ( '', #12 ) ;
#134 = CARTESIAN_POINT ( 'NONE',  ( -0.06249999999999981959, 2.500000000000000000, 0.000000000000000000 ) ) ;
#135 = AXIS2_PLACEMENT_3D ( 'NONE', #61, #11, #88 ) ;
#136 = COLOUR_RGB ( '',1.000000000000000000, 0.000000000000000000, 0.000000000000000000 ) ;
#137 = LENGTH_MEASURE_WITH_UNIT ( LENGTH_MEASURE( 0.02539999999999999897 ), #60 );
#138 = MECHANICAL_DESIGN_GEOMETRIC_PRESENTATION_REPRESENTATION (  '', ( #97 ), #195 ) ;
#139 = APPLICATION_PROTOCOL_DEFINITION ( 'draft international standard', 'automotive_design', 1998, #52 ) ;
#140 = ORIENTED_EDGE ( 'NONE', *, *, #27, .F. ) ;
#141 = ORIENTED_EDGE ( 'NONE', *, *, #63, .T. ) ;
#142 = CARTESIAN_POINT ( 'NONE',  ( 0.06249999999999997918, 2.500000000000000000, 0.000000000000000000 ) ) ;
#143 =( GEOMETRIC_REPRESENTATION_CONTEXT ( 3 ) GLOBAL_UNCERTAINTY_ASSIGNED_CONTEXT ( ( #126 ) ) GLOBAL_UNIT_ASSIGNED_CONTEXT ( ( #296, #259, #92 ) ) REPRESENTATION_CONTEXT ( 'NONE', 'WORKASPACE' ) );
#144 = LINE ( 'NONE', #267, #261 ) ;
#145 = SURFACE_SIDE_STYLE ('',( #278 ) ) ;
#146 = ADVANCED_FACE ( 'NONE', ( #4 ), #291, .T. ) ;
#147 = COLOUR_RGB ( '',0.7921568627450980005, 0.8196078431372548767, 0.9333333333333333481 ) ;
#148 = MECHANICAL_DESIGN_GEOMETRIC_PRESENTATION_REPRESENTATION (  '', ( #222 ), #186 ) ;
#149 = EDGE_CURVE ( 'NONE', #116, #239, #132, .T. ) ;
#150 = DIRECTION ( 'NONE',  ( -1.000000000000000000, 0.000000000000000000, 0.000000000000000000 ) ) ;
#151 = FILL_AREA_STYLE ('',( #133 ) ) ;
#152 = MECHANICAL_DESIGN_GEOMETRIC_PRESENTATION_REPRESENTATION (  '', ( #243 ), #26 ) ;
#153 =( CONVERSION_BASED_UNIT ( 'INCH', #171 ) LENGTH_UNIT ( ) NAMED_UNIT ( #188 ) );
#154 = LINE ( 'NONE', #134, #10 ) ;
#155 =( LENGTH_UNIT ( ) NAMED_UNIT ( * ) SI_UNIT ( $, .METRE. ) );
#156 = PRODUCT_CONTEXT ( 'NONE', #52, 'mechanical' ) ;
#157 = PRODUCT_DEFINITION_SHAPE ( 'NONE', 'NONE',  #244 ) ;
#158 = CARTESIAN_POINT ( 'NONE',  ( -0.06249999999999974326, 2.500000000000000000, 0.000000000000000000 ) ) ;
#159 =( NAMED_UNIT ( * ) SI_UNIT ( $, .STERADIAN. ) SOLID_ANGLE_UNIT ( ) );
#160 = DIMENSIONAL_EXPONENTS ( 1.000000000000000000, 0.000000000000000000, 0.000000000000000000, 0.000000000000000000, 0.000000000000000000, 0.000000000000000000, 0.000000000000000000 ) ;
#161 = SURFACE_SIDE_STYLE ('',( #129 ) ) ;
#162 = PRESENTATION_STYLE_ASSIGNMENT (( #67 ) ) ;
#163 = CARTESIAN_POINT ( 'NONE',  ( 0.06249999999999997918, 2.500000000000000000, 7.654042494670951382E-18 ) ) ;
#164 =( LENGTH_UNIT ( ) NAMED_UNIT ( * ) SI_UNIT ( $, .METRE. ) );
#165 = DIMENSIONAL_EXPONENTS ( 1.000000000000000000, 0.000000000000000000, 0.000000000000000000, 0.000000000000000000, 0.000000000000000000, 0.000000000000000000, 0.000000000000000000 ) ;
#166 = DIRECTION ( 'NONE',  ( 7.536287994752941486E-17, 1.000000000000000000, -0.000000000000000000 ) ) ;
#167 = CARTESIAN_POINT ( 'NONE',  ( 0.06250000000000005551, 2.500000000000000000, 7.654042494670949841E-18 ) ) ;
#168 = CIRCLE ( 'NONE', #79, 0.06250000000000001388 ) ;
#169 = EDGE_CURVE ( 'NONE', #245, #70, #215, .T. ) ;
#170 = SURFACE_STYLE_USAGE ( .BOTH. , #145 ) ;
#171 = LENGTH_MEASURE_WITH_UNIT ( LENGTH_MEASURE( 0.02539999999999999897 ), #302 );
#172 = DIRECTION ( 'NONE',  ( 0.000000000000000000, 0.000000000000000000, -1.000000000000000000 ) ) ;
#173 = ADVANCED_FACE ( 'NONE', ( #57 ), #87, .F. ) ;
#174 = MECHANICAL_DESIGN_GEOMETRIC_PRESENTATION_REPRESENTATION (  '', ( #227 ), #127 ) ;
#175 = UNCERTAINTY_MEASURE_WITH_UNIT (LENGTH_MEASURE( 1.000000000000000082E-05 ), #32, 'distance_accuracy_value', 'NONE');
#176 = EDGE_LOOP ( 'NONE', ( #141, #230 ) ) ;
#177 =( NAMED_UNIT ( * ) PLANE_ANGLE_UNIT ( ) SI_UNIT ( $, .RADIAN. ) );
#178 = VECTOR ( 'NONE', #166, 39.37007874015748143 ) ;
#179 = MECHANICAL_DESIGN_GEOMETRIC_PRESENTATION_REPRESENTATION (  '', ( #6 ), #234 ) ;
#180 = FILL_AREA_STYLE ('',( #199 ) ) ;
#181 = FILL_AREA_STYLE ('',( #308 ) ) ;
#182 = CARTESIAN_POINT ( 'NONE',  ( 7.654042494670959086E-18, 0.000000000000000000, 0.06250000000000001388 ) ) ;
#183 = ORIENTED_EDGE ( 'NONE', *, *, #224, .F. ) ;
#184 =( NAMED_UNIT ( * ) PLANE_ANGLE_UNIT ( ) SI_UNIT ( $, .RADIAN. ) );
#185 = DIRECTION ( 'NONE',  ( -0.000000000000000000, -1.000000000000000000, -0.000000000000000000 ) ) ;
#186 =( GEOMETRIC_REPRESENTATION_CONTEXT ( 3 ) GLOBAL_UNCERTAINTY_ASSIGNED_CONTEXT ( ( #78 ) ) GLOBAL_UNIT_ASSIGNED_CONTEXT ( ( #24, #184, #122 ) ) REPRESENTATION_CONTEXT ( 'NONE', 'WORKASPACE' ) );
#187 = DIRECTION ( 'NONE',  ( -0.000000000000000000, -1.000000000000000000, -0.000000000000000000 ) ) ;
#188 = DIMENSIONAL_EXPONENTS ( 1.000000000000000000, 0.000000000000000000, 0.000000000000000000, 0.000000000000000000, 0.000000000000000000, 0.000000000000000000, 0.000000000000000000 ) ;
#189 = CLOSED_SHELL ( 'NONE', ( #276, #254, #301, #38 ) ) ;
#190 = PRESENTATION_LAYER_ASSIGNMENT (  '', '', ( #222 ) ) ;
#191 = DIRECTION ( 'NONE',  ( 0.000000000000000000, 0.000000000000000000, -1.000000000000000000 ) ) ;
#192 = MANIFOLD_SOLID_BREP ( 'Revolve - Tool Body (Straight Shanked)', #212 ) ;
#193 = ORIENTED_EDGE ( 'NONE', *, *, #235, .F. ) ;
#194 = PRODUCT_RELATED_PRODUCT_CATEGORY ( 'part', '', ( #202 ) ) ;
#195 =( GEOMETRIC_REPRESENTATION_CONTEXT ( 3 ) GLOBAL_UNCERTAINTY_ASSIGNED_CONTEXT ( ( #175 ) ) GLOBAL_UNIT_ASSIGNED_CONTEXT ( ( #32, #177, #34 ) ) REPRESENTATION_CONTEXT ( 'NONE', 'WORKASPACE' ) );
#196 = PRESENTATION_LAYER_ASSIGNMENT (  '', '', ( #6 ) ) ;
#197 = ORIENTED_EDGE ( 'NONE', *, *, #264, .T. ) ;
#198 = DIRECTION ( 'NONE',  ( 0.000000000000000000, -1.000000000000000000, -0.000000000000000000 ) ) ;
#199 = FILL_AREA_STYLE_COLOUR ( '', #136 ) ;
#200 = PRESENTATION_STYLE_ASSIGNMENT (( #33 ) ) ;
#201 = AXIS2_PLACEMENT_3D ( 'NONE', #297, #107, #249 ) ;
#202 = PRODUCT ( '83522', '83522', '', ( #156 ) ) ;
#203 = DIMENSIONAL_EXPONENTS ( 1.000000000000000000, 0.000000000000000000, 0.000000000000000000, 0.000000000000000000, 0.000000000000000000, 0.000000000000000000, 0.000000000000000000 ) ;
#204 = ORIENTED_EDGE ( 'NONE', *, *, #17, .F. ) ;
#205 = COLOUR_RGB ( '',1.000000000000000000, 0.000000000000000000, 0.000000000000000000 ) ;
#206 = FACE_OUTER_BOUND ( 'NONE', #176, .T. ) ;
#207 = DIRECTION ( 'NONE',  ( 0.000000000000000000, 0.000000000000000000, -1.000000000000000000 ) ) ;
#208 = ORIENTED_EDGE ( 'NONE', *, *, #149, .F. ) ;
#209 = ADVANCED_FACE ( 'NONE', ( #50 ), #121, .T. ) ;
#210 = SURFACE_STYLE_FILL_AREA ( #53 ) ;
#211 = LENGTH_MEASURE_WITH_UNIT ( LENGTH_MEASURE( 0.02539999999999999897 ), #164 );
#212 = CLOSED_SHELL ( 'NONE', ( #209, #173, #146, #246 ) ) ;
#213 = FACE_OUTER_BOUND ( 'NONE', #287, .T. ) ;
#214 = CARTESIAN_POINT ( 'NONE',  ( 0.06250000000000001388, 0.8749999999999997780, 7.654042494670954463E-18 ) ) ;
#215 = CIRCLE ( 'NONE', #135, 0.06250000000000001388 ) ;
#216 = AXIS2_PLACEMENT_3D ( 'NONE', #228, #113, #72 ) ;
#217 = VERTEX_POINT ( 'NONE', #158 ) ;
#218 = UNCERTAINTY_MEASURE_WITH_UNIT (LENGTH_MEASURE( 1.000000000000000082E-05 ), #95, 'distance_accuracy_value', 'NONE');
#219 = EDGE_LOOP ( 'NONE', ( #58, #101, #204, #299 ) ) ;
#220 = FILL_AREA_STYLE ('',( #7 ) ) ;
#221 = COLOUR_RGB ( '',1.000000000000000000, 0.000000000000000000, 0.000000000000000000 ) ;
#222 = STYLED_ITEM ( 'NONE', ( #71 ), #254 ) ;
#223 = EDGE_CURVE ( 'NONE', #262, #116, #84, .T. ) ;
#224 = EDGE_CURVE ( 'NONE', #262, #217, #154, .T. ) ;
#225 = SURFACE_SIDE_STYLE ('',( #273 ) ) ;
#226 =( NAMED_UNIT ( * ) PLANE_ANGLE_UNIT ( ) SI_UNIT ( $, .RADIAN. ) );
#227 = STYLED_ITEM ( 'NONE', ( #162 ), #276 ) ;
#228 = CARTESIAN_POINT ( 'NONE',  ( 0.000000000000000000, 0.8749999999999997780, 0.000000000000000000 ) ) ;
#229 = VERTEX_POINT ( 'NONE', #256 ) ;
#230 = ORIENTED_EDGE ( 'NONE', *, *, #235, .T. ) ;
#231 =( NAMED_UNIT ( * ) PLANE_ANGLE_UNIT ( ) SI_UNIT ( $, .RADIAN. ) );
#232 = PRESENTATION_LAYER_ASSIGNMENT (  '', '', ( #97 ) ) ;
#233 = ORIENTED_EDGE ( 'NONE', *, *, #264, .F. ) ;
#234 =( GEOMETRIC_REPRESENTATION_CONTEXT ( 3 ) GLOBAL_UNCERTAINTY_ASSIGNED_CONTEXT ( ( #31 ) ) GLOBAL_UNIT_ASSIGNED_CONTEXT ( ( #73, #231, #100 ) ) REPRESENTATION_CONTEXT ( 'NONE', 'WORKASPACE' ) );
#235 = EDGE_CURVE ( 'NONE', #239, #217, #22, .T. ) ;
#236 = FILL_AREA_STYLE_COLOUR ( '', #221 ) ;
#237 = VECTOR ( 'NONE', #55, 39.37007874015748143 ) ;
#238 =( GEOMETRIC_REPRESENTATION_CONTEXT ( 3 ) GLOBAL_UNCERTAINTY_ASSIGNED_CONTEXT ( ( #248 ) ) GLOBAL_UNIT_ASSIGNED_CONTEXT ( ( #114, #226, #159 ) ) REPRESENTATION_CONTEXT ( 'NONE', 'WORKASPACE' ) );
#239 = VERTEX_POINT ( 'NONE', #163 ) ;
#240 = CARTESIAN_POINT ( 'NONE',  ( 0.000000000000000000, 0.000000000000000000, 0.000000000000000000 ) ) ;
#241 = CYLINDRICAL_SURFACE ( 'NONE', #90, 0.06250000000000001388 ) ;
#242 = ORIENTED_EDGE ( 'NONE', *, *, #223, .F. ) ;
#243 = STYLED_ITEM ( 'NONE', ( #56 ), #294 ) ;
#244 = PRODUCT_DEFINITION ( 'UNKNOWN', '', #104, #108 ) ;
#245 = VERTEX_POINT ( 'NONE', #124 ) ;
#246 = ADVANCED_FACE ( 'NONE', ( #206 ), #45, .F. ) ;
#247 = AXIS2_PLACEMENT_3D ( 'NONE', #255, #286, #103 ) ;
#248 = UNCERTAINTY_MEASURE_WITH_UNIT (LENGTH_MEASURE( 1.000000000000000082E-05 ), #114, 'distance_accuracy_value', 'NONE');
#249 = DIRECTION ( 'NONE',  ( -1.000000000000000000, 0.000000000000000000, 0.000000000000000000 ) ) ;
#250 = DIRECTION ( 'NONE',  ( -1.000000000000000000, 0.000000000000000000, 0.000000000000000000 ) ) ;
#251 = CARTESIAN_POINT ( 'NONE',  ( 0.000000000000000000, 0.8749999999999997780, 0.000000000000000000 ) ) ;
#252 = DIRECTION ( 'NONE',  ( -7.536287994752941486E-17, -1.000000000000000000, 0.000000000000000000 ) ) ;
#253 = DIRECTION ( 'NONE',  ( 0.000000000000000000, -0.000000000000000000, 1.000000000000000000 ) ) ;
#254 = ADVANCED_FACE ( 'NONE', ( #305 ), #66, .T. ) ;
#255 = CARTESIAN_POINT ( 'NONE',  ( 0.000000000000000000, 0.000000000000000000, 0.000000000000000000 ) ) ;
#256 = CARTESIAN_POINT ( 'NONE',  ( 0.000000000000000000, 0.000000000000000000, -0.06250000000000001388 ) ) ;
#257 = AXIS2_PLACEMENT_3D ( 'NONE', #142, #252, #19 ) ;
#258 = LENGTH_MEASURE_WITH_UNIT ( LENGTH_MEASURE( 0.02539999999999999897 ), #118 );
#259 =( NAMED_UNIT ( * ) PLANE_ANGLE_UNIT ( ) SI_UNIT ( $, .RADIAN. ) );
#260 = DIRECTION ( 'NONE',  ( 7.536287994752941486E-17, 1.000000000000000000, -0.000000000000000000 ) ) ;
#261 = VECTOR ( 'NONE', #187, 39.37007874015748143 ) ;
#262 = VERTEX_POINT ( 'NONE', #99 ) ;
#263 =( LENGTH_UNIT ( ) NAMED_UNIT ( * ) SI_UNIT ( $, .METRE. ) );
#264 = EDGE_CURVE ( 'NONE', #116, #262, #68, .T. ) ;
#265 = AXIS2_PLACEMENT_3D ( 'NONE', #8, #198, #191 ) ;
#266 = AXIS2_PLACEMENT_3D ( 'NONE', #280, #300, #282 ) ;
#267 = CARTESIAN_POINT ( 'NONE',  ( 7.654042494670959086E-18, 0.000000000000000000, 0.06250000000000001388 ) ) ;
#268 = SURFACE_SIDE_STYLE ('',( #30 ) ) ;
#269 = CARTESIAN_POINT ( 'NONE',  ( 1.224646799147353207E-16, 2.500000000000000000, 0.000000000000000000 ) ) ;
#270 = CARTESIAN_POINT ( 'NONE',  ( 0.000000000000000000, 0.000000000000000000, -0.06250000000000001388 ) ) ;
#271 = ORIENTED_EDGE ( 'NONE', *, *, #63, .F. ) ;
#272 = MECHANICAL_DESIGN_GEOMETRIC_PRESENTATION_REPRESENTATION (  '', ( #131 ), #143 ) ;
#273 = SURFACE_STYLE_FILL_AREA ( #181 ) ;
#274 = EDGE_CURVE ( 'NONE', #70, #245, #51, .T. ) ;
#275 = VERTEX_POINT ( 'NONE', #182 ) ;
#276 = ADVANCED_FACE ( 'NONE', ( #94 ), #13, .T. ) ;
#277 = CARTESIAN_POINT ( 'NONE',  ( 1.774863648120541287E-34, 0.8750000000000000000, 0.000000000000000000 ) ) ;
#278 = SURFACE_STYLE_FILL_AREA ( #220 ) ;
#279 = AXIS2_PLACEMENT_3D ( 'NONE', #309, #260, #250 ) ;
#280 = CARTESIAN_POINT ( 'NONE',  ( 0.000000000000000000, 0.8750000000000000000, 0.000000000000000000 ) ) ;
#281 = CARTESIAN_POINT ( 'NONE',  ( 0.000000000000000000, 0.000000000000000000, 0.000000000000000000 ) ) ;
#282 = DIRECTION ( 'NONE',  ( 0.000000000000000000, 0.000000000000000000, -1.000000000000000000 ) ) ;
#283 = PRESENTATION_LAYER_ASSIGNMENT (  '', '', ( #131 ) ) ;
#284 = COLOUR_RGB ( '',1.000000000000000000, 0.000000000000000000, 0.000000000000000000 ) ;
#285 = ORIENTED_EDGE ( 'NONE', *, *, #28, .T. ) ;
#286 = DIRECTION ( 'NONE',  ( -0.000000000000000000, -1.000000000000000000, -0.000000000000000000 ) ) ;
#287 = EDGE_LOOP ( 'NONE', ( #96, #285 ) ) ;
#288 = DIRECTION ( 'NONE',  ( -0.000000000000000000, -1.000000000000000000, -0.000000000000000000 ) ) ;
#289 = PRESENTATION_STYLE_ASSIGNMENT (( #170 ) ) ;
#290 =( NAMED_UNIT ( * ) SI_UNIT ( $, .STERADIAN. ) SOLID_ANGLE_UNIT ( ) );
#291 = CYLINDRICAL_SURFACE ( 'NONE', #5, 0.06249999999999993755 ) ;
#292 = ADVANCED_BREP_SHAPE_REPRESENTATION ( '83522', ( #294, #192, #76 ), #238 ) ;
#293 = ORIENTED_EDGE ( 'NONE', *, *, #169, .F. ) ;
#294 = MANIFOLD_SOLID_BREP ( 'Revolve - Cutting Edge', #189 ) ;
#295 = SURFACE_STYLE_USAGE ( .BOTH. , #268 ) ;
#296 =( CONVERSION_BASED_UNIT ( 'INCH', #137 ) LENGTH_UNIT ( ) NAMED_UNIT ( #117 ) );
#297 = CARTESIAN_POINT ( 'NONE',  ( 1.224646799147353207E-16, 2.500000000000000000, 0.000000000000000000 ) ) ;
#298 = AXIS2_PLACEMENT_3D ( 'NONE', #240, #288, #75 ) ;
#299 = ORIENTED_EDGE ( 'NONE', *, *, #85, .F. ) ;
#300 = DIRECTION ( 'NONE',  ( -0.000000000000000000, -1.000000000000000000, -0.000000000000000000 ) ) ;
#301 = ADVANCED_FACE ( 'NONE', ( #3 ), #241, .T. ) ;
#302 =( LENGTH_UNIT ( ) NAMED_UNIT ( * ) SI_UNIT ( $, .METRE. ) );
#303 = PRESENTATION_LAYER_ASSIGNMENT (  '', '', ( #227 ) ) ;
#304 = ORIENTED_EDGE ( 'NONE', *, *, #223, .T. ) ;
#305 = FACE_OUTER_BOUND ( 'NONE', #23, .T. ) ;
#306 = ORIENTED_EDGE ( 'NONE', *, *, #224, .T. ) ;
#307 = DIRECTION ( 'NONE',  ( -1.000000000000000000, 0.000000000000000000, 0.000000000000000000 ) ) ;
#308 = FILL_AREA_STYLE_COLOUR ( '', #147 ) ;
#309 = CARTESIAN_POINT ( 'NONE',  ( 1.224646799147353207E-16, 2.500000000000000000, 0.000000000000000000 ) ) ;
ENDSEC;
END-ISO-10303-21;
