ISO-10303-21;
HEADER;
FILE_DESCRIPTION (( 'STEP AP214' ),
    '1' );
FILE_NAME ('Micro_DCM-010.STEP',
    '2021-08-31T17:23:02',
    ( '' ),
    ( '' ),
    'SwSTEP 2.0',
    'SolidWorks 2020',
    '' );
FILE_SCHEMA (( 'AUTOMOTIVE_DESIGN' ));
ENDSEC;

DATA;
#1 = SURFACE_STYLE_USAGE ( .BOTH. , #238 ) ;
#2 = ORIENTED_EDGE ( 'NONE', *, *, #290, .T. ) ;
#3 = LENGTH_MEASURE_WITH_UNIT ( LENGTH_MEASURE( 0.02539999999999999897 ), #301 );
#4 = LINE ( 'NONE', #276, #378 ) ;
#5 = AXIS2_PLACEMENT_3D ( 'NONE', #321, #22, #371 ) ;
#6 = EDGE_CURVE ( 'NONE', #359, #361, #123, .T. ) ;
#7 = CYLINDRICAL_SURFACE ( 'NONE', #5, 0.01968500000000000111 ) ;
#8 = CARTESIAN_POINT ( 'NONE',  ( 4.878299124530340388E-15, 0.0000000000000000000, -37.99212574015748345 ) ) ;
#9 = DIRECTION ( 'NONE',  ( -1.000000000000000000, 0.0000000000000000000, 1.239087977630706367E-16 ) ) ;
#10 = CYLINDRICAL_SURFACE ( 'NONE', #178, 0.06200800000000002143 ) ;
#11 = DIRECTION ( 'NONE',  ( 0.8571673007021137769, 0.0000000000000000000, 0.5150380749100517130 ) ) ;
#12 = AXIS2_PLACEMENT_3D ( 'NONE', #101, #140, #137 ) ;
#13 = CARTESIAN_POINT ( 'NONE',  ( 7.807362163017330125E-18, 0.0000000000000000000, 0.06300894128555745155 ) ) ;
#14 = APPLICATION_CONTEXT ( 'automotive_design' ) ;
#15 = ORIENTED_EDGE ( 'NONE', *, *, #207, .T. ) ;
#16 = ORIENTED_EDGE ( 'NONE', *, *, #59, .T. ) ;
#17 =( LENGTH_UNIT ( ) NAMED_UNIT ( * ) SI_UNIT ( $, .METRE. ) );
#18 = EDGE_LOOP ( 'NONE', ( #255, #23, #287 ) ) ;
#19 = AXIS2_PLACEMENT_3D ( 'NONE', #394, #118, #363 ) ;
#20 = COLOUR_RGB ( '',0.7921568627450980005, 0.8196078431372548767, 0.9333333333333333481 ) ;
#21 = CONICAL_SURFACE ( 'NONE', #63, 0.01968499999999999764, 0.5235987755983017022 ) ;
#22 = DIRECTION ( 'NONE',  ( -1.239087977630706367E-16, -0.0000000000000000000, -1.000000000000000000 ) ) ;
#23 = ORIENTED_EDGE ( 'NONE', *, *, #156, .T. ) ;
#24 = VERTEX_POINT ( 'NONE', #182 ) ;
#25 = FILL_AREA_STYLE ('',( #147 ) ) ;
#26 = CARTESIAN_POINT ( 'NONE',  ( 0.01968500000000000458, 2.410717224121564627E-18, 0.06300894128555745155 ) ) ;
#27 = CIRCLE ( 'NONE', #194, 0.01968500000000000458 ) ;
#28 = VECTOR ( 'NONE', #11, 39.37007874015748143 ) ;
#29 = VERTEX_POINT ( 'NONE', #153 ) ;
#30 = EDGE_LOOP ( 'NONE', ( #112, #360, #143, #289 ) ) ;
#31 = ORIENTED_EDGE ( 'NONE', *, *, #383, .T. ) ;
#32 = EDGE_CURVE ( 'NONE', #267, #35, #175, .T. ) ;
#33 = VECTOR ( 'NONE', #340, 39.37007874015748143 ) ;
#34 = AXIS2_PLACEMENT_3D ( 'NONE', #76, #195, #319 ) ;
#35 = VERTEX_POINT ( 'NONE', #328 ) ;
#36 = CARTESIAN_POINT ( 'NONE',  ( 1.465585984705612362E-18, 0.0000000000000000000, 0.01182794128555745422 ) ) ;
#37 = FACE_OUTER_BOUND ( 'NONE', #252, .T. ) ;
#38 = DIRECTION ( 'NONE',  ( 1.239087977630706367E-16, 0.0000000000000000000, 1.000000000000000000 ) ) ;
#39 = AXIS2_PLACEMENT_3D ( 'NONE', #43, #190, #245 ) ;
#40 = DIRECTION ( 'NONE',  ( 1.000000000000000000, 0.0000000000000000000, 1.334178587669835812E-16 ) ) ;
#41 = CYLINDRICAL_SURFACE ( 'NONE', #152, 0.01968500000000000111 ) ;
#42 = ADVANCED_BREP_SHAPE_REPRESENTATION ( 'Micro_DCM-010', ( #244, #114 ), #325 ) ;
#43 = CARTESIAN_POINT ( 'NONE',  ( 7.807362163017330125E-18, 0.0000000000000000000, 1.314944058714442532 ) ) ;
#44 = PRODUCT_RELATED_PRODUCT_CATEGORY ( 'part', '', ( #108 ) ) ;
#45 = DIRECTION ( 'NONE',  ( -1.000000000000000000, 0.0000000000000000000, 0.0000000000000000000 ) ) ;
#46 = ORIENTED_EDGE ( 'NONE', *, *, #317, .F. ) ;
#47 = EDGE_CURVE ( 'NONE', #29, #229, #261, .T. ) ;
#48 = ORIENTED_EDGE ( 'NONE', *, *, #386, .F. ) ;
#49 = DIRECTION ( 'NONE',  ( -1.000000000000000000, 0.0000000000000000000, 0.0000000000000000000 ) ) ;
#50 = VERTEX_POINT ( 'NONE', #115 ) ;
#51 = CONICAL_SURFACE ( 'NONE', #205, 65.52281426576882950, 1.029744258676657198 ) ;
#52 = ADVANCED_FACE ( 'NONE', ( #88 ), #145, .T. ) ;
#53 = SURFACE_STYLE_FILL_AREA ( #25 ) ;
#54 = ORIENTED_EDGE ( 'NONE', *, *, #383, .F. ) ;
#55 = EDGE_CURVE ( 'NONE', #166, #50, #356, .T. ) ;
#56 = DIRECTION ( 'NONE',  ( 1.000000000000000000, 0.0000000000000000000, 0.0000000000000000000 ) ) ;
#57 = DIRECTION ( 'NONE',  ( 1.000000000000000000, 0.0000000000000000000, 0.0000000000000000000 ) ) ;
#58 = VERTEX_POINT ( 'NONE', #26 ) ;
#59 = EDGE_CURVE ( 'NONE', #35, #24, #343, .T. ) ;
#60 =( NAMED_UNIT ( * ) SI_UNIT ( $, .STERADIAN. ) SOLID_ANGLE_UNIT ( ) );
#61 = DIRECTION ( 'NONE',  ( 1.239087977630706367E-16, 0.0000000000000000000, -1.000000000000000000 ) ) ;
#62 = DIRECTION ( 'NONE',  ( -1.239087977630706367E-16, -0.0000000000000000000, -1.000000000000000000 ) ) ;
#63 = AXIS2_PLACEMENT_3D ( 'NONE', #231, #151, #397 ) ;
#64 = DIRECTION ( 'NONE',  ( -0.8571673007021136659, 1.049727191138620298E-16, 0.5150380749100519351 ) ) ;
#65 = DIRECTION ( 'NONE',  ( -1.239087977630706367E-16, -0.0000000000000000000, -1.000000000000000000 ) ) ;
#66 = DIRECTION ( 'NONE',  ( -1.239087977630706367E-16, -0.0000000000000000000, 1.000000000000000000 ) ) ;
#67 = CARTESIAN_POINT ( 'NONE',  ( 0.01968500000000000111, 2.410717224121564627E-18, -2.439144683966045693E-18 ) ) ;
#68 = DIRECTION ( 'NONE',  ( -1.239087977630706367E-16, -0.0000000000000000000, -1.000000000000000000 ) ) ;
#69 = LINE ( 'NONE', #160, #74 ) ;
#70 = LINE ( 'NONE', #313, #272 ) ;
#71 = FACE_OUTER_BOUND ( 'NONE', #150, .T. ) ;
#72 = FACE_OUTER_BOUND ( 'NONE', #110, .T. ) ;
#73 = ORIENTED_EDGE ( 'NONE', *, *, #149, .F. ) ;
#74 = VECTOR ( 'NONE', #66, 39.37007874015748143 ) ;
#75 = DIRECTION ( 'NONE',  ( 1.239087977630706367E-16, 0.0000000000000000000, 1.000000000000000000 ) ) ;
#76 = CARTESIAN_POINT ( 'NONE',  ( 1.689056923432813342E-17, 0.0000000000000000000, 1.241638472385705239 ) ) ;
#77 = ORIENTED_EDGE ( 'NONE', *, *, #167, .T. ) ;
#78 = LINE ( 'NONE', #161, #324 ) ;
#79 = ORIENTED_EDGE ( 'NONE', *, *, #6, .T. ) ;
#80 = ADVANCED_FACE ( 'NONE', ( #331 ), #193, .T. ) ;
#81 = COLOUR_RGB ( '',0.7921568627450980005, 0.8196078431372548767, 0.9333333333333333481 ) ;
#82 = DIRECTION ( 'NONE',  ( 0.0000000000000000000, 0.0000000000000000000, 1.000000000000000000 ) ) ;
#83 = ORIENTED_EDGE ( 'NONE', *, *, #294, .F. ) ;
#84 =( NAMED_UNIT ( * ) PLANE_ANGLE_UNIT ( ) SI_UNIT ( $, .RADIAN. ) );
#85 =( CONVERSION_BASED_UNIT ( 'INCH', #263 ) LENGTH_UNIT ( ) NAMED_UNIT ( #292 ) );
#86 = DIRECTION ( 'NONE',  ( -1.000000000000000000, 0.0000000000000000000, 0.0000000000000000000 ) ) ;
#87 = ORIENTED_EDGE ( 'NONE', *, *, #317, .T. ) ;
#88 = FACE_OUTER_BOUND ( 'NONE', #30, .T. ) ;
#89 = ORIENTED_EDGE ( 'NONE', *, *, #154, .T. ) ;
#90 = FILL_AREA_STYLE ('',( #133 ) ) ;
#91 = FACE_OUTER_BOUND ( 'NONE', #204, .T. ) ;
#92 = AXIS2_PLACEMENT_3D ( 'NONE', #206, #122, #56 ) ;
#93 = VECTOR ( 'NONE', #225, 39.37007874015748143 ) ;
#94 = DIRECTION ( 'NONE',  ( -1.000000000000000000, 0.0000000000000000000, 0.0000000000000000000 ) ) ;
#95 =( CONVERSION_BASED_UNIT ( 'INCH', #3 ) LENGTH_UNIT ( ) NAMED_UNIT ( #323 ) );
#96 = CARTESIAN_POINT ( 'NONE',  ( -0.01968499999999998723, -2.410717224121564242E-18, 1.314944058714442532 ) ) ;
#97 = CARTESIAN_POINT ( 'NONE',  ( 0.0000000000000000000, 0.0000000000000000000, 0.0000000000000000000 ) ) ;
#98 = DIRECTION ( 'NONE',  ( -1.000000000000000000, 0.0000000000000000000, 0.0000000000000000000 ) ) ;
#99 = AXIS2_PLACEMENT_3D ( 'NONE', #353, #374, #98 ) ;
#100 = LINE ( 'NONE', #373, #33 ) ;
#101 = CARTESIAN_POINT ( 'NONE',  ( 7.807362163017330125E-18, 0.0000000000000000000, 0.06300894128555745155 ) ) ;
#102 = CARTESIAN_POINT ( 'NONE',  ( 0.0000000000000000000, 0.0000000000000000000, 1.377952999999999983 ) ) ;
#103 = ORIENTED_EDGE ( 'NONE', *, *, #117, .T. ) ;
#104 = VECTOR ( 'NONE', #270, 39.37007874015748143 ) ;
#105 = ORIENTED_EDGE ( 'NONE', *, *, #306, .T. ) ;
#106 = STYLED_ITEM ( 'NONE', ( #337 ), #244 ) ;
#107 = CARTESIAN_POINT ( 'NONE',  ( 4.878299124530340388E-15, 0.0000000000000000000, 39.37007874015748143 ) ) ;
#108 = PRODUCT ( 'Micro_DCM-010', 'Micro_DCM-010', '', ( #333 ) ) ;
#109 = FACE_OUTER_BOUND ( 'NONE', #165, .T. ) ;
#110 = EDGE_LOOP ( 'NONE', ( #239, #282, #79, #382 ) ) ;
#111 = ADVANCED_FACE ( 'NONE', ( #116 ), #21, .T. ) ;
#112 = ORIENTED_EDGE ( 'NONE', *, *, #327, .F. ) ;
#113 = CONICAL_SURFACE ( 'NONE', #389, 65.52281426576882950, 1.029744258676657198 ) ;
#114 = AXIS2_PLACEMENT_3D ( 'NONE', #260, #82, #387 ) ;
#115 = CARTESIAN_POINT ( 'NONE',  ( 0.01968500000000016764, 0.0000000000000000000, 1.366125058714442231 ) ) ;
#116 = FACE_OUTER_BOUND ( 'NONE', #322, .T. ) ;
#117 = EDGE_CURVE ( 'NONE', #50, #166, #27, .T. ) ;
#118 = DIRECTION ( 'NONE',  ( -1.239087977630706367E-16, -0.0000000000000000000, -1.000000000000000000 ) ) ;
#119 = VECTOR ( 'NONE', #277, 39.37007874015748143 ) ;
#120 = CARTESIAN_POINT ( 'NONE',  ( 1.465585984705612362E-18, 0.0000000000000000000, 1.366125058714442231 ) ) ;
#121 = ADVANCED_FACE ( 'NONE', ( #37 ), #131, .T. ) ;
#122 = DIRECTION ( 'NONE',  ( 1.239087977630706367E-16, 0.0000000000000000000, 1.000000000000000000 ) ) ;
#123 = CIRCLE ( 'NONE', #348, 0.06200800000000000062 ) ;
#124 = DIRECTION ( 'NONE',  ( -1.239087977630706367E-16, -0.0000000000000000000, -1.000000000000000000 ) ) ;
#125 = CONICAL_SURFACE ( 'NONE', #300, 0.01968499999999999764, 0.5235987755983017022 ) ;
#126 = LINE ( 'NONE', #67, #339 ) ;
#127 = CARTESIAN_POINT ( 'NONE',  ( 0.0000000000000000000, 0.0000000000000000000, 1.377952999999999983 ) ) ;
#128 = EDGE_CURVE ( 'NONE', #181, #58, #367, .T. ) ;
#129 = DIRECTION ( 'NONE',  ( 1.239087977630706367E-16, 0.0000000000000000000, -1.000000000000000000 ) ) ;
#130 = LINE ( 'NONE', #132, #268 ) ;
#131 = CYLINDRICAL_SURFACE ( 'NONE', #279, 0.01968500000000000111 ) ;
#132 = CARTESIAN_POINT ( 'NONE',  ( -0.01968500000000000111, 0.0000000000000000000, 1.377952999999999983 ) ) ;
#133 = FILL_AREA_STYLE_COLOUR ( '', #20 ) ;
#134 = ADVANCED_FACE ( 'NONE', ( #91 ), #113, .T. ) ;
#135 = ORIENTED_EDGE ( 'NONE', *, *, #32, .F. ) ;
#136 = VERTEX_POINT ( 'NONE', #214 ) ;
#137 = DIRECTION ( 'NONE',  ( -1.000000000000000000, 0.0000000000000000000, 0.0000000000000000000 ) ) ;
#138 = ORIENTED_EDGE ( 'NONE', *, *, #59, .F. ) ;
#139 = CIRCLE ( 'NONE', #285, 0.01968500000000000458 ) ;
#140 = DIRECTION ( 'NONE',  ( -1.239087977630706367E-16, -0.0000000000000000000, -1.000000000000000000 ) ) ;
#141 = ORIENTED_EDGE ( 'NONE', *, *, #171, .T. ) ;
#142 = CLOSED_SHELL ( 'NONE', ( #111, #297, #197, #259, #372, #134, #222, #341, #307, #355, #52, #369, #121, #80 ) ) ;
#143 = ORIENTED_EDGE ( 'NONE', *, *, #232, .T. ) ;
#144 = CARTESIAN_POINT ( 'NONE',  ( 1.689056923432813342E-17, 0.0000000000000000000, 1.241638472385705239 ) ) ;
#145 = CONICAL_SURFACE ( 'NONE', #92, 0.01968499999999999764, 0.5235987755983017022 ) ;
#146 = CIRCLE ( 'NONE', #39, 0.01968499999999999764 ) ;
#147 = FILL_AREA_STYLE_COLOUR ( '', #81 ) ;
#148 = ORIENTED_EDGE ( 'NONE', *, *, #220, .T. ) ;
#149 = EDGE_CURVE ( 'NONE', #24, #359, #100, .T. ) ;
#150 = EDGE_LOOP ( 'NONE', ( #295, #141, #164, #73 ) ) ;
#151 = DIRECTION ( 'NONE',  ( 1.239087977630706367E-16, 0.0000000000000000000, -1.000000000000000000 ) ) ;
#152 = AXIS2_PLACEMENT_3D ( 'NONE', #243, #218, #256 ) ;
#153 = CARTESIAN_POINT ( 'NONE',  ( -0.01968499999999999764, 2.410717224121564627E-18, 0.01182794128555745596 ) ) ;
#154 = EDGE_CURVE ( 'NONE', #136, #50, #186, .T. ) ;
#155 = FACE_OUTER_BOUND ( 'NONE', #18, .T. ) ;
#156 = EDGE_CURVE ( 'NONE', #136, #166, #4, .T. ) ;
#157 = FACE_OUTER_BOUND ( 'NONE', #350, .T. ) ;
#158 = MECHANICAL_DESIGN_GEOMETRIC_PRESENTATION_REPRESENTATION (  '', ( #106 ), #240 ) ;
#159 = CARTESIAN_POINT ( 'NONE',  ( 0.0000000000000000000, 0.0000000000000000000, 0.0000000000000000000 ) ) ;
#160 = CARTESIAN_POINT ( 'NONE',  ( 0.01968500000000000111, -2.410717224121564627E-18, 1.377952999999999983 ) ) ;
#161 = CARTESIAN_POINT ( 'NONE',  ( -0.01968500000000000111, 0.0000000000000000000, 2.439144683966045693E-18 ) ) ;
#162 = CONICAL_SURFACE ( 'NONE', #249, 65.52281426576882950, 1.029744258676657198 ) ;
#163 = DIRECTION ( 'NONE',  ( 0.5000000000000025535, 0.0000000000000000000, 0.8660254037844371533 ) ) ;
#164 = ORIENTED_EDGE ( 'NONE', *, *, #6, .F. ) ;
#165 = EDGE_LOOP ( 'NONE', ( #257, #169, #148 ) ) ;
#166 = VERTEX_POINT ( 'NONE', #345 ) ;
#167 = EDGE_CURVE ( 'NONE', #58, #229, #126, .T. ) ;
#168 = LINE ( 'NONE', #185, #93 ) ;
#169 = ORIENTED_EDGE ( 'NONE', *, *, #211, .T. ) ;
#170 =( GEOMETRIC_REPRESENTATION_CONTEXT ( 3 ) GLOBAL_UNCERTAINTY_ASSIGNED_CONTEXT ( ( #241 ) ) GLOBAL_UNIT_ASSIGNED_CONTEXT ( ( #180, #392, #176 ) ) REPRESENTATION_CONTEXT ( 'NONE', 'WORKASPACE' ) );
#171 = EDGE_CURVE ( 'NONE', #35, #361, #70, .T. ) ;
#172 = SURFACE_SIDE_STYLE ('',( #53 ) ) ;
#173 = ORIENTED_EDGE ( 'NONE', *, *, #207, .F. ) ;
#174 =( LENGTH_UNIT ( ) NAMED_UNIT ( * ) SI_UNIT ( $, .METRE. ) );
#175 = LINE ( 'NONE', #265, #104 ) ;
#176 =( NAMED_UNIT ( * ) SI_UNIT ( $, .STERADIAN. ) SOLID_ANGLE_UNIT ( ) );
#177 = DIRECTION ( 'NONE',  ( -1.000000000000000000, 0.0000000000000000000, 0.0000000000000000000 ) ) ;
#178 = AXIS2_PLACEMENT_3D ( 'NONE', #127, #189, #346 ) ;
#179 = EDGE_LOOP ( 'NONE', ( #388, #2, #31, #224 ) ) ;
#180 =( CONVERSION_BASED_UNIT ( 'INCH', #203 ) LENGTH_UNIT ( ) NAMED_UNIT ( #258 ) );
#181 = VERTEX_POINT ( 'NONE', #305 ) ;
#182 = CARTESIAN_POINT ( 'NONE',  ( -0.06200799999999998674, 0.0000000000000000000, 1.241638472385705239 ) ) ;
#183 = DIRECTION ( 'NONE',  ( 1.000000000000000000, 0.0000000000000000000, 1.334178587669835812E-16 ) ) ;
#184 = CARTESIAN_POINT ( 'NONE',  ( 0.0000000000000000000, 0.0000000000000000000, 1.377952999999999983 ) ) ;
#185 = CARTESIAN_POINT ( 'NONE',  ( -0.01968499999999998723, 2.410717224121564242E-18, 0.06300894128555745155 ) ) ;
#186 = LINE ( 'NONE', #311, #188 ) ;
#187 = CARTESIAN_POINT ( 'NONE',  ( 0.06200800000000002143, 7.593789872152908283E-18, 0.1363145276142945783 ) ) ;
#188 = VECTOR ( 'NONE', #302, 39.37007874015748143 ) ;
#189 = DIRECTION ( 'NONE',  ( -0.0000000000000000000, -0.0000000000000000000, -1.000000000000000000 ) ) ;
#190 = DIRECTION ( 'NONE',  ( 1.239087977630706367E-16, 0.0000000000000000000, -1.000000000000000000 ) ) ;
#191 = PRODUCT_DEFINITION ( 'UNKNOWN', '', #396, #364 ) ;
#192 = LINE ( 'NONE', #347, #395 ) ;
#193 = CONICAL_SURFACE ( 'NONE', #362, 0.01968499999999999764, 0.5235987755983017022 ) ;
#194 = AXIS2_PLACEMENT_3D ( 'NONE', #120, #236, #365 ) ;
#195 = DIRECTION ( 'NONE',  ( 1.239087977630706367E-16, 0.0000000000000000000, -1.000000000000000000 ) ) ;
#196 = EDGE_CURVE ( 'NONE', #299, #29, #370, .T. ) ;
#197 = ADVANCED_FACE ( 'NONE', ( #155 ), #162, .T. ) ;
#198 = CARTESIAN_POINT ( 'NONE',  ( 0.0000000000000000000, 0.0000000000000000000, 0.0000000000000000000 ) ) ;
#199 = CIRCLE ( 'NONE', #34, 0.06200800000000000062 ) ;
#200 = APPLICATION_PROTOCOL_DEFINITION ( 'draft international standard', 'automotive_design', 1998, #14 ) ;
#201 = CARTESIAN_POINT ( 'NONE',  ( 1.465585984705612362E-18, 0.0000000000000000000, 1.366125058714442231 ) ) ;
#202 = EDGE_LOOP ( 'NONE', ( #226, #89, #391 ) ) ;
#203 = LENGTH_MEASURE_WITH_UNIT ( LENGTH_MEASURE( 0.02539999999999999897 ), #174 );
#204 = EDGE_LOOP ( 'NONE', ( #208, #298, #284 ) ) ;
#205 = AXIS2_PLACEMENT_3D ( 'NONE', #309, #283, #40 ) ;
#206 = CARTESIAN_POINT ( 'NONE',  ( 7.807362163017330125E-18, 0.0000000000000000000, 0.06300894128555745155 ) ) ;
#207 = EDGE_CURVE ( 'NONE', #267, #385, #146, .T. ) ;
#208 = ORIENTED_EDGE ( 'NONE', *, *, #211, .F. ) ;
#209 = DIRECTION ( 'NONE',  ( 1.000000000000000000, 0.0000000000000000000, -1.334178587669835812E-16 ) ) ;
#210 = AXIS2_PLACEMENT_3D ( 'NONE', #242, #375, #338 ) ;
#211 = EDGE_CURVE ( 'NONE', #299, #229, #278, .T. ) ;
#212 = DIRECTION ( 'NONE',  ( -0.0000000000000000000, -0.0000000000000000000, -1.000000000000000000 ) ) ;
#213 = FACE_OUTER_BOUND ( 'NONE', #202, .T. ) ;
#214 = CARTESIAN_POINT ( 'NONE',  ( 0.0000000000000000000, 0.0000000000000000000, 1.377952999999999983 ) ) ;
#215 = DIRECTION ( 'NONE',  ( 1.000000000000000000, 0.0000000000000000000, 0.0000000000000000000 ) ) ;
#216 = CIRCLE ( 'NONE', #12, 0.01968499999999999764 ) ;
#217 = DIRECTION ( 'NONE',  ( -0.8571673007021136659, -1.049727191138620298E-16, -0.5150380749100519351 ) ) ;
#218 = DIRECTION ( 'NONE',  ( -1.239087977630706367E-16, -0.0000000000000000000, 1.000000000000000000 ) ) ;
#219 = DIRECTION ( 'NONE',  ( -0.0000000000000000000, -0.0000000000000000000, -1.000000000000000000 ) ) ;
#220 = EDGE_CURVE ( 'NONE', #229, #29, #139, .T. ) ;
#221 = EDGE_LOOP ( 'NONE', ( #173, #318, #103, #320 ) ) ;
#222 = ADVANCED_FACE ( 'NONE', ( #71 ), #315, .T. ) ;
#223 = CIRCLE ( 'NONE', #99, 0.06200800000000000062 ) ;
#224 = ORIENTED_EDGE ( 'NONE', *, *, #220, .F. ) ;
#225 = DIRECTION ( 'NONE',  ( -0.5000000000000023315, 6.123233995736795618E-17, 0.8660254037844373753 ) ) ;
#226 = ORIENTED_EDGE ( 'NONE', *, *, #156, .F. ) ;
#227 = CARTESIAN_POINT ( 'NONE',  ( 0.0000000000000000000, 0.0000000000000000000, 0.0000000000000000000 ) ) ;
#228 = CIRCLE ( 'NONE', #262, 0.01968499999999999764 ) ;
#229 = VERTEX_POINT ( 'NONE', #280 ) ;
#230 = DIRECTION ( 'NONE',  ( 1.239087977630706367E-16, 0.0000000000000000000, -1.000000000000000000 ) ) ;
#231 = CARTESIAN_POINT ( 'NONE',  ( 7.807362163017330125E-18, 0.0000000000000000000, 1.314944058714442532 ) ) ;
#232 = EDGE_CURVE ( 'NONE', #58, #361, #192, .T. ) ;
#233 = EDGE_LOOP ( 'NONE', ( #46, #105, #251, #48 ) ) ;
#234 = PRESENTATION_LAYER_ASSIGNMENT (  '', '', ( #106 ) ) ;
#235 = VECTOR ( 'NONE', #64, 39.37007874015748854 ) ;
#236 = DIRECTION ( 'NONE',  ( 1.239087977630706367E-16, 0.0000000000000000000, -1.000000000000000000 ) ) ;
#237 = UNCERTAINTY_MEASURE_WITH_UNIT (LENGTH_MEASURE( 1.000000000000000082E-05 ), #85, 'distance_accuracy_value', 'NONE');
#238 = SURFACE_SIDE_STYLE ('',( #269 ) ) ;
#239 = ORIENTED_EDGE ( 'NONE', *, *, #128, .F. ) ;
#240 =( GEOMETRIC_REPRESENTATION_CONTEXT ( 3 ) GLOBAL_UNCERTAINTY_ASSIGNED_CONTEXT ( ( #303 ) ) GLOBAL_UNIT_ASSIGNED_CONTEXT ( ( #95, #84, #329 ) ) REPRESENTATION_CONTEXT ( 'NONE', 'WORKASPACE' ) );
#241 = UNCERTAINTY_MEASURE_WITH_UNIT (LENGTH_MEASURE( 1.000000000000000082E-05 ), #180, 'distance_accuracy_value', 'NONE');
#242 = CARTESIAN_POINT ( 'NONE',  ( 7.807362163017330125E-18, 0.0000000000000000000, 0.06300894128555745155 ) ) ;
#243 = CARTESIAN_POINT ( 'NONE',  ( 0.0000000000000000000, 0.0000000000000000000, 1.377952999999999983 ) ) ;
#244 = MANIFOLD_SOLID_BREP ( 'Mirror1', #142 ) ;
#245 = DIRECTION ( 'NONE',  ( -1.000000000000000000, 0.0000000000000000000, 0.0000000000000000000 ) ) ;
#246 = DIRECTION ( 'NONE',  ( -1.239087977630706367E-16, -0.0000000000000000000, 1.000000000000000000 ) ) ;
#247 = CARTESIAN_POINT ( 'NONE',  ( 4.878299124530340388E-15, 0.0000000000000000000, 39.37007874015748143 ) ) ;
#248 = DIRECTION ( 'NONE',  ( -1.239087977630706367E-16, -0.0000000000000000000, -1.000000000000000000 ) ) ;
#249 = AXIS2_PLACEMENT_3D ( 'NONE', #8, #129, #183 ) ;
#250 = PRESENTATION_LAYER_ASSIGNMENT (  '', '', ( #368 ) ) ;
#251 = ORIENTED_EDGE ( 'NONE', *, *, #32, .T. ) ;
#252 = EDGE_LOOP ( 'NONE', ( #83, #336, #334, #354 ) ) ;
#253 = AXIS2_PLACEMENT_3D ( 'NONE', #144, #230, #86 ) ;
#254 = DIRECTION ( 'NONE',  ( 1.000000000000000000, 0.0000000000000000000, -1.334178587669835812E-16 ) ) ;
#255 = ORIENTED_EDGE ( 'NONE', *, *, #154, .F. ) ;
#256 = DIRECTION ( 'NONE',  ( -1.000000000000000000, 0.0000000000000000000, 0.0000000000000000000 ) ) ;
#257 = ORIENTED_EDGE ( 'NONE', *, *, #196, .F. ) ;
#258 = DIMENSIONAL_EXPONENTS ( 1.000000000000000000, 0.0000000000000000000, 0.0000000000000000000, 0.0000000000000000000, 0.0000000000000000000, 0.0000000000000000000, 0.0000000000000000000 ) ;
#259 = ADVANCED_FACE ( 'NONE', ( #72 ), #125, .T. ) ;
#260 = CARTESIAN_POINT ( 'NONE',  ( 0.0000000000000000000, 0.0000000000000000000, 0.0000000000000000000 ) ) ;
#261 = CIRCLE ( 'NONE', #19, 0.01968500000000000458 ) ;
#262 = AXIS2_PLACEMENT_3D ( 'NONE', #304, #384, #49 ) ;
#263 = LENGTH_MEASURE_WITH_UNIT ( LENGTH_MEASURE( 0.02539999999999999897 ), #17 );
#264 = ORIENTED_EDGE ( 'NONE', *, *, #128, .T. ) ;
#265 = CARTESIAN_POINT ( 'NONE',  ( 0.01968500000000000458, 0.0000000000000000000, 1.314944058714442532 ) ) ;
#266 = CARTESIAN_POINT ( 'NONE',  ( 1.689056923432813342E-17, 0.0000000000000000000, 0.1363145276142945783 ) ) ;
#267 = VERTEX_POINT ( 'NONE', #344 ) ;
#268 = VECTOR ( 'NONE', #246, 39.37007874015748143 ) ;
#269 = SURFACE_STYLE_FILL_AREA ( #90 ) ;
#270 = DIRECTION ( 'NONE',  ( 0.5000000000000025535, 0.0000000000000000000, -0.8660254037844371533 ) ) ;
#271 = DIRECTION ( 'NONE',  ( 1.239087977630706367E-16, 0.0000000000000000000, 1.000000000000000000 ) ) ;
#272 = VECTOR ( 'NONE', #212, 39.37007874015748143 ) ;
#273 = FACE_OUTER_BOUND ( 'NONE', #179, .T. ) ;
#274 = DIRECTION ( 'NONE',  ( -1.239087977630706367E-16, -0.0000000000000000000, 1.000000000000000000 ) ) ;
#275 = LINE ( 'NONE', #96, #119 ) ;
#276 = CARTESIAN_POINT ( 'NONE',  ( 0.0000000000000000000, 0.0000000000000000000, 1.377952999999999983 ) ) ;
#277 = DIRECTION ( 'NONE',  ( -0.5000000000000023315, -6.123233995736795618E-17, -0.8660254037844373753 ) ) ;
#278 = LINE ( 'NONE', #97, #28 ) ;
#279 = AXIS2_PLACEMENT_3D ( 'NONE', #184, #274, #94 ) ;
#280 = CARTESIAN_POINT ( 'NONE',  ( 0.01968500000000000458, 0.0000000000000000000, 0.01182794128555744902 ) ) ;
#281 = ORIENTED_EDGE ( 'NONE', *, *, #171, .F. ) ;
#282 = ORIENTED_EDGE ( 'NONE', *, *, #327, .T. ) ;
#283 = DIRECTION ( 'NONE',  ( 1.239087977630706367E-16, 0.0000000000000000000, -1.000000000000000000 ) ) ;
#284 = ORIENTED_EDGE ( 'NONE', *, *, #47, .T. ) ;
#285 = AXIS2_PLACEMENT_3D ( 'NONE', #36, #124, #377 ) ;
#286 = FACE_OUTER_BOUND ( 'NONE', #221, .T. ) ;
#287 = ORIENTED_EDGE ( 'NONE', *, *, #117, .F. ) ;
#288 = APPLICATION_PROTOCOL_DEFINITION ( 'draft international standard', 'automotive_design', 1998, #349 ) ;
#289 = ORIENTED_EDGE ( 'NONE', *, *, #380, .T. ) ;
#290 = EDGE_CURVE ( 'NONE', #58, #181, #216, .T. ) ;
#291 = DIRECTION ( 'NONE',  ( -1.000000000000000000, 0.0000000000000000000, 0.0000000000000000000 ) ) ;
#292 = DIMENSIONAL_EXPONENTS ( 1.000000000000000000, 0.0000000000000000000, 0.0000000000000000000, 0.0000000000000000000, 0.0000000000000000000, 0.0000000000000000000, 0.0000000000000000000 ) ;
#293 = AXIS2_PLACEMENT_3D ( 'NONE', #102, #219, #45 ) ;
#294 = EDGE_CURVE ( 'NONE', #267, #50, #69, .T. ) ;
#295 = ORIENTED_EDGE ( 'NONE', *, *, #386, .T. ) ;
#296 = EDGE_LOOP ( 'NONE', ( #264, #77, #335, #54 ) ) ;
#297 = ADVANCED_FACE ( 'NONE', ( #286 ), #41, .T. ) ;
#298 = ORIENTED_EDGE ( 'NONE', *, *, #196, .T. ) ;
#299 = VERTEX_POINT ( 'NONE', #227 ) ;
#300 = AXIS2_PLACEMENT_3D ( 'NONE', #13, #75, #215 ) ;
#301 =( LENGTH_UNIT ( ) NAMED_UNIT ( * ) SI_UNIT ( $, .METRE. ) );
#302 = DIRECTION ( 'NONE',  ( 0.8571673007021137769, 0.0000000000000000000, -0.5150380749100517130 ) ) ;
#303 = UNCERTAINTY_MEASURE_WITH_UNIT (LENGTH_MEASURE( 1.000000000000000082E-05 ), #95, 'distance_accuracy_value', 'NONE');
#304 = CARTESIAN_POINT ( 'NONE',  ( 7.807362163017330125E-18, 0.0000000000000000000, 1.314944058714442532 ) ) ;
#305 = CARTESIAN_POINT ( 'NONE',  ( -0.01968499999999998723, 0.0000000000000000000, 0.06300894128555745155 ) ) ;
#306 = EDGE_CURVE ( 'NONE', #385, #267, #228, .T. ) ;
#307 = ADVANCED_FACE ( 'NONE', ( #109 ), #357, .T. ) ;
#308 = AXIS2_PLACEMENT_3D ( 'NONE', #198, #68, #9 ) ;
#309 = CARTESIAN_POINT ( 'NONE',  ( 4.878299124530340388E-15, 0.0000000000000000000, -37.99212574015748345 ) ) ;
#310 = MECHANICAL_DESIGN_GEOMETRIC_PRESENTATION_REPRESENTATION (  '', ( #368 ), #170 ) ;
#311 = CARTESIAN_POINT ( 'NONE',  ( 0.0000000000000000000, 0.0000000000000000000, 1.377952999999999983 ) ) ;
#312 = CARTESIAN_POINT ( 'NONE',  ( -0.06200799999999998674, 0.0000000000000000000, 0.1363145276142945783 ) ) ;
#313 = CARTESIAN_POINT ( 'NONE',  ( 0.06200800000000002143, 7.593789872152908283E-18, 1.377952999999999983 ) ) ;
#314 = PRODUCT_DEFINITION_SHAPE ( 'NONE', 'NONE',  #191 ) ;
#315 = CYLINDRICAL_SURFACE ( 'NONE', #293, 0.06200800000000002143 ) ;
#316 = ORIENTED_EDGE ( 'NONE', *, *, #380, .F. ) ;
#317 = EDGE_CURVE ( 'NONE', #385, #24, #275, .T. ) ;
#318 = ORIENTED_EDGE ( 'NONE', *, *, #294, .T. ) ;
#319 = DIRECTION ( 'NONE',  ( -1.000000000000000000, 0.0000000000000000000, 0.0000000000000000000 ) ) ;
#320 = ORIENTED_EDGE ( 'NONE', *, *, #379, .F. ) ;
#321 = CARTESIAN_POINT ( 'NONE',  ( 0.0000000000000000000, 0.0000000000000000000, 0.0000000000000000000 ) ) ;
#322 = EDGE_LOOP ( 'NONE', ( #15, #87, #138, #135 ) ) ;
#323 = DIMENSIONAL_EXPONENTS ( 1.000000000000000000, 0.0000000000000000000, 0.0000000000000000000, 0.0000000000000000000, 0.0000000000000000000, 0.0000000000000000000, 0.0000000000000000000 ) ;
#324 = VECTOR ( 'NONE', #248, 39.37007874015748143 ) ;
#325 =( GEOMETRIC_REPRESENTATION_CONTEXT ( 3 ) GLOBAL_UNCERTAINTY_ASSIGNED_CONTEXT ( ( #237 ) ) GLOBAL_UNIT_ASSIGNED_CONTEXT ( ( #85, #326, #60 ) ) REPRESENTATION_CONTEXT ( 'NONE', 'WORKASPACE' ) );
#326 =( NAMED_UNIT ( * ) PLANE_ANGLE_UNIT ( ) SI_UNIT ( $, .RADIAN. ) );
#327 = EDGE_CURVE ( 'NONE', #181, #359, #168, .T. ) ;
#328 = CARTESIAN_POINT ( 'NONE',  ( 0.06200800000000002143, 7.593789872152908283E-18, 1.241638472385705239 ) ) ;
#329 =( NAMED_UNIT ( * ) SI_UNIT ( $, .STERADIAN. ) SOLID_ANGLE_UNIT ( ) );
#330 = PRESENTATION_STYLE_ASSIGNMENT (( #390 ) ) ;
#331 = FACE_OUTER_BOUND ( 'NONE', #233, .T. ) ;
#332 = AXIS2_PLACEMENT_3D ( 'NONE', #201, #366, #291 ) ;
#333 = PRODUCT_CONTEXT ( 'NONE', #349, 'mechanical' ) ;
#334 = ORIENTED_EDGE ( 'NONE', *, *, #379, .T. ) ;
#335 = ORIENTED_EDGE ( 'NONE', *, *, #47, .F. ) ;
#336 = ORIENTED_EDGE ( 'NONE', *, *, #306, .F. ) ;
#337 = PRESENTATION_STYLE_ASSIGNMENT (( #1 ) ) ;
#338 = DIRECTION ( 'NONE',  ( -1.000000000000000000, 0.0000000000000000000, 0.0000000000000000000 ) ) ;
#339 = VECTOR ( 'NONE', #65, 39.37007874015748143 ) ;
#340 = DIRECTION ( 'NONE',  ( -0.0000000000000000000, -0.0000000000000000000, -1.000000000000000000 ) ) ;
#341 = ADVANCED_FACE ( 'NONE', ( #157 ), #10, .T. ) ;
#342 = FACE_OUTER_BOUND ( 'NONE', #296, .T. ) ;
#343 = CIRCLE ( 'NONE', #253, 0.06200800000000000062 ) ;
#344 = CARTESIAN_POINT ( 'NONE',  ( 0.01968500000000000458, -2.410717224121564627E-18, 1.314944058714442532 ) ) ;
#345 = CARTESIAN_POINT ( 'NONE',  ( -0.01968500000000016417, -2.410717224121585042E-18, 1.366125058714442231 ) ) ;
#346 = DIRECTION ( 'NONE',  ( -1.000000000000000000, 0.0000000000000000000, 0.0000000000000000000 ) ) ;
#347 = CARTESIAN_POINT ( 'NONE',  ( 0.01968500000000000458, 0.0000000000000000000, 0.06300894128555745155 ) ) ;
#348 = AXIS2_PLACEMENT_3D ( 'NONE', #266, #62, #177 ) ;
#349 = APPLICATION_CONTEXT ( 'automotive_design' ) ;
#350 = EDGE_LOOP ( 'NONE', ( #281, #16, #352, #316 ) ) ;
#351 = AXIS2_PLACEMENT_3D ( 'NONE', #107, #38, #254 ) ;
#352 = ORIENTED_EDGE ( 'NONE', *, *, #149, .T. ) ;
#353 = CARTESIAN_POINT ( 'NONE',  ( 1.689056923432813342E-17, 0.0000000000000000000, 0.1363145276142945783 ) ) ;
#354 = ORIENTED_EDGE ( 'NONE', *, *, #55, .T. ) ;
#355 = ADVANCED_FACE ( 'NONE', ( #273 ), #7, .T. ) ;
#356 = CIRCLE ( 'NONE', #332, 0.01968500000000000458 ) ;
#357 = CONICAL_SURFACE ( 'NONE', #351, 65.52281426576882950, 1.029744258676657198 ) ;
#358 = SHAPE_DEFINITION_REPRESENTATION ( #314, #42 ) ;
#359 = VERTEX_POINT ( 'NONE', #312 ) ;
#360 = ORIENTED_EDGE ( 'NONE', *, *, #290, .F. ) ;
#361 = VERTEX_POINT ( 'NONE', #187 ) ;
#362 = AXIS2_PLACEMENT_3D ( 'NONE', #393, #61, #57 ) ;
#363 = DIRECTION ( 'NONE',  ( -1.000000000000000000, 0.0000000000000000000, 1.084204340894185993E-16 ) ) ;
#364 = PRODUCT_DEFINITION_CONTEXT ( 'detailed design', #14, 'design' ) ;
#365 = DIRECTION ( 'NONE',  ( -1.000000000000000000, 0.0000000000000000000, 0.0000000000000000000 ) ) ;
#366 = DIRECTION ( 'NONE',  ( 1.239087977630706367E-16, 0.0000000000000000000, -1.000000000000000000 ) ) ;
#367 = CIRCLE ( 'NONE', #210, 0.01968499999999999764 ) ;
#368 = STYLED_ITEM ( 'NONE', ( #330 ), #42 ) ;
#369 = ADVANCED_FACE ( 'NONE', ( #213 ), #51, .T. ) ;
#370 = LINE ( 'NONE', #159, #235 ) ;
#371 = DIRECTION ( 'NONE',  ( -1.000000000000000000, 0.0000000000000000000, 1.239087977630706367E-16 ) ) ;
#372 = ADVANCED_FACE ( 'NONE', ( #342 ), #381, .T. ) ;
#373 = CARTESIAN_POINT ( 'NONE',  ( -0.06200800000000002143, 0.0000000000000000000, 1.377952999999999983 ) ) ;
#374 = DIRECTION ( 'NONE',  ( -1.239087977630706367E-16, -0.0000000000000000000, -1.000000000000000000 ) ) ;
#375 = DIRECTION ( 'NONE',  ( -1.239087977630706367E-16, -0.0000000000000000000, -1.000000000000000000 ) ) ;
#376 = CARTESIAN_POINT ( 'NONE',  ( -0.01968499999999998723, 0.0000000000000000000, 1.314944058714442532 ) ) ;
#377 = DIRECTION ( 'NONE',  ( -1.000000000000000000, 0.0000000000000000000, 1.084204340894185993E-16 ) ) ;
#378 = VECTOR ( 'NONE', #217, 39.37007874015748854 ) ;
#379 = EDGE_CURVE ( 'NONE', #385, #166, #130, .T. ) ;
#380 = EDGE_CURVE ( 'NONE', #361, #359, #223, .T. ) ;
#381 = CYLINDRICAL_SURFACE ( 'NONE', #308, 0.01968500000000000111 ) ;
#382 = ORIENTED_EDGE ( 'NONE', *, *, #232, .F. ) ;
#383 = EDGE_CURVE ( 'NONE', #181, #29, #78, .T. ) ;
#384 = DIRECTION ( 'NONE',  ( 1.239087977630706367E-16, 0.0000000000000000000, -1.000000000000000000 ) ) ;
#385 = VERTEX_POINT ( 'NONE', #376 ) ;
#386 = EDGE_CURVE ( 'NONE', #24, #35, #199, .T. ) ;
#387 = DIRECTION ( 'NONE',  ( 1.000000000000000000, 0.0000000000000000000, 0.0000000000000000000 ) ) ;
#388 = ORIENTED_EDGE ( 'NONE', *, *, #167, .F. ) ;
#389 = AXIS2_PLACEMENT_3D ( 'NONE', #247, #271, #209 ) ;
#390 = SURFACE_STYLE_USAGE ( .BOTH. , #172 ) ;
#391 = ORIENTED_EDGE ( 'NONE', *, *, #55, .F. ) ;
#392 =( NAMED_UNIT ( * ) PLANE_ANGLE_UNIT ( ) SI_UNIT ( $, .RADIAN. ) );
#393 = CARTESIAN_POINT ( 'NONE',  ( 7.807362163017330125E-18, 0.0000000000000000000, 1.314944058714442532 ) ) ;
#394 = CARTESIAN_POINT ( 'NONE',  ( 1.465585984705612362E-18, 0.0000000000000000000, 0.01182794128555745422 ) ) ;
#395 = VECTOR ( 'NONE', #163, 39.37007874015748143 ) ;
#396 = PRODUCT_DEFINITION_FORMATION_WITH_SPECIFIED_SOURCE ( 'ANY', '', #108, .NOT_KNOWN. ) ;
#397 = DIRECTION ( 'NONE',  ( 1.000000000000000000, 0.0000000000000000000, 0.0000000000000000000 ) ) ;
ENDSEC;
END-ISO-10303-21;
