ISO-10303-21;
HEADER;
FILE_DESCRIPTION (( 'STEP AP214' ),
    '1' );
FILE_NAME ('59748.STEP',
    '2023-07-24T15:33:05',
    ( '' ),
    ( '' ),
    'SwSTEP 2.0',
    'SolidWorks 2023',
    '' );
FILE_SCHEMA (( 'AUTOMOTIVE_DESIGN' ));
ENDSEC;

DATA;
#1 = CIRCLE ( 'NONE', #152, 6.000000000000000000 ) ;
#2 = SURFACE_STYLE_FILL_AREA ( #223 ) ;
#3 = DIRECTION ( 'NONE',  ( -1.000000000000000000, 0.000000000000000000, 0.000000000000000000 ) ) ;
#4 = DIRECTION ( 'NONE',  ( -1.223542297630008506E-16, 1.000000000000000000, -0.000000000000000000 ) ) ;
#5 = DIRECTION ( 'NONE',  ( 0.000000000000000000, 0.000000000000000000, -1.000000000000000000 ) ) ;
#6 = CIRCLE ( 'NONE', #177, 5.000000000000000000 ) ;
#7 =( GEOMETRIC_REPRESENTATION_CONTEXT ( 3 ) GLOBAL_UNCERTAINTY_ASSIGNED_CONTEXT ( ( #302 ) ) GLOBAL_UNIT_ASSIGNED_CONTEXT ( ( #66, #97, #94 ) ) REPRESENTATION_CONTEXT ( 'NONE', 'WORKASPACE' ) );
#8 = CARTESIAN_POINT ( 'NONE',  ( 6.000000000000000000, 75.00000000000000000, 0.000000000000000000 ) ) ;
#9 = AXIS2_PLACEMENT_3D ( 'NONE', #323, #206, #5 ) ;
#10 = ORIENTED_EDGE ( 'NONE', *, *, #213, .F. ) ;
#11 = SURFACE_STYLE_FILL_AREA ( #232 ) ;
#12 = VERTEX_POINT ( 'NONE', #181 ) ;
#13 = SURFACE_STYLE_USAGE ( .BOTH. , #270 ) ;
#14 = ORIENTED_EDGE ( 'NONE', *, *, #188, .T. ) ;
#15 = EDGE_LOOP ( 'NONE', ( #98, #320, #271, #118 ) ) ;
#16 =( GEOMETRIC_REPRESENTATION_CONTEXT ( 3 ) GLOBAL_UNCERTAINTY_ASSIGNED_CONTEXT ( ( #186 ) ) GLOBAL_UNIT_ASSIGNED_CONTEXT ( ( #207, #224, #331 ) ) REPRESENTATION_CONTEXT ( 'NONE', 'WORKASPACE' ) );
#17 = ORIENTED_EDGE ( 'NONE', *, *, #314, .F. ) ;
#18 = SURFACE_STYLE_USAGE ( .BOTH. , #362 ) ;
#19 = ADVANCED_FACE ( 'NONE', ( #292 ), #121, .T. ) ;
#20 =( NAMED_UNIT ( * ) SI_UNIT ( $, .STERADIAN. ) SOLID_ANGLE_UNIT ( ) );
#21 = CIRCLE ( 'NONE', #148, 5.999999999999996447 ) ;
#22 = STYLED_ITEM ( 'NONE', ( #316 ), #368 ) ;
#23 = FILL_AREA_STYLE ('',( #84 ) ) ;
#24 = DIRECTION ( 'NONE',  ( -1.000000000000000000, 0.000000000000000000, 0.000000000000000000 ) ) ;
#25 = FACE_OUTER_BOUND ( 'NONE', #326, .T. ) ;
#26 = EDGE_CURVE ( 'NONE', #214, #158, #110, .T. ) ;
#27 = DIRECTION ( 'NONE',  ( -1.223542297630008506E-16, 1.000000000000000000, -0.000000000000000000 ) ) ;
#28 = UNCERTAINTY_MEASURE_WITH_UNIT (LENGTH_MEASURE( 1.000000000000000082E-05 ), #141, 'distance_accuracy_value', 'NONE');
#29 = CIRCLE ( 'NONE', #54, 6.000000000000000000 ) ;
#30 = DIRECTION ( 'NONE',  ( -1.223542297630008506E-16, 1.000000000000000000, -0.000000000000000000 ) ) ;
#31 = CARTESIAN_POINT ( 'NONE',  ( 0.000000000000000000, 1.000000000000000000, 0.000000000000000000 ) ) ;
#32 = CIRCLE ( 'NONE', #125, 1.000000000000000000 ) ;
#33 = PRODUCT_DEFINITION_FORMATION_WITH_SPECIFIED_SOURCE ( 'ANY', '', #349, .NOT_KNOWN. ) ;
#34 = DIRECTION ( 'NONE',  ( 0.000000000000000000, 0.000000000000000000, -1.000000000000000000 ) ) ;
#35 = CARTESIAN_POINT ( 'NONE',  ( 0.000000000000000000, 1.000000000000000000, 0.000000000000000000 ) ) ;
#36 = ADVANCED_FACE ( 'NONE', ( #369 ), #339, .T. ) ;
#37 = CIRCLE ( 'NONE', #355, 5.000000000000000000 ) ;
#38 = CARTESIAN_POINT ( 'NONE',  ( 0.000000000000000000, 0.000000000000000000, 0.000000000000000000 ) ) ;
#39 = PRODUCT_DEFINITION_CONTEXT ( 'detailed design', #200, 'design' ) ;
#40 = ORIENTED_EDGE ( 'NONE', *, *, #262, .F. ) ;
#41 = CARTESIAN_POINT ( 'NONE',  ( -6.000000000000000000, 75.00000000000000000, 0.000000000000000000 ) ) ;
#42 = VERTEX_POINT ( 'NONE', #201 ) ;
#43 = EDGE_CURVE ( 'NONE', #269, #12, #333, .T. ) ;
#44 =( NAMED_UNIT ( * ) PLANE_ANGLE_UNIT ( ) SI_UNIT ( $, .RADIAN. ) );
#45 = FILL_AREA_STYLE_COLOUR ( '', #235 ) ;
#46 = APPLICATION_CONTEXT ( 'automotive_design' ) ;
#47 = DIRECTION ( 'NONE',  ( 0.000000000000000000, 0.000000000000000000, -1.000000000000000000 ) ) ;
#48 = CARTESIAN_POINT ( 'NONE',  ( 6.735557395310443009E-16, 0.000000000000000000, 5.000000000000000000 ) ) ;
#49 = STYLED_ITEM ( 'NONE', ( #72 ), #195 ) ;
#50 = AXIS2_PLACEMENT_3D ( 'NONE', #133, #285, #3 ) ;
#51 = SURFACE_STYLE_USAGE ( .BOTH. , #108 ) ;
#52 = CARTESIAN_POINT ( 'NONE',  ( 0.000000000000000000, 1.000000000000000000, 0.000000000000000000 ) ) ;
#53 = PRESENTATION_STYLE_ASSIGNMENT (( #18 ) ) ;
#54 = AXIS2_PLACEMENT_3D ( 'NONE', #31, #145, #348 ) ;
#55 = ADVANCED_FACE ( 'NONE', ( #281 ), #146, .T. ) ;
#56 = CARTESIAN_POINT ( 'NONE',  ( 0.000000000000000000, 0.000000000000000000, -5.000000000000000000 ) ) ;
#57 = DIRECTION ( 'NONE',  ( -1.000000000000000000, -1.223542297630008506E-16, 0.000000000000000000 ) ) ;
#58 = VECTOR ( 'NONE', #332, 1000.000000000000000 ) ;
#59 = PLANE ( 'NONE',  #106 ) ;
#60 = ADVANCED_FACE ( 'NONE', ( #163 ), #279, .T. ) ;
#61 = ORIENTED_EDGE ( 'NONE', *, *, #122, .F. ) ;
#62 = SURFACE_SIDE_STYLE ('',( #11 ) ) ;
#63 = COLOUR_RGB ( '',1.000000000000000000, 0.000000000000000000, 0.000000000000000000 ) ;
#64 = PRESENTATION_LAYER_ASSIGNMENT (  '', '', ( #159 ) ) ;
#65 = ORIENTED_EDGE ( 'NONE', *, *, #275, .T. ) ;
#66 =( LENGTH_UNIT ( ) NAMED_UNIT ( * ) SI_UNIT ( .MILLI., .METRE. ) );
#67 = MECHANICAL_DESIGN_GEOMETRIC_PRESENTATION_REPRESENTATION (  '', ( #211 ), #337 ) ;
#68 = ORIENTED_EDGE ( 'NONE', *, *, #327, .F. ) ;
#69 = UNCERTAINTY_MEASURE_WITH_UNIT (LENGTH_MEASURE( 1.000000000000000082E-05 ), #180, 'distance_accuracy_value', 'NONE');
#70 = VERTEX_POINT ( 'NONE', #144 ) ;
#71 = ORIENTED_EDGE ( 'NONE', *, *, #150, .F. ) ;
#72 = PRESENTATION_STYLE_ASSIGNMENT (( #357 ) ) ;
#73 = CIRCLE ( 'NONE', #128, 6.000000000000001776 ) ;
#74 = UNCERTAINTY_MEASURE_WITH_UNIT (LENGTH_MEASURE( 1.000000000000000082E-05 ), #203, 'distance_accuracy_value', 'NONE');
#75 = DIRECTION ( 'NONE',  ( -0.000000000000000000, -1.000000000000000000, -0.000000000000000000 ) ) ;
#76 = UNCERTAINTY_MEASURE_WITH_UNIT (LENGTH_MEASURE( 1.000000000000000082E-05 ), #162, 'distance_accuracy_value', 'NONE');
#77 = EDGE_CURVE ( 'NONE', #350, #245, #37, .T. ) ;
#78 =( NAMED_UNIT ( * ) SI_UNIT ( $, .STERADIAN. ) SOLID_ANGLE_UNIT ( ) );
#79 = COLOUR_RGB ( '',1.000000000000000000, 0.000000000000000000, 0.000000000000000000 ) ;
#80 =( GEOMETRIC_REPRESENTATION_CONTEXT ( 3 ) GLOBAL_UNCERTAINTY_ASSIGNED_CONTEXT ( ( #69 ) ) GLOBAL_UNIT_ASSIGNED_CONTEXT ( ( #180, #267, #346 ) ) REPRESENTATION_CONTEXT ( 'NONE', 'WORKASPACE' ) );
#81 =( GEOMETRIC_REPRESENTATION_CONTEXT ( 3 ) GLOBAL_UNCERTAINTY_ASSIGNED_CONTEXT ( ( #28 ) ) GLOBAL_UNIT_ASSIGNED_CONTEXT ( ( #141, #174, #149 ) ) REPRESENTATION_CONTEXT ( 'NONE', 'WORKASPACE' ) );
#82 = CARTESIAN_POINT ( 'NONE',  ( 0.000000000000000000, 24.00000000000000000, 0.000000000000000000 ) ) ;
#83 = CARTESIAN_POINT ( 'NONE',  ( 5.999999999999996447, 75.00000000000000000, 7.347880794884117764E-16 ) ) ;
#84 = FILL_AREA_STYLE_COLOUR ( '', #79 ) ;
#85 = SURFACE_SIDE_STYLE ('',( #167 ) ) ;
#86 = EDGE_CURVE ( 'NONE', #154, #274, #21, .T. ) ;
#87 =( LENGTH_UNIT ( ) NAMED_UNIT ( * ) SI_UNIT ( .MILLI., .METRE. ) );
#88 = PLANE ( 'NONE',  #251 ) ;
#89 = DIRECTION ( 'NONE',  ( 1.223542297630008506E-16, -1.000000000000000000, 0.000000000000000000 ) ) ;
#90 = EDGE_LOOP ( 'NONE', ( #352, #71 ) ) ;
#91 = FILL_AREA_STYLE ('',( #238 ) ) ;
#92 = ADVANCED_FACE ( 'NONE', ( #130 ), #330, .T. ) ;
#93 = ORIENTED_EDGE ( 'NONE', *, *, #188, .F. ) ;
#94 =( NAMED_UNIT ( * ) SI_UNIT ( $, .STERADIAN. ) SOLID_ANGLE_UNIT ( ) );
#95 = PRESENTATION_LAYER_ASSIGNMENT (  '', '', ( #104 ) ) ;
#96 = ORIENTED_EDGE ( 'NONE', *, *, #327, .T. ) ;
#97 =( NAMED_UNIT ( * ) PLANE_ANGLE_UNIT ( ) SI_UNIT ( $, .RADIAN. ) );
#98 = ORIENTED_EDGE ( 'NONE', *, *, #275, .F. ) ;
#99 = CYLINDRICAL_SURFACE ( 'NONE', #217, 6.000000000000000000 ) ;
#100 = ORIENTED_EDGE ( 'NONE', *, *, #314, .T. ) ;
#101 = LINE ( 'NONE', #41, #58 ) ;
#102 = PRESENTATION_STYLE_ASSIGNMENT (( #248 ) ) ;
#103 = FILL_AREA_STYLE_COLOUR ( '', #63 ) ;
#104 = STYLED_ITEM ( 'NONE', ( #138 ), #55 ) ;
#105 = SHAPE_DEFINITION_REPRESENTATION ( #120, #147 ) ;
#106 = AXIS2_PLACEMENT_3D ( 'NONE', #8, #89, #354 ) ;
#107 = FILL_AREA_STYLE_COLOUR ( '', #278 ) ;
#108 = SURFACE_SIDE_STYLE ('',( #366 ) ) ;
#109 = DIRECTION ( 'NONE',  ( -0.000000000000000000, -1.000000000000000000, -0.000000000000000000 ) ) ;
#110 = LINE ( 'NONE', #112, #190 ) ;
#111 = DIRECTION ( 'NONE',  ( -0.000000000000000000, -1.000000000000000000, -0.000000000000000000 ) ) ;
#112 = CARTESIAN_POINT ( 'NONE',  ( 0.000000000000000000, 0.000000000000000000, -6.000000000000000000 ) ) ;
#113 = FILL_AREA_STYLE_COLOUR ( '', #284 ) ;
#114 = DIRECTION ( 'NONE',  ( -1.000000000000000000, 0.000000000000000000, 0.000000000000000000 ) ) ;
#115 = TOROIDAL_SURFACE ( 'NONE', #347, 5.000000000000000000, 0.9999999999999995559 ) ;
#116 = CARTESIAN_POINT ( 'NONE',  ( 6.000000000000000000, 24.00000000000000000, 7.347880794884120722E-16 ) ) ;
#117 = MANIFOLD_SOLID_BREP ( 'Revolve - Cutting Edge', #216 ) ;
#118 = ORIENTED_EDGE ( 'NONE', *, *, #77, .F. ) ;
#119 = ADVANCED_FACE ( 'NONE', ( #208 ), #88, .F. ) ;
#120 = PRODUCT_DEFINITION_SHAPE ( 'NONE', 'NONE',  #237 ) ;
#121 = CYLINDRICAL_SURFACE ( 'NONE', #151, 5.999999999999998224 ) ;
#122 = EDGE_CURVE ( 'NONE', #12, #158, #312, .T. ) ;
#123 = ORIENTED_EDGE ( 'NONE', *, *, #262, .T. ) ;
#124 = PRESENTATION_LAYER_ASSIGNMENT (  '', '', ( #287 ) ) ;
#125 = AXIS2_PLACEMENT_3D ( 'NONE', #260, #367, #171 ) ;
#126 = MECHANICAL_DESIGN_GEOMETRIC_PRESENTATION_REPRESENTATION (  '', ( #22 ), #16 ) ;
#127 = EDGE_LOOP ( 'NONE', ( #218, #65, #10, #242 ) ) ;
#128 = AXIS2_PLACEMENT_3D ( 'NONE', #231, #27, #164 ) ;
#129 = ORIENTED_EDGE ( 'NONE', *, *, #26, .F. ) ;
#130 = FACE_OUTER_BOUND ( 'NONE', #189, .T. ) ;
#131 = DIRECTION ( 'NONE',  ( 0.000000000000000000, -0.000000000000000000, 1.000000000000000000 ) ) ;
#132 =( GEOMETRIC_REPRESENTATION_CONTEXT ( 3 ) GLOBAL_UNCERTAINTY_ASSIGNED_CONTEXT ( ( #74 ) ) GLOBAL_UNIT_ASSIGNED_CONTEXT ( ( #203, #44, #78 ) ) REPRESENTATION_CONTEXT ( 'NONE', 'WORKASPACE' ) );
#133 = CARTESIAN_POINT ( 'NONE',  ( -1.469576158976823750E-15, 75.00000000000000000, 0.000000000000000000 ) ) ;
#134 = DIRECTION ( 'NONE',  ( -1.000000000000000000, 0.000000000000000000, 0.000000000000000000 ) ) ;
#135 =( LENGTH_UNIT ( ) NAMED_UNIT ( * ) SI_UNIT ( .MILLI., .METRE. ) );
#136 = LINE ( 'NONE', #83, #153 ) ;
#137 = EDGE_CURVE ( 'NONE', #158, #12, #29, .T. ) ;
#138 = PRESENTATION_STYLE_ASSIGNMENT (( #254 ) ) ;
#139 =( NAMED_UNIT ( * ) SI_UNIT ( $, .STERADIAN. ) SOLID_ANGLE_UNIT ( ) );
#140 = CYLINDRICAL_SURFACE ( 'NONE', #50, 5.999999999999998224 ) ;
#141 =( LENGTH_UNIT ( ) NAMED_UNIT ( * ) SI_UNIT ( .MILLI., .METRE. ) );
#142 = PRODUCT_RELATED_PRODUCT_CATEGORY ( 'part', '', ( #349 ) ) ;
#143 = CARTESIAN_POINT ( 'NONE',  ( 0.000000000000000000, 24.00000000000000000, -6.000000000000000000 ) ) ;
#144 = CARTESIAN_POINT ( 'NONE',  ( -6.000000000000003553, 75.00000000000000000, 0.000000000000000000 ) ) ;
#145 = DIRECTION ( 'NONE',  ( -0.000000000000000000, -1.000000000000000000, -0.000000000000000000 ) ) ;
#146 = TOROIDAL_SURFACE ( 'NONE', #243, 5.000000000000000000, 0.9999999999999995559 ) ;
#147 = ADVANCED_BREP_SHAPE_REPRESENTATION ( '59748', ( #117, #368, #191 ), #7 ) ;
#148 = AXIS2_PLACEMENT_3D ( 'NONE', #194, #4, #134 ) ;
#149 =( NAMED_UNIT ( * ) SI_UNIT ( $, .STERADIAN. ) SOLID_ANGLE_UNIT ( ) );
#150 = EDGE_CURVE ( 'NONE', #269, #214, #268, .T. ) ;
#151 = AXIS2_PLACEMENT_3D ( 'NONE', #241, #308, #24 ) ;
#152 = AXIS2_PLACEMENT_3D ( 'NONE', #321, #157, #359 ) ;
#153 = VECTOR ( 'NONE', #204, 1000.000000000000000 ) ;
#154 = VERTEX_POINT ( 'NONE', #116 ) ;
#155 = DIRECTION ( 'NONE',  ( -0.000000000000000000, -1.000000000000000000, -0.000000000000000000 ) ) ;
#156 = DIRECTION ( 'NONE',  ( 0.000000000000000000, 0.000000000000000000, 1.000000000000000000 ) ) ;
#157 = DIRECTION ( 'NONE',  ( -0.000000000000000000, -1.000000000000000000, -0.000000000000000000 ) ) ;
#158 = VERTEX_POINT ( 'NONE', #209 ) ;
#159 = STYLED_ITEM ( 'NONE', ( #239 ), #117 ) ;
#160 = ORIENTED_EDGE ( 'NONE', *, *, #137, .F. ) ;
#161 = DIRECTION ( 'NONE',  ( 0.000000000000000000, 0.000000000000000000, -1.000000000000000000 ) ) ;
#162 =( LENGTH_UNIT ( ) NAMED_UNIT ( * ) SI_UNIT ( .MILLI., .METRE. ) );
#163 = FACE_OUTER_BOUND ( 'NONE', #351, .T. ) ;
#164 = DIRECTION ( 'NONE',  ( -1.000000000000000000, 0.000000000000000000, 0.000000000000000000 ) ) ;
#165 = PRESENTATION_LAYER_ASSIGNMENT (  '', '', ( #211 ) ) ;
#166 = PRESENTATION_STYLE_ASSIGNMENT (( #51 ) ) ;
#167 = SURFACE_STYLE_FILL_AREA ( #282 ) ;
#168 =( NAMED_UNIT ( * ) SI_UNIT ( $, .STERADIAN. ) SOLID_ANGLE_UNIT ( ) );
#169 = CARTESIAN_POINT ( 'NONE',  ( -1.469576158976823750E-15, 75.00000000000000000, 0.000000000000000000 ) ) ;
#170 = ADVANCED_FACE ( 'NONE', ( #317 ), #59, .F. ) ;
#171 = DIRECTION ( 'NONE',  ( 0.000000000000000000, 0.000000000000000000, 1.000000000000000000 ) ) ;
#172 = DIRECTION ( 'NONE',  ( 0.000000000000000000, 0.000000000000000000, -1.000000000000000000 ) ) ;
#173 = SURFACE_STYLE_FILL_AREA ( #91 ) ;
#174 =( NAMED_UNIT ( * ) PLANE_ANGLE_UNIT ( ) SI_UNIT ( $, .RADIAN. ) );
#175 = CLOSED_SHELL ( 'NONE', ( #19, #119, #280, #170 ) ) ;
#176 = DIRECTION ( 'NONE',  ( 0.000000000000000000, 0.000000000000000000, -1.000000000000000000 ) ) ;
#177 = AXIS2_PLACEMENT_3D ( 'NONE', #202, #109, #198 ) ;
#178 = EDGE_CURVE ( 'NONE', #214, #269, #1, .T. ) ;
#179 = CIRCLE ( 'NONE', #236, 1.000000000000000000 ) ;
#180 =( LENGTH_UNIT ( ) NAMED_UNIT ( * ) SI_UNIT ( .MILLI., .METRE. ) );
#181 = CARTESIAN_POINT ( 'NONE',  ( 7.347880794884118750E-16, 1.000000000000000000, 6.000000000000000000 ) ) ;
#182 =( GEOMETRIC_REPRESENTATION_CONTEXT ( 3 ) GLOBAL_UNCERTAINTY_ASSIGNED_CONTEXT ( ( #76 ) ) GLOBAL_UNIT_ASSIGNED_CONTEXT ( ( #162, #325, #20 ) ) REPRESENTATION_CONTEXT ( 'NONE', 'WORKASPACE' ) );
#183 = CIRCLE ( 'NONE', #199, 5.999999999999996447 ) ;
#184 = EDGE_LOOP ( 'NONE', ( #272, #187, #160, #129 ) ) ;
#185 = FACE_OUTER_BOUND ( 'NONE', #184, .T. ) ;
#186 = UNCERTAINTY_MEASURE_WITH_UNIT (LENGTH_MEASURE( 1.000000000000000082E-05 ), #207, 'distance_accuracy_value', 'NONE');
#187 = ORIENTED_EDGE ( 'NONE', *, *, #43, .T. ) ;
#188 = EDGE_CURVE ( 'NONE', #274, #70, #101, .T. ) ;
#189 = EDGE_LOOP ( 'NONE', ( #299, #192, #215, #61 ) ) ;
#190 = VECTOR ( 'NONE', #229, 1000.000000000000000 ) ;
#191 = AXIS2_PLACEMENT_3D ( 'NONE', #38, #156, #250 ) ;
#192 = ORIENTED_EDGE ( 'NONE', *, *, #150, .T. ) ;
#193 =( NAMED_UNIT ( * ) PLANE_ANGLE_UNIT ( ) SI_UNIT ( $, .RADIAN. ) );
#194 = CARTESIAN_POINT ( 'NONE',  ( 4.770489558936219510E-15, 24.00000000000000000, 0.000000000000000000 ) ) ;
#195 = ADVANCED_FACE ( 'NONE', ( #185 ), #99, .T. ) ;
#196 = DIRECTION ( 'NONE',  ( -1.000000000000000000, 0.000000000000000000, 0.000000000000000000 ) ) ;
#197 = PRESENTATION_LAYER_ASSIGNMENT (  '', '', ( #210 ) ) ;
#198 = DIRECTION ( 'NONE',  ( 0.000000000000000000, 0.000000000000000000, -1.000000000000000000 ) ) ;
#199 = AXIS2_PLACEMENT_3D ( 'NONE', #227, #30, #196 ) ;
#200 = APPLICATION_CONTEXT ( 'automotive_design' ) ;
#201 = CARTESIAN_POINT ( 'NONE',  ( 6.000000000000000000, 75.00000000000000000, 7.347880794884119736E-16 ) ) ;
#202 = CARTESIAN_POINT ( 'NONE',  ( 0.000000000000000000, 0.000000000000000000, 0.000000000000000000 ) ) ;
#203 =( LENGTH_UNIT ( ) NAMED_UNIT ( * ) SI_UNIT ( .MILLI., .METRE. ) );
#204 = DIRECTION ( 'NONE',  ( -1.223542297630008506E-16, 1.000000000000000000, -0.000000000000000000 ) ) ;
#205 = MECHANICAL_DESIGN_GEOMETRIC_PRESENTATION_REPRESENTATION (  '', ( #49 ), #182 ) ;
#206 = DIRECTION ( 'NONE',  ( 0.000000000000000000, -1.000000000000000000, -0.000000000000000000 ) ) ;
#207 =( LENGTH_UNIT ( ) NAMED_UNIT ( * ) SI_UNIT ( .MILLI., .METRE. ) );
#208 = FACE_OUTER_BOUND ( 'NONE', #358, .T. ) ;
#209 = CARTESIAN_POINT ( 'NONE',  ( 0.000000000000000000, 1.000000000000000000, -6.000000000000000000 ) ) ;
#210 = STYLED_ITEM ( 'NONE', ( #102 ), #92 ) ;
#211 = STYLED_ITEM ( 'NONE', ( #233 ), #341 ) ;
#212 = EDGE_CURVE ( 'NONE', #158, #245, #32, .T. ) ;
#213 = EDGE_CURVE ( 'NONE', #245, #350, #6, .T. ) ;
#214 = VERTEX_POINT ( 'NONE', #143 ) ;
#215 = ORIENTED_EDGE ( 'NONE', *, *, #26, .T. ) ;
#216 = CLOSED_SHELL ( 'NONE', ( #195, #341, #60, #55, #92, #36 ) ) ;
#217 = AXIS2_PLACEMENT_3D ( 'NONE', #300, #261, #370 ) ;
#218 = ORIENTED_EDGE ( 'NONE', *, *, #137, .T. ) ;
#219 = SURFACE_SIDE_STYLE ('',( #296 ) ) ;
#220 = ORIENTED_EDGE ( 'NONE', *, *, #77, .T. ) ;
#221 = FILL_AREA_STYLE ('',( #107 ) ) ;
#222 = MECHANICAL_DESIGN_GEOMETRIC_PRESENTATION_REPRESENTATION (  '', ( #104 ), #303 ) ;
#223 = FILL_AREA_STYLE ('',( #255 ) ) ;
#224 =( NAMED_UNIT ( * ) PLANE_ANGLE_UNIT ( ) SI_UNIT ( $, .RADIAN. ) );
#225 = DIRECTION ( 'NONE',  ( 0.000000000000000000, 1.000000000000000000, 0.000000000000000000 ) ) ;
#226 = FILL_AREA_STYLE_COLOUR ( '', #289 ) ;
#227 = CARTESIAN_POINT ( 'NONE',  ( 4.770489558936219510E-15, 24.00000000000000000, 0.000000000000000000 ) ) ;
#228 = VECTOR ( 'NONE', #75, 1000.000000000000000 ) ;
#229 = DIRECTION ( 'NONE',  ( -0.000000000000000000, -1.000000000000000000, -0.000000000000000000 ) ) ;
#230 = COLOUR_RGB ( '',0.7921568627450980005, 0.8196078431372548767, 0.9333333333333333481 ) ;
#231 = CARTESIAN_POINT ( 'NONE',  ( -1.469576158976823750E-15, 75.00000000000000000, 0.000000000000000000 ) ) ;
#232 = FILL_AREA_STYLE ('',( #113 ) ) ;
#233 = PRESENTATION_STYLE_ASSIGNMENT (( #305 ) ) ;
#234 = FILL_AREA_STYLE ('',( #45 ) ) ;
#235 = COLOUR_RGB ( '',1.000000000000000000, 0.000000000000000000, 0.000000000000000000 ) ;
#236 = AXIS2_PLACEMENT_3D ( 'NONE', #334, #306, #338 ) ;
#237 = PRODUCT_DEFINITION ( 'UNKNOWN', '', #33, #39 ) ;
#238 = FILL_AREA_STYLE_COLOUR ( '', #230 ) ;
#239 = PRESENTATION_STYLE_ASSIGNMENT (( #13 ) ) ;
#240 = EDGE_LOOP ( 'NONE', ( #100, #96, #246, #93 ) ) ;
#241 = CARTESIAN_POINT ( 'NONE',  ( -1.469576158976823750E-15, 75.00000000000000000, 0.000000000000000000 ) ) ;
#242 = ORIENTED_EDGE ( 'NONE', *, *, #212, .F. ) ;
#243 = AXIS2_PLACEMENT_3D ( 'NONE', #252, #301, #47 ) ;
#244 = MECHANICAL_DESIGN_GEOMETRIC_PRESENTATION_REPRESENTATION (  '', ( #159 ), #80 ) ;
#245 = VERTEX_POINT ( 'NONE', #56 ) ;
#246 = ORIENTED_EDGE ( 'NONE', *, *, #364, .F. ) ;
#247 = APPLICATION_PROTOCOL_DEFINITION ( 'draft international standard', 'automotive_design', 1998, #46 ) ;
#248 = SURFACE_STYLE_USAGE ( .BOTH. , #342 ) ;
#249 = CARTESIAN_POINT ( 'NONE',  ( 7.347880794884119736E-16, 0.000000000000000000, 6.000000000000000000 ) ) ;
#250 = DIRECTION ( 'NONE',  ( 1.000000000000000000, 0.000000000000000000, 0.000000000000000000 ) ) ;
#251 = AXIS2_PLACEMENT_3D ( 'NONE', #319, #313, #57 ) ;
#252 = CARTESIAN_POINT ( 'NONE',  ( 0.000000000000000000, 1.000000000000000000, 0.000000000000000000 ) ) ;
#253 = SURFACE_STYLE_FILL_AREA ( #234 ) ;
#254 = SURFACE_STYLE_USAGE ( .BOTH. , #360 ) ;
#255 = FILL_AREA_STYLE_COLOUR ( '', #266 ) ;
#256 = CARTESIAN_POINT ( 'NONE',  ( 7.347880794884119736E-16, 24.00000000000000000, 6.000000000000000000 ) ) ;
#257 = AXIS2_PLACEMENT_3D ( 'NONE', #82, #225, #131 ) ;
#258 = SURFACE_STYLE_FILL_AREA ( #304 ) ;
#259 = MECHANICAL_DESIGN_GEOMETRIC_PRESENTATION_REPRESENTATION (  '', ( #210 ), #329 ) ;
#260 = CARTESIAN_POINT ( 'NONE',  ( 0.000000000000000000, 1.000000000000000000, -5.000000000000000000 ) ) ;
#261 = DIRECTION ( 'NONE',  ( -0.000000000000000000, -1.000000000000000000, -0.000000000000000000 ) ) ;
#262 = EDGE_CURVE ( 'NONE', #42, #70, #322, .T. ) ;
#263 = CARTESIAN_POINT ( 'NONE',  ( 0.000000000000000000, 0.000000000000000000, 0.000000000000000000 ) ) ;
#264 = PRESENTATION_LAYER_ASSIGNMENT (  '', '', ( #283 ) ) ;
#265 = CARTESIAN_POINT ( 'NONE',  ( 0.000000000000000000, 24.00000000000000000, 0.000000000000000000 ) ) ;
#266 = COLOUR_RGB ( '',1.000000000000000000, 0.000000000000000000, 0.000000000000000000 ) ;
#267 =( NAMED_UNIT ( * ) PLANE_ANGLE_UNIT ( ) SI_UNIT ( $, .RADIAN. ) );
#268 = CIRCLE ( 'NONE', #343, 6.000000000000000000 ) ;
#269 = VERTEX_POINT ( 'NONE', #256 ) ;
#270 = SURFACE_SIDE_STYLE ('',( #173 ) ) ;
#271 = ORIENTED_EDGE ( 'NONE', *, *, #212, .T. ) ;
#272 = ORIENTED_EDGE ( 'NONE', *, *, #178, .T. ) ;
#273 = PRESENTATION_LAYER_ASSIGNMENT (  '', '', ( #22 ) ) ;
#274 = VERTEX_POINT ( 'NONE', #363 ) ;
#275 = EDGE_CURVE ( 'NONE', #12, #350, #179, .T. ) ;
#276 = UNCERTAINTY_MEASURE_WITH_UNIT (LENGTH_MEASURE( 1.000000000000000082E-05 ), #365, 'distance_accuracy_value', 'NONE');
#277 =( NAMED_UNIT ( * ) PLANE_ANGLE_UNIT ( ) SI_UNIT ( $, .RADIAN. ) );
#278 = COLOUR_RGB ( '',1.000000000000000000, 0.000000000000000000, 0.000000000000000000 ) ;
#279 = PLANE ( 'NONE',  #9 ) ;
#280 = ADVANCED_FACE ( 'NONE', ( #25 ), #140, .T. ) ;
#281 = FACE_OUTER_BOUND ( 'NONE', #15, .T. ) ;
#282 = FILL_AREA_STYLE ('',( #226 ) ) ;
#283 = STYLED_ITEM ( 'NONE', ( #53 ), #36 ) ;
#284 = COLOUR_RGB ( '',0.7921568627450980005, 0.8196078431372548767, 0.9333333333333333481 ) ;
#285 = DIRECTION ( 'NONE',  ( -1.223542297630008506E-16, 1.000000000000000000, -0.000000000000000000 ) ) ;
#286 = DIRECTION ( 'NONE',  ( -0.000000000000000000, -1.000000000000000000, -0.000000000000000000 ) ) ;
#287 = STYLED_ITEM ( 'NONE', ( #166 ), #60 ) ;
#288 = AXIS2_PLACEMENT_3D ( 'NONE', #35, #286, #176 ) ;
#289 = COLOUR_RGB ( '',1.000000000000000000, 0.000000000000000000, 0.000000000000000000 ) ;
#290 = DIRECTION ( 'NONE',  ( -0.000000000000000000, -1.000000000000000000, -0.000000000000000000 ) ) ;
#291 = CARTESIAN_POINT ( 'NONE',  ( 0.000000000000000000, 0.000000000000000000, 0.000000000000000000 ) ) ;
#292 = FACE_OUTER_BOUND ( 'NONE', #240, .T. ) ;
#293 = APPLICATION_PROTOCOL_DEFINITION ( 'draft international standard', 'automotive_design', 1998, #200 ) ;
#294 = MECHANICAL_DESIGN_GEOMETRIC_PRESENTATION_REPRESENTATION (  '', ( #283 ), #132 ) ;
#295 =( NAMED_UNIT ( * ) SI_UNIT ( $, .STERADIAN. ) SOLID_ANGLE_UNIT ( ) );
#296 = SURFACE_STYLE_FILL_AREA ( #221 ) ;
#297 = ORIENTED_EDGE ( 'NONE', *, *, #86, .T. ) ;
#298 = UNCERTAINTY_MEASURE_WITH_UNIT (LENGTH_MEASURE( 1.000000000000000082E-05 ), #87, 'distance_accuracy_value', 'NONE');
#299 = ORIENTED_EDGE ( 'NONE', *, *, #43, .F. ) ;
#300 = CARTESIAN_POINT ( 'NONE',  ( 0.000000000000000000, 0.000000000000000000, 0.000000000000000000 ) ) ;
#301 = DIRECTION ( 'NONE',  ( -0.000000000000000000, -1.000000000000000000, -0.000000000000000000 ) ) ;
#302 = UNCERTAINTY_MEASURE_WITH_UNIT (LENGTH_MEASURE( 1.000000000000000082E-05 ), #66, 'distance_accuracy_value', 'NONE');
#303 =( GEOMETRIC_REPRESENTATION_CONTEXT ( 3 ) GLOBAL_UNCERTAINTY_ASSIGNED_CONTEXT ( ( #307 ) ) GLOBAL_UNIT_ASSIGNED_CONTEXT ( ( #135, #193, #168 ) ) REPRESENTATION_CONTEXT ( 'NONE', 'WORKASPACE' ) );
#304 = FILL_AREA_STYLE ('',( #103 ) ) ;
#305 = SURFACE_STYLE_USAGE ( .BOTH. , #85 ) ;
#306 = DIRECTION ( 'NONE',  ( 1.000000000000000000, 0.000000000000000000, -1.224646799147353207E-16 ) ) ;
#307 = UNCERTAINTY_MEASURE_WITH_UNIT (LENGTH_MEASURE( 1.000000000000000082E-05 ), #135, 'distance_accuracy_value', 'NONE');
#308 = DIRECTION ( 'NONE',  ( -1.223542297630008506E-16, 1.000000000000000000, -0.000000000000000000 ) ) ;
#309 =( NAMED_UNIT ( * ) PLANE_ANGLE_UNIT ( ) SI_UNIT ( $, .RADIAN. ) );
#310 = DIRECTION ( 'NONE',  ( -0.000000000000000000, -1.000000000000000000, -0.000000000000000000 ) ) ;
#311 = MECHANICAL_DESIGN_GEOMETRIC_PRESENTATION_REPRESENTATION (  '', ( #287 ), #81 ) ;
#312 = CIRCLE ( 'NONE', #288, 6.000000000000000000 ) ;
#313 = DIRECTION ( 'NONE',  ( -1.223542297630008506E-16, 1.000000000000000000, 0.000000000000000000 ) ) ;
#314 = EDGE_CURVE ( 'NONE', #274, #154, #183, .T. ) ;
#315 = PRESENTATION_LAYER_ASSIGNMENT (  '', '', ( #49 ) ) ;
#316 = PRESENTATION_STYLE_ASSIGNMENT (( #344 ) ) ;
#317 = FACE_OUTER_BOUND ( 'NONE', #318, .T. ) ;
#318 = EDGE_LOOP ( 'NONE', ( #324, #123 ) ) ;
#319 = CARTESIAN_POINT ( 'NONE',  ( 4.770489558936219510E-15, 24.00000000000000000, 0.000000000000000000 ) ) ;
#320 = ORIENTED_EDGE ( 'NONE', *, *, #122, .T. ) ;
#321 = CARTESIAN_POINT ( 'NONE',  ( 0.000000000000000000, 24.00000000000000000, 0.000000000000000000 ) ) ;
#322 = CIRCLE ( 'NONE', #336, 6.000000000000001776 ) ;
#323 = CARTESIAN_POINT ( 'NONE',  ( 0.000000000000000000, 0.000000000000000000, 0.000000000000000000 ) ) ;
#324 = ORIENTED_EDGE ( 'NONE', *, *, #364, .T. ) ;
#325 =( NAMED_UNIT ( * ) PLANE_ANGLE_UNIT ( ) SI_UNIT ( $, .RADIAN. ) );
#326 = EDGE_LOOP ( 'NONE', ( #68, #297, #14, #40 ) ) ;
#327 = EDGE_CURVE ( 'NONE', #154, #42, #136, .T. ) ;
#328 = ORIENTED_EDGE ( 'NONE', *, *, #213, .T. ) ;
#329 =( GEOMETRIC_REPRESENTATION_CONTEXT ( 3 ) GLOBAL_UNCERTAINTY_ASSIGNED_CONTEXT ( ( #276 ) ) GLOBAL_UNIT_ASSIGNED_CONTEXT ( ( #365, #277, #295 ) ) REPRESENTATION_CONTEXT ( 'NONE', 'WORKASPACE' ) );
#330 = CYLINDRICAL_SURFACE ( 'NONE', #361, 6.000000000000000000 ) ;
#331 =( NAMED_UNIT ( * ) SI_UNIT ( $, .STERADIAN. ) SOLID_ANGLE_UNIT ( ) );
#332 = DIRECTION ( 'NONE',  ( -1.223542297630008506E-16, 1.000000000000000000, -0.000000000000000000 ) ) ;
#333 = LINE ( 'NONE', #249, #228 ) ;
#334 = CARTESIAN_POINT ( 'NONE',  ( 6.123233995736766282E-16, 1.000000000000000000, 5.000000000000000000 ) ) ;
#335 = FACE_OUTER_BOUND ( 'NONE', #127, .T. ) ;
#336 = AXIS2_PLACEMENT_3D ( 'NONE', #169, #340, #114 ) ;
#337 =( GEOMETRIC_REPRESENTATION_CONTEXT ( 3 ) GLOBAL_UNCERTAINTY_ASSIGNED_CONTEXT ( ( #298 ) ) GLOBAL_UNIT_ASSIGNED_CONTEXT ( ( #87, #309, #139 ) ) REPRESENTATION_CONTEXT ( 'NONE', 'WORKASPACE' ) );
#338 = DIRECTION ( 'NONE',  ( -1.224646799147352468E-16, 0.000000000000000000, -1.000000000000000000 ) ) ;
#339 = PLANE ( 'NONE',  #257 ) ;
#340 = DIRECTION ( 'NONE',  ( -1.223542297630008506E-16, 1.000000000000000000, -0.000000000000000000 ) ) ;
#341 = ADVANCED_FACE ( 'NONE', ( #335 ), #115, .T. ) ;
#342 = SURFACE_SIDE_STYLE ('',( #253 ) ) ;
#343 = AXIS2_PLACEMENT_3D ( 'NONE', #265, #290, #34 ) ;
#344 = SURFACE_STYLE_USAGE ( .BOTH. , #62 ) ;
#345 = DIRECTION ( 'NONE',  ( 0.000000000000000000, 0.000000000000000000, -1.000000000000000000 ) ) ;
#346 =( NAMED_UNIT ( * ) SI_UNIT ( $, .STERADIAN. ) SOLID_ANGLE_UNIT ( ) );
#347 = AXIS2_PLACEMENT_3D ( 'NONE', #52, #111, #172 ) ;
#348 = DIRECTION ( 'NONE',  ( 0.000000000000000000, 0.000000000000000000, -1.000000000000000000 ) ) ;
#349 = PRODUCT ( '59748', '59748', '', ( #353 ) ) ;
#350 = VERTEX_POINT ( 'NONE', #48 ) ;
#351 = EDGE_LOOP ( 'NONE', ( #328, #220 ) ) ;
#352 = ORIENTED_EDGE ( 'NONE', *, *, #178, .F. ) ;
#353 = PRODUCT_CONTEXT ( 'NONE', #46, 'mechanical' ) ;
#354 = DIRECTION ( 'NONE',  ( 1.000000000000000000, 1.223542297630008506E-16, 0.000000000000000000 ) ) ;
#355 = AXIS2_PLACEMENT_3D ( 'NONE', #263, #310, #161 ) ;
#356 = ORIENTED_EDGE ( 'NONE', *, *, #86, .F. ) ;
#357 = SURFACE_STYLE_USAGE ( .BOTH. , #219 ) ;
#358 = EDGE_LOOP ( 'NONE', ( #17, #356 ) ) ;
#359 = DIRECTION ( 'NONE',  ( 0.000000000000000000, 0.000000000000000000, -1.000000000000000000 ) ) ;
#360 = SURFACE_SIDE_STYLE ('',( #258 ) ) ;
#361 = AXIS2_PLACEMENT_3D ( 'NONE', #291, #155, #345 ) ;
#362 = SURFACE_SIDE_STYLE ('',( #2 ) ) ;
#363 = CARTESIAN_POINT ( 'NONE',  ( -5.999999999999991118, 24.00000000000000000, 0.000000000000000000 ) ) ;
#364 = EDGE_CURVE ( 'NONE', #70, #42, #73, .T. ) ;
#365 =( LENGTH_UNIT ( ) NAMED_UNIT ( * ) SI_UNIT ( .MILLI., .METRE. ) );
#366 = SURFACE_STYLE_FILL_AREA ( #23 ) ;
#367 = DIRECTION ( 'NONE',  ( -1.000000000000000000, 0.000000000000000000, 0.000000000000000000 ) ) ;
#368 = MANIFOLD_SOLID_BREP ( 'Revolve - Tool Body (Straight Shanked)', #175 ) ;
#369 = FACE_OUTER_BOUND ( 'NONE', #90, .T. ) ;
#370 = DIRECTION ( 'NONE',  ( 0.000000000000000000, 0.000000000000000000, -1.000000000000000000 ) ) ;
ENDSEC;
END-ISO-10303-21;
