ISO-10303-21;
HEADER;
FILE_DESCRIPTION (( 'STEP AP214' ),
    '1' );
FILE_NAME ('Micro_RME-045-2X.STEP',
    '2021-09-01T23:24:46',
    ( '' ),
    ( '' ),
    'SwSTEP 2.0',
    'SolidWorks 2020',
    '' );
FILE_SCHEMA (( 'AUTOMOTIVE_DESIGN' ));
ENDSEC;

DATA;
#1 = VECTOR ( 'NONE', #281, 39.37007874015748143 ) ;
#2 = CARTESIAN_POINT ( 'NONE',  ( 0.0000000000000000000, 0.0000000000000000000, 1.485000000000000764 ) ) ;
#3 = CARTESIAN_POINT ( 'NONE',  ( 1.653273178848927175E-17, 0.0000000000000000000, 0.1350000000000000089 ) ) ;
#4 = ORIENTED_EDGE ( 'NONE', *, *, #185, .F. ) ;
#5 = PRODUCT_DEFINITION_SHAPE ( 'NONE', 'NONE',  #88 ) ;
#6 = CARTESIAN_POINT ( 'NONE',  ( 3.371085051478192422E-34, 0.0000000000000000000, 2.752699842783463994E-18 ) ) ;
#7 = DIRECTION ( 'NONE',  ( 0.0000000000000000000, 0.0000000000000000000, 1.000000000000000000 ) ) ;
#8 = CIRCLE ( 'NONE', #35, 0.02247750000000000095 ) ;
#9 = CARTESIAN_POINT ( 'NONE',  ( 0.06250000000000002776, 7.654042494670959086E-18, 1.500000000000000222 ) ) ;
#10 = CARTESIAN_POINT ( 'NONE',  ( -0.02247749999999998360, 2.752699842783463224E-18, 0.1350000000000000089 ) ) ;
#11 = DIRECTION ( 'NONE',  ( -0.7071067811865462405, 0.0000000000000000000, -0.7071067811865486830 ) ) ;
#12 = CONICAL_SURFACE ( 'NONE', #41, 0.02247750000000000095, 0.1745329251994338637 ) ;
#13 = CARTESIAN_POINT ( 'NONE',  ( 1.653273178848927175E-17, 0.0000000000000000000, 0.1350000000000000089 ) ) ;
#14 = ORIENTED_EDGE ( 'NONE', *, *, #141, .F. ) ;
#15 = LINE ( 'NONE', #212, #25 ) ;
#16 = CARTESIAN_POINT ( 'NONE',  ( 0.04750000000000064587, 6.735557395310483192E-18, 1.500000000000000222 ) ) ;
#17 = CYLINDRICAL_SURFACE ( 'NONE', #58, 0.06250000000000002776 ) ;
#18 = ORIENTED_EDGE ( 'NONE', *, *, #210, .T. ) ;
#19 = AXIS2_PLACEMENT_3D ( 'NONE', #217, #7, #176 ) ;
#20 = ADVANCED_FACE ( 'NONE', ( #299 ), #192, .T. ) ;
#21 = APPLICATION_CONTEXT ( 'automotive_design' ) ;
#22 = SURFACE_SIDE_STYLE ('',( #45 ) ) ;
#23 = EDGE_LOOP ( 'NONE', ( #46, #32, #112, #178 ) ) ;
#24 = AXIS2_PLACEMENT_3D ( 'NONE', #291, #295, #97 ) ;
#25 = VECTOR ( 'NONE', #171, 39.37007874015748854 ) ;
#26 = ADVANCED_FACE ( 'NONE', ( #230 ), #275, .T. ) ;
#27 = CIRCLE ( 'NONE', #105, 0.04750000000000064587 ) ;
#28 = CARTESIAN_POINT ( 'NONE',  ( 4.432962726185554212E-17, 0.0000000000000000000, 0.3619788766256487045 ) ) ;
#29 = VERTEX_POINT ( 'NONE', #16 ) ;
#30 = CARTESIAN_POINT ( 'NONE',  ( 0.0000000000000000000, 0.0000000000000000000, 0.0000000000000000000 ) ) ;
#31 = EDGE_CURVE ( 'NONE', #159, #139, #144, .T. ) ;
#32 = ORIENTED_EDGE ( 'NONE', *, *, #252, .T. ) ;
#33 = DIRECTION ( 'NONE',  ( 0.0000000000000000000, 0.0000000000000000000, 1.000000000000000000 ) ) ;
#34 = DIRECTION ( 'NONE',  ( -1.000000000000000000, 0.0000000000000000000, 1.224646799147353454E-16 ) ) ;
#35 = AXIS2_PLACEMENT_3D ( 'NONE', #103, #148, #219 ) ;
#36 = AXIS2_PLACEMENT_3D ( 'NONE', #13, #286, #133 ) ;
#37 = CARTESIAN_POINT ( 'NONE',  ( -0.04750000000000064587, 0.0000000000000000000, 1.500000000000000222 ) ) ;
#38 = LINE ( 'NONE', #37, #233 ) ;
#39 = EDGE_LOOP ( 'NONE', ( #142, #61, #246, #136 ) ) ;
#40 = ORIENTED_EDGE ( 'NONE', *, *, #152, .F. ) ;
#41 = AXIS2_PLACEMENT_3D ( 'NONE', #157, #294, #96 ) ;
#42 = AXIS2_PLACEMENT_3D ( 'NONE', #87, #292, #182 ) ;
#43 = DIRECTION ( 'NONE',  ( -0.0000000000000000000, -0.0000000000000000000, -1.000000000000000000 ) ) ;
#44 = ORIENTED_EDGE ( 'NONE', *, *, #296, .F. ) ;
#45 = SURFACE_STYLE_FILL_AREA ( #193 ) ;
#46 = ORIENTED_EDGE ( 'NONE', *, *, #263, .F. ) ;
#47 = AXIS2_PLACEMENT_3D ( 'NONE', #151, #128, #214 ) ;
#48 = EDGE_CURVE ( 'NONE', #135, #59, #161, .T. ) ;
#49 = AXIS2_PLACEMENT_3D ( 'NONE', #280, #33, #56 ) ;
#50 = CARTESIAN_POINT ( 'NONE',  ( 0.0000000000000000000, 0.0000000000000000000, 0.0000000000000000000 ) ) ;
#51 = CARTESIAN_POINT ( 'NONE',  ( 0.02247750000000001830, 0.0000000000000000000, 0.1350000000000000089 ) ) ;
#52 = ADVANCED_FACE ( 'NONE', ( #65 ), #12, .T. ) ;
#53 = AXIS2_PLACEMENT_3D ( 'NONE', #28, #127, #55 ) ;
#54 = DIRECTION ( 'NONE',  ( -1.000000000000000000, 0.0000000000000000000, 0.0000000000000000000 ) ) ;
#55 = DIRECTION ( 'NONE',  ( 1.000000000000000000, 0.0000000000000000000, 0.0000000000000000000 ) ) ;
#56 = DIRECTION ( 'NONE',  ( 1.000000000000000000, 0.0000000000000000000, -0.0000000000000000000 ) ) ;
#57 = FACE_OUTER_BOUND ( 'NONE', #67, .T. ) ;
#58 = AXIS2_PLACEMENT_3D ( 'NONE', #84, #43, #248 ) ;
#59 = VERTEX_POINT ( 'NONE', #160 ) ;
#60 = DIRECTION ( 'NONE',  ( -1.000000000000000000, 0.0000000000000000000, 0.0000000000000000000 ) ) ;
#61 = ORIENTED_EDGE ( 'NONE', *, *, #124, .F. ) ;
#62 = PRODUCT_RELATED_PRODUCT_CATEGORY ( 'part', '', ( #285 ) ) ;
#63 = APPLICATION_PROTOCOL_DEFINITION ( 'draft international standard', 'automotive_design', 1998, #21 ) ;
#64 = AXIS2_PLACEMENT_3D ( 'NONE', #153, #155, #60 ) ;
#65 = FACE_OUTER_BOUND ( 'NONE', #23, .T. ) ;
#66 =( NAMED_UNIT ( * ) SI_UNIT ( $, .STERADIAN. ) SOLID_ANGLE_UNIT ( ) );
#67 = EDGE_LOOP ( 'NONE', ( #244, #183 ) ) ;
#68 = EDGE_CURVE ( 'NONE', #29, #293, #15, .T. ) ;
#69 = DIRECTION ( 'NONE',  ( 0.0000000000000000000, 0.0000000000000000000, 1.000000000000000000 ) ) ;
#70 = PRESENTATION_LAYER_ASSIGNMENT (  '', '', ( #273 ) ) ;
#71 = UNCERTAINTY_MEASURE_WITH_UNIT (LENGTH_MEASURE( 1.000000000000000082E-05 ), #188, 'distance_accuracy_value', 'NONE');
#72 = DIRECTION ( 'NONE',  ( 1.000000000000000000, 0.0000000000000000000, 0.0000000000000000000 ) ) ;
#73 = CARTESIAN_POINT ( 'NONE',  ( 0.0000000000000000000, 0.0000000000000000000, 0.0000000000000000000 ) ) ;
#74 =( NAMED_UNIT ( * ) PLANE_ANGLE_UNIT ( ) SI_UNIT ( $, .RADIAN. ) );
#75 = EDGE_CURVE ( 'NONE', #59, #256, #231, .T. ) ;
#76 = FACE_OUTER_BOUND ( 'NONE', #249, .T. ) ;
#77 = ADVANCED_FACE ( 'NONE', ( #131 ), #235, .T. ) ;
#78 = VERTEX_POINT ( 'NONE', #129 ) ;
#79 = CARTESIAN_POINT ( 'NONE',  ( -0.02247750000000000095, 0.0000000000000000000, 2.752699842783463994E-18 ) ) ;
#80 = ORIENTED_EDGE ( 'NONE', *, *, #210, .F. ) ;
#81 = DIRECTION ( 'NONE',  ( 0.0000000000000000000, 0.0000000000000000000, -1.000000000000000000 ) ) ;
#82 = DIRECTION ( 'NONE',  ( 1.000000000000000000, 0.0000000000000000000, 0.0000000000000000000 ) ) ;
#83 = DIRECTION ( 'NONE',  ( 1.000000000000000000, 0.0000000000000000000, 0.0000000000000000000 ) ) ;
#84 = CARTESIAN_POINT ( 'NONE',  ( 0.0000000000000000000, 0.0000000000000000000, 1.500000000000000222 ) ) ;
#85 =( GEOMETRIC_REPRESENTATION_CONTEXT ( 3 ) GLOBAL_UNCERTAINTY_ASSIGNED_CONTEXT ( ( #276 ) ) GLOBAL_UNIT_ASSIGNED_CONTEXT ( ( #115, #225, #266 ) ) REPRESENTATION_CONTEXT ( 'NONE', 'WORKASPACE' ) );
#86 = ORIENTED_EDGE ( 'NONE', *, *, #170, .F. ) ;
#87 = CARTESIAN_POINT ( 'NONE',  ( 1.653273178848927175E-17, 0.0000000000000000000, 0.1350000000000000089 ) ) ;
#88 = PRODUCT_DEFINITION ( 'UNKNOWN', '', #194, #229 ) ;
#89 = ORIENTED_EDGE ( 'NONE', *, *, #296, .T. ) ;
#90 =( NAMED_UNIT ( * ) PLANE_ANGLE_UNIT ( ) SI_UNIT ( $, .RADIAN. ) );
#91 = ORIENTED_EDGE ( 'NONE', *, *, #152, .T. ) ;
#92 = EDGE_CURVE ( 'NONE', #293, #150, #272, .T. ) ;
#93 = ORIENTED_EDGE ( 'NONE', *, *, #141, .T. ) ;
#94 = CIRCLE ( 'NONE', #53, 0.06250000000000002776 ) ;
#95 = AXIS2_PLACEMENT_3D ( 'NONE', #50, #69, #72 ) ;
#96 = DIRECTION ( 'NONE',  ( 1.000000000000000000, 0.0000000000000000000, 0.0000000000000000000 ) ) ;
#97 = DIRECTION ( 'NONE',  ( 1.000000000000000000, 0.0000000000000000000, 0.0000000000000000000 ) ) ;
#98 = DIRECTION ( 'NONE',  ( -1.000000000000000000, 0.0000000000000000000, 1.224646799147353454E-16 ) ) ;
#99 = DIRECTION ( 'NONE',  ( 0.1736481776669313581, 0.0000000000000000000, 0.9848077530122077983 ) ) ;
#100 = EDGE_CURVE ( 'NONE', #256, #59, #8, .T. ) ;
#101 = DIRECTION ( 'NONE',  ( 1.224646799147353454E-16, 0.0000000000000000000, 1.000000000000000000 ) ) ;
#102 = EDGE_LOOP ( 'NONE', ( #40, #250, #18, #14 ) ) ;
#103 = CARTESIAN_POINT ( 'NONE',  ( 3.371085051478192422E-34, 0.0000000000000000000, 2.752699842783463994E-18 ) ) ;
#104 = AXIS2_PLACEMENT_3D ( 'NONE', #2, #81, #218 ) ;
#105 = AXIS2_PLACEMENT_3D ( 'NONE', #238, #261, #83 ) ;
#106 = LINE ( 'NONE', #9, #140 ) ;
#107 = CARTESIAN_POINT ( 'NONE',  ( -0.04750000000000064587, 0.0000000000000000000, 1.500000000000000222 ) ) ;
#108 = SURFACE_STYLE_USAGE ( .BOTH. , #180 ) ;
#109 = AXIS2_PLACEMENT_3D ( 'NONE', #73, #253, #98 ) ;
#110 = CIRCLE ( 'NONE', #232, 0.06250000000000002776 ) ;
#111 = DIMENSIONAL_EXPONENTS ( 1.000000000000000000, 0.0000000000000000000, 0.0000000000000000000, 0.0000000000000000000, 0.0000000000000000000, 0.0000000000000000000, 0.0000000000000000000 ) ;
#112 = ORIENTED_EDGE ( 'NONE', *, *, #31, .T. ) ;
#113 = FACE_OUTER_BOUND ( 'NONE', #116, .T. ) ;
#114 = EDGE_LOOP ( 'NONE', ( #163, #187 ) ) ;
#115 =( CONVERSION_BASED_UNIT ( 'INCH', #162 ) LENGTH_UNIT ( ) NAMED_UNIT ( #111 ) );
#116 = EDGE_LOOP ( 'NONE', ( #198, #91, #211, #80 ) ) ;
#117 = COLOUR_RGB ( '',0.7921568627450980005, 0.8196078431372548767, 0.9333333333333333481 ) ;
#118 = APPLICATION_PROTOCOL_DEFINITION ( 'draft international standard', 'automotive_design', 1998, #239 ) ;
#119 = EDGE_LOOP ( 'NONE', ( #207, #44, #196, #93 ) ) ;
#120 = CARTESIAN_POINT ( 'NONE',  ( 0.0000000000000000000, 0.0000000000000000000, 1.500000000000000222 ) ) ;
#121 =( LENGTH_UNIT ( ) NAMED_UNIT ( * ) SI_UNIT ( $, .METRE. ) );
#122 = EDGE_LOOP ( 'NONE', ( #206, #89, #209, #126 ) ) ;
#123 = ORIENTED_EDGE ( 'NONE', *, *, #263, .T. ) ;
#124 = EDGE_CURVE ( 'NONE', #169, #29, #184, .T. ) ;
#125 = CARTESIAN_POINT ( 'NONE',  ( -0.06250000000000002776, 0.0000000000000000000, 1.485000000000000764 ) ) ;
#126 = ORIENTED_EDGE ( 'NONE', *, *, #75, .F. ) ;
#127 = DIRECTION ( 'NONE',  ( -1.224646799147353454E-16, -0.0000000000000000000, -1.000000000000000000 ) ) ;
#128 = DIRECTION ( 'NONE',  ( 0.0000000000000000000, 0.0000000000000000000, 1.000000000000000000 ) ) ;
#129 = CARTESIAN_POINT ( 'NONE',  ( -0.02247749999999998360, 5.203371168727211732E-18, 0.1350000000000000089 ) ) ;
#130 = EDGE_CURVE ( 'NONE', #135, #139, #257, .T. ) ;
#131 = FACE_OUTER_BOUND ( 'NONE', #114, .T. ) ;
#132 = FILL_AREA_STYLE_COLOUR ( '', #265 ) ;
#133 = DIRECTION ( 'NONE',  ( -1.000000000000000000, 0.0000000000000000000, 0.0000000000000000000 ) ) ;
#134 = AXIS2_PLACEMENT_3D ( 'NONE', #3, #101, #201 ) ;
#135 = VERTEX_POINT ( 'NONE', #199 ) ;
#136 = ORIENTED_EDGE ( 'NONE', *, *, #92, .F. ) ;
#137 = ADVANCED_FACE ( 'NONE', ( #76 ), #259, .T. ) ;
#138 = CARTESIAN_POINT ( 'NONE',  ( 0.02247750000000000095, 2.752699842783463224E-18, -2.752699842783463994E-18 ) ) ;
#139 = VERTEX_POINT ( 'NONE', #282 ) ;
#140 = VECTOR ( 'NONE', #241, 39.37007874015748143 ) ;
#141 = EDGE_CURVE ( 'NONE', #139, #159, #94, .T. ) ;
#142 = ORIENTED_EDGE ( 'NONE', *, *, #68, .F. ) ;
#143 = DIRECTION ( 'NONE',  ( 0.0000000000000000000, 0.0000000000000000000, -1.000000000000000000 ) ) ;
#144 = CIRCLE ( 'NONE', #24, 0.06250000000000002776 ) ;
#145 = CIRCLE ( 'NONE', #42, 0.02247750000000000095 ) ;
#146 = CARTESIAN_POINT ( 'NONE',  ( -0.06249999999999997918, 0.0000000000000000000, 0.3619788766256487045 ) ) ;
#147 = CYLINDRICAL_SURFACE ( 'NONE', #279, 0.02247750000000000095 ) ;
#148 = DIRECTION ( 'NONE',  ( -1.224646799147353454E-16, -0.0000000000000000000, -1.000000000000000000 ) ) ;
#149 = MECHANICAL_DESIGN_GEOMETRIC_PRESENTATION_REPRESENTATION (  '', ( #236 ), #223 ) ;
#150 = VERTEX_POINT ( 'NONE', #125 ) ;
#151 = CARTESIAN_POINT ( 'NONE',  ( 0.0000000000000000000, 0.0000000000000000000, 0.0000000000000000000 ) ) ;
#152 = EDGE_CURVE ( 'NONE', #293, #139, #106, .T. ) ;
#153 = CARTESIAN_POINT ( 'NONE',  ( 0.0000000000000000000, 0.0000000000000000000, 1.500000000000000222 ) ) ;
#154 =( CONVERSION_BASED_UNIT ( 'INCH', #270 ) LENGTH_UNIT ( ) NAMED_UNIT ( #174 ) );
#155 = DIRECTION ( 'NONE',  ( -0.0000000000000000000, -0.0000000000000000000, -1.000000000000000000 ) ) ;
#156 = VECTOR ( 'NONE', #227, 39.37007874015748143 ) ;
#157 = CARTESIAN_POINT ( 'NONE',  ( 1.653273178848927175E-17, 0.0000000000000000000, 0.1350000000000000089 ) ) ;
#158 = CYLINDRICAL_SURFACE ( 'NONE', #64, 0.06250000000000002776 ) ;
#159 = VERTEX_POINT ( 'NONE', #146 ) ;
#160 = CARTESIAN_POINT ( 'NONE',  ( 0.02247750000000000095, 2.752699842783463224E-18, 0.0000000000000000000 ) ) ;
#161 = LINE ( 'NONE', #138, #156 ) ;
#162 = LENGTH_MEASURE_WITH_UNIT ( LENGTH_MEASURE( 0.02539999999999999897 ), #243 );
#163 = ORIENTED_EDGE ( 'NONE', *, *, #124, .T. ) ;
#164 = SHAPE_DEFINITION_REPRESENTATION ( #5, #175 ) ;
#165 = ADVANCED_FACE ( 'NONE', ( #216 ), #255, .T. ) ;
#166 = UNCERTAINTY_MEASURE_WITH_UNIT (LENGTH_MEASURE( 1.000000000000000082E-05 ), #154, 'distance_accuracy_value', 'NONE');
#167 = FILL_AREA_STYLE_COLOUR ( '', #117 ) ;
#168 = PRESENTATION_LAYER_ASSIGNMENT (  '', '', ( #236 ) ) ;
#169 = VERTEX_POINT ( 'NONE', #107 ) ;
#170 = EDGE_CURVE ( 'NONE', #150, #293, #110, .T. ) ;
#171 = DIRECTION ( 'NONE',  ( 0.7071067811865462405, 8.659560562354916834E-17, -0.7071067811865486830 ) ) ;
#172 = DIRECTION ( 'NONE',  ( -1.000000000000000000, 0.0000000000000000000, 1.224646799147353454E-16 ) ) ;
#173 = CARTESIAN_POINT ( 'NONE',  ( 0.0000000000000000000, 0.0000000000000000000, 1.485000000000000764 ) ) ;
#174 = DIMENSIONAL_EXPONENTS ( 1.000000000000000000, 0.0000000000000000000, 0.0000000000000000000, 0.0000000000000000000, 0.0000000000000000000, 0.0000000000000000000, 0.0000000000000000000 ) ;
#175 = ADVANCED_BREP_SHAPE_REPRESENTATION ( 'Micro_RME-045-2X', ( #278, #95 ), #298 ) ;
#176 = DIRECTION ( 'NONE',  ( 1.000000000000000000, 0.0000000000000000000, 0.0000000000000000000 ) ) ;
#177 = DIRECTION ( 'NONE',  ( 0.0000000000000000000, 0.0000000000000000000, -1.000000000000000000 ) ) ;
#178 = ORIENTED_EDGE ( 'NONE', *, *, #130, .F. ) ;
#179 = VECTOR ( 'NONE', #283, 39.37007874015748143 ) ;
#180 = SURFACE_SIDE_STYLE ('',( #222 ) ) ;
#181 = ORIENTED_EDGE ( 'NONE', *, *, #48, .T. ) ;
#182 = DIRECTION ( 'NONE',  ( -1.000000000000000000, 0.0000000000000000000, 0.0000000000000000000 ) ) ;
#183 = ORIENTED_EDGE ( 'NONE', *, *, #75, .T. ) ;
#184 = CIRCLE ( 'NONE', #19, 0.04750000000000064587 ) ;
#185 = EDGE_CURVE ( 'NONE', #78, #256, #202, .T. ) ;
#186 = MECHANICAL_DESIGN_GEOMETRIC_PRESENTATION_REPRESENTATION (  '', ( #273 ), #85 ) ;
#187 = ORIENTED_EDGE ( 'NONE', *, *, #220, .T. ) ;
#188 =( CONVERSION_BASED_UNIT ( 'INCH', #189 ) LENGTH_UNIT ( ) NAMED_UNIT ( #271 ) );
#189 = LENGTH_MEASURE_WITH_UNIT ( LENGTH_MEASURE( 0.02539999999999999897 ), #121 );
#190 = VECTOR ( 'NONE', #99, 39.37007874015748143 ) ;
#191 = PRODUCT_CONTEXT ( 'NONE', #21, 'mechanical' ) ;
#192 = CYLINDRICAL_SURFACE ( 'NONE', #109, 0.02247750000000000095 ) ;
#193 = FILL_AREA_STYLE ('',( #167 ) ) ;
#194 = PRODUCT_DEFINITION_FORMATION_WITH_SPECIFIED_SOURCE ( 'ANY', '', #285, .NOT_KNOWN. ) ;
#195 = CARTESIAN_POINT ( 'NONE',  ( 0.0000000000000000000, 0.0000000000000000000, 1.500000000000000222 ) ) ;
#196 = ORIENTED_EDGE ( 'NONE', *, *, #130, .T. ) ;
#197 = LINE ( 'NONE', #284, #1 ) ;
#198 = ORIENTED_EDGE ( 'NONE', *, *, #170, .T. ) ;
#199 = CARTESIAN_POINT ( 'NONE',  ( 0.02247750000000001830, 0.0000000000000000000, 0.1350000000000000089 ) ) ;
#200 = AXIS2_PLACEMENT_3D ( 'NONE', #120, #277, #254 ) ;
#201 = DIRECTION ( 'NONE',  ( 1.000000000000000000, 0.0000000000000000000, 0.0000000000000000000 ) ) ;
#202 = LINE ( 'NONE', #79, #179 ) ;
#203 = DIRECTION ( 'NONE',  ( -0.1736481776669311639, 2.126576849575783008E-17, 0.9848077530122080203 ) ) ;
#204 = FILL_AREA_STYLE ('',( #132 ) ) ;
#205 = ORIENTED_EDGE ( 'NONE', *, *, #100, .F. ) ;
#206 = ORIENTED_EDGE ( 'NONE', *, *, #48, .F. ) ;
#207 = ORIENTED_EDGE ( 'NONE', *, *, #252, .F. ) ;
#208 =( LENGTH_UNIT ( ) NAMED_UNIT ( * ) SI_UNIT ( $, .METRE. ) );
#209 = ORIENTED_EDGE ( 'NONE', *, *, #185, .T. ) ;
#210 = EDGE_CURVE ( 'NONE', #150, #159, #197, .T. ) ;
#211 = ORIENTED_EDGE ( 'NONE', *, *, #31, .F. ) ;
#212 = CARTESIAN_POINT ( 'NONE',  ( 0.04750000000000064587, 5.817072295950006528E-18, 1.500000000000000222 ) ) ;
#213 =( NAMED_UNIT ( * ) SI_UNIT ( $, .STERADIAN. ) SOLID_ANGLE_UNIT ( ) );
#214 = DIRECTION ( 'NONE',  ( 1.000000000000000000, 0.0000000000000000000, -0.0000000000000000000 ) ) ;
#215 = VECTOR ( 'NONE', #203, 39.37007874015747433 ) ;
#216 = FACE_OUTER_BOUND ( 'NONE', #119, .T. ) ;
#217 = CARTESIAN_POINT ( 'NONE',  ( 0.0000000000000000000, 0.0000000000000000000, 1.500000000000000222 ) ) ;
#218 = DIRECTION ( 'NONE',  ( 1.000000000000000000, 0.0000000000000000000, 0.0000000000000000000 ) ) ;
#219 = DIRECTION ( 'NONE',  ( -1.000000000000000000, 0.0000000000000000000, 1.224646799147353454E-16 ) ) ;
#220 = EDGE_CURVE ( 'NONE', #29, #169, #27, .T. ) ;
#221 = CARTESIAN_POINT ( 'NONE',  ( -0.02247750000000000095, 0.0000000000000000000, 5.505399685566927988E-18 ) ) ;
#222 = SURFACE_STYLE_FILL_AREA ( #204 ) ;
#223 =( GEOMETRIC_REPRESENTATION_CONTEXT ( 3 ) GLOBAL_UNCERTAINTY_ASSIGNED_CONTEXT ( ( #71 ) ) GLOBAL_UNIT_ASSIGNED_CONTEXT ( ( #188, #74, #213 ) ) REPRESENTATION_CONTEXT ( 'NONE', 'WORKASPACE' ) );
#224 = PRESENTATION_STYLE_ASSIGNMENT (( #108 ) ) ;
#225 =( NAMED_UNIT ( * ) PLANE_ANGLE_UNIT ( ) SI_UNIT ( $, .RADIAN. ) );
#226 = ADVANCED_FACE ( 'NONE', ( #242 ), #147, .T. ) ;
#227 = DIRECTION ( 'NONE',  ( -1.224646799147353454E-16, -0.0000000000000000000, -1.000000000000000000 ) ) ;
#228 = PRESENTATION_STYLE_ASSIGNMENT (( #297 ) ) ;
#229 = PRODUCT_DEFINITION_CONTEXT ( 'detailed design', #239, 'design' ) ;
#230 = FACE_OUTER_BOUND ( 'NONE', #39, .T. ) ;
#231 = CIRCLE ( 'NONE', #290, 0.02247750000000000095 ) ;
#232 = AXIS2_PLACEMENT_3D ( 'NONE', #173, #177, #82 ) ;
#233 = VECTOR ( 'NONE', #11, 39.37007874015748854 ) ;
#234 = ADVANCED_FACE ( 'NONE', ( #57 ), #240, .F. ) ;
#235 = PLANE ( 'NONE',  #49 ) ;
#236 = STYLED_ITEM ( 'NONE', ( #228 ), #175 ) ;
#237 = ORIENTED_EDGE ( 'NONE', *, *, #287, .F. ) ;
#238 = CARTESIAN_POINT ( 'NONE',  ( 0.0000000000000000000, 0.0000000000000000000, 1.500000000000000222 ) ) ;
#239 = APPLICATION_CONTEXT ( 'automotive_design' ) ;
#240 = PLANE ( 'NONE',  #47 ) ;
#241 = DIRECTION ( 'NONE',  ( -0.0000000000000000000, -0.0000000000000000000, -1.000000000000000000 ) ) ;
#242 = FACE_OUTER_BOUND ( 'NONE', #274, .T. ) ;
#243 =( LENGTH_UNIT ( ) NAMED_UNIT ( * ) SI_UNIT ( $, .METRE. ) );
#244 = ORIENTED_EDGE ( 'NONE', *, *, #100, .T. ) ;
#245 = ADVANCED_FACE ( 'NONE', ( #258 ), #158, .T. ) ;
#246 = ORIENTED_EDGE ( 'NONE', *, *, #287, .T. ) ;
#247 = LINE ( 'NONE', #10, #215 ) ;
#248 = DIRECTION ( 'NONE',  ( -1.000000000000000000, 0.0000000000000000000, 0.0000000000000000000 ) ) ;
#249 = EDGE_LOOP ( 'NONE', ( #289, #268, #86, #237 ) ) ;
#250 = ORIENTED_EDGE ( 'NONE', *, *, #92, .T. ) ;
#251 = CIRCLE ( 'NONE', #36, 0.02247750000000000095 ) ;
#252 = EDGE_CURVE ( 'NONE', #78, #159, #247, .T. ) ;
#253 = DIRECTION ( 'NONE',  ( -1.224646799147353454E-16, -0.0000000000000000000, -1.000000000000000000 ) ) ;
#254 = DIRECTION ( 'NONE',  ( -1.000000000000000000, 0.0000000000000000000, 0.0000000000000000000 ) ) ;
#255 = CONICAL_SURFACE ( 'NONE', #134, 0.02247750000000000095, 0.1745329251994338637 ) ;
#256 = VERTEX_POINT ( 'NONE', #221 ) ;
#257 = LINE ( 'NONE', #51, #190 ) ;
#258 = FACE_OUTER_BOUND ( 'NONE', #102, .T. ) ;
#259 = CONICAL_SURFACE ( 'NONE', #260, 0.04750000000000064587, 0.7853981633974466137 ) ;
#260 = AXIS2_PLACEMENT_3D ( 'NONE', #195, #143, #54 ) ;
#261 = DIRECTION ( 'NONE',  ( 0.0000000000000000000, 0.0000000000000000000, 1.000000000000000000 ) ) ;
#262 = DIRECTION ( 'NONE',  ( -1.224646799147353454E-16, -0.0000000000000000000, -1.000000000000000000 ) ) ;
#263 = EDGE_CURVE ( 'NONE', #78, #135, #251, .T. ) ;
#264 = DIRECTION ( 'NONE',  ( -1.224646799147353454E-16, -0.0000000000000000000, -1.000000000000000000 ) ) ;
#265 = COLOUR_RGB ( '',0.7921568627450980005, 0.8196078431372548767, 0.9333333333333333481 ) ;
#266 =( NAMED_UNIT ( * ) SI_UNIT ( $, .STERADIAN. ) SOLID_ANGLE_UNIT ( ) );
#267 = CLOSED_SHELL ( 'NONE', ( #226, #52, #137, #269, #245, #77, #26, #165, #20, #234 ) ) ;
#268 = ORIENTED_EDGE ( 'NONE', *, *, #68, .T. ) ;
#269 = ADVANCED_FACE ( 'NONE', ( #113 ), #17, .T. ) ;
#270 = LENGTH_MEASURE_WITH_UNIT ( LENGTH_MEASURE( 0.02539999999999999897 ), #208 );
#271 = DIMENSIONAL_EXPONENTS ( 1.000000000000000000, 0.0000000000000000000, 0.0000000000000000000, 0.0000000000000000000, 0.0000000000000000000, 0.0000000000000000000, 0.0000000000000000000 ) ;
#272 = CIRCLE ( 'NONE', #104, 0.06250000000000002776 ) ;
#273 = STYLED_ITEM ( 'NONE', ( #224 ), #278 ) ;
#274 = EDGE_LOOP ( 'NONE', ( #123, #181, #205, #4 ) ) ;
#275 = CONICAL_SURFACE ( 'NONE', #200, 0.04750000000000064587, 0.7853981633974466137 ) ;
#276 = UNCERTAINTY_MEASURE_WITH_UNIT (LENGTH_MEASURE( 1.000000000000000082E-05 ), #115, 'distance_accuracy_value', 'NONE');
#277 = DIRECTION ( 'NONE',  ( 0.0000000000000000000, 0.0000000000000000000, -1.000000000000000000 ) ) ;
#278 = MANIFOLD_SOLID_BREP ( 'Cut-Revolve1', #267 ) ;
#279 = AXIS2_PLACEMENT_3D ( 'NONE', #30, #264, #172 ) ;
#280 = CARTESIAN_POINT ( 'NONE',  ( 0.0000000000000000000, 0.0000000000000000000, 1.500000000000000222 ) ) ;
#281 = DIRECTION ( 'NONE',  ( -0.0000000000000000000, -0.0000000000000000000, -1.000000000000000000 ) ) ;
#282 = CARTESIAN_POINT ( 'NONE',  ( 0.06250000000000006939, 7.654042494670963708E-18, 0.3619788766256487045 ) ) ;
#283 = DIRECTION ( 'NONE',  ( -1.224646799147353454E-16, -0.0000000000000000000, -1.000000000000000000 ) ) ;
#284 = CARTESIAN_POINT ( 'NONE',  ( -0.06250000000000002776, 0.0000000000000000000, 1.500000000000000222 ) ) ;
#285 = PRODUCT ( 'Micro_RME-045-2X', 'Micro_RME-045-2X', '', ( #191 ) ) ;
#286 = DIRECTION ( 'NONE',  ( -1.224646799147353454E-16, -0.0000000000000000000, -1.000000000000000000 ) ) ;
#287 = EDGE_CURVE ( 'NONE', #169, #150, #38, .T. ) ;
#288 = CARTESIAN_POINT ( 'NONE',  ( 0.06250000000000002776, 7.654042494670959086E-18, 1.485000000000000764 ) ) ;
#289 = ORIENTED_EDGE ( 'NONE', *, *, #220, .F. ) ;
#290 = AXIS2_PLACEMENT_3D ( 'NONE', #6, #262, #34 ) ;
#291 = CARTESIAN_POINT ( 'NONE',  ( 4.432962726185554212E-17, 0.0000000000000000000, 0.3619788766256487045 ) ) ;
#292 = DIRECTION ( 'NONE',  ( -1.224646799147353454E-16, -0.0000000000000000000, -1.000000000000000000 ) ) ;
#293 = VERTEX_POINT ( 'NONE', #288 ) ;
#294 = DIRECTION ( 'NONE',  ( 1.224646799147353454E-16, 0.0000000000000000000, 1.000000000000000000 ) ) ;
#295 = DIRECTION ( 'NONE',  ( -1.224646799147353454E-16, -0.0000000000000000000, -1.000000000000000000 ) ) ;
#296 = EDGE_CURVE ( 'NONE', #135, #78, #145, .T. ) ;
#297 = SURFACE_STYLE_USAGE ( .BOTH. , #22 ) ;
#298 =( GEOMETRIC_REPRESENTATION_CONTEXT ( 3 ) GLOBAL_UNCERTAINTY_ASSIGNED_CONTEXT ( ( #166 ) ) GLOBAL_UNIT_ASSIGNED_CONTEXT ( ( #154, #90, #66 ) ) REPRESENTATION_CONTEXT ( 'NONE', 'WORKASPACE' ) );
#299 = FACE_OUTER_BOUND ( 'NONE', #122, .T. ) ;
ENDSEC;
END-ISO-10303-21;
