ISO-10303-21;
HEADER;
FILE_DESCRIPTION (( 'STEP AP214' ),
    '1' );
FILE_NAME ('Micro_BMR-035-2.STEP',
    '2021-09-03T14:08:16',
    ( '' ),
    ( '' ),
    'SwSTEP 2.0',
    'SolidWorks 2020',
    '' );
FILE_SCHEMA (( 'AUTOMOTIVE_DESIGN' ));
ENDSEC;

DATA;
#1 = DIRECTION ( 'NONE',  ( -1.000000000000000000, 0.0000000000000000000, 1.220795792964510544E-16 ) ) ;
#2 = DIRECTION ( 'NONE',  ( -0.1736481776669311639, 2.126576849575783008E-17, 0.9848077530122080203 ) ) ;
#3 = FILL_AREA_STYLE ('',( #106 ) ) ;
#4 = ORIENTED_EDGE ( 'NONE', *, *, #11, .T. ) ;
#5 = STYLED_ITEM ( 'NONE', ( #150 ), #311 ) ;
#6 = ADVANCED_FACE ( 'NONE', ( #18 ), #261, .T. ) ;
#7 = DIRECTION ( 'NONE',  ( 1.000000000000000000, 0.0000000000000000000, 0.0000000000000000000 ) ) ;
#8 = ORIENTED_EDGE ( 'NONE', *, *, #309, .T. ) ;
#9 = EDGE_LOOP ( 'NONE', ( #162, #64, #314 ) ) ;
#10 = AXIS2_PLACEMENT_3D ( 'NONE', #277, #94, #297 ) ;
#11 = EDGE_CURVE ( 'NONE', #292, #37, #213, .T. ) ;
#12 = DIRECTION ( 'NONE',  ( 1.000000000000000000, 0.0000000000000000000, 0.0000000000000000000 ) ) ;
#13 = VECTOR ( 'NONE', #125, 39.37007874015748854 ) ;
#14 = DIRECTION ( 'NONE',  ( 0.0000000000000000000, 0.0000000000000000000, 1.000000000000000000 ) ) ;
#15 = AXIS2_PLACEMENT_3D ( 'NONE', #55, #306, #126 ) ;
#16 = SHAPE_DEFINITION_REPRESENTATION ( #32, #172 ) ;
#17 = DIRECTION ( 'NONE',  ( 1.000000000000000000, 0.0000000000000000000, -0.0000000000000000000 ) ) ;
#18 = FACE_OUTER_BOUND ( 'NONE', #108, .T. ) ;
#19 = ORIENTED_EDGE ( 'NONE', *, *, #127, .T. ) ;
#20 = MECHANICAL_DESIGN_GEOMETRIC_PRESENTATION_REPRESENTATION (  '', ( #5 ), #180 ) ;
#21 = CARTESIAN_POINT ( 'NONE',  ( 0.06250000000000002776, 7.654042494670959086E-18, 1.500000000000000222 ) ) ;
#22 = ADVANCED_FACE ( 'NONE', ( #236 ), #71, .T. ) ;
#23 = LINE ( 'NONE', #21, #66 ) ;
#24 = CARTESIAN_POINT ( 'NONE',  ( 0.01748250000000000151, 2.140988766609360157E-18, -2.140988766609360927E-18 ) ) ;
#25 = DIRECTION ( 'NONE',  ( 0.0000000000000000000, 1.000000000000000000, 0.0000000000000000000 ) ) ;
#26 = DIRECTION ( 'NONE',  ( 0.0000000000000000000, -1.000000000000000000, 0.0000000000000000000 ) ) ;
#27 = DIRECTION ( 'NONE',  ( -0.0000000000000000000, -0.0000000000000000000, -1.000000000000000000 ) ) ;
#28 = DIRECTION ( 'NONE',  ( 0.1736481776669313581, 0.0000000000000000000, 0.9848077530122077983 ) ) ;
#29 = CONICAL_SURFACE ( 'NONE', #248, 0.04750000000000064587, 0.7853981633974466137 ) ;
#30 = ORIENTED_EDGE ( 'NONE', *, *, #251, .F. ) ;
#31 = VERTEX_POINT ( 'NONE', #109 ) ;
#32 = PRODUCT_DEFINITION_SHAPE ( 'NONE', 'NONE',  #270 ) ;
#33 = DIRECTION ( 'NONE',  ( 0.0000000000000000000, 1.000000000000000000, 0.0000000000000000000 ) ) ;
#34 = ORIENTED_EDGE ( 'NONE', *, *, #174, .F. ) ;
#35 = AXIS2_PLACEMENT_3D ( 'NONE', #84, #165, #263 ) ;
#36 = ADVANCED_FACE ( 'NONE', ( #207 ), #212, .T. ) ;
#37 = VERTEX_POINT ( 'NONE', #310 ) ;
#38 = APPLICATION_PROTOCOL_DEFINITION ( 'draft international standard', 'automotive_design', 1998, #300 ) ;
#39 = DIRECTION ( 'NONE',  ( 1.224646799147353454E-16, 0.0000000000000000000, 1.000000000000000000 ) ) ;
#40 =( NAMED_UNIT ( * ) SI_UNIT ( $, .STERADIAN. ) SOLID_ANGLE_UNIT ( ) );
#41 = ORIENTED_EDGE ( 'NONE', *, *, #204, .F. ) ;
#42 = VERTEX_POINT ( 'NONE', #112 ) ;
#43 = APPLICATION_PROTOCOL_DEFINITION ( 'draft international standard', 'automotive_design', 1998, #267 ) ;
#44 = CARTESIAN_POINT ( 'NONE',  ( 2.140988766609360927E-18, 0.0000000000000000000, 0.01748250000000000151 ) ) ;
#45 = SPHERICAL_SURFACE ( 'NONE', #98, 0.01748250000000000151 ) ;
#46 = CONICAL_SURFACE ( 'NONE', #83, 0.01748250000000000151, 0.1745329251994338637 ) ;
#47 = UNCERTAINTY_MEASURE_WITH_UNIT (LENGTH_MEASURE( 1.000000000000000082E-05 ), #185, 'distance_accuracy_value', 'NONE');
#48 = DIRECTION ( 'NONE',  ( 0.0000000000000000000, 0.0000000000000000000, -1.000000000000000000 ) ) ;
#49 = CARTESIAN_POINT ( 'NONE',  ( 0.0000000000000000000, 0.0000000000000000000, 1.500000000000000222 ) ) ;
#50 = EDGE_CURVE ( 'NONE', #42, #292, #154, .T. ) ;
#51 = DIRECTION ( 'NONE',  ( -0.0000000000000000000, -0.0000000000000000000, -1.000000000000000000 ) ) ;
#52 = AXIS2_PLACEMENT_3D ( 'NONE', #44, #132, #116 ) ;
#53 = PRESENTATION_LAYER_ASSIGNMENT (  '', '', ( #59 ) ) ;
#54 = CARTESIAN_POINT ( 'NONE',  ( -0.01748250000000000151, 0.0000000000000000000, 2.140988766609360927E-18 ) ) ;
#55 = CARTESIAN_POINT ( 'NONE',  ( 4.412487276957844211E-17, 0.0000000000000000000, 0.3603069293146390351 ) ) ;
#56 = CARTESIAN_POINT ( 'NONE',  ( 0.01748250000000001539, 0.0000000000000000000, 0.1049999999999999961 ) ) ;
#57 = ADVANCED_FACE ( 'NONE', ( #295 ), #46, .T. ) ;
#58 = FACE_OUTER_BOUND ( 'NONE', #78, .T. ) ;
#59 = STYLED_ITEM ( 'NONE', ( #81 ), #172 ) ;
#60 =( CONVERSION_BASED_UNIT ( 'INCH', #250 ) LENGTH_UNIT ( ) NAMED_UNIT ( #266 ) );
#61 = CARTESIAN_POINT ( 'NONE',  ( 0.0000000000000000000, 0.0000000000000000000, 0.0000000000000000000 ) ) ;
#62 = ORIENTED_EDGE ( 'NONE', *, *, #229, .F. ) ;
#63 = ORIENTED_EDGE ( 'NONE', *, *, #99, .F. ) ;
#64 = ORIENTED_EDGE ( 'NONE', *, *, #174, .T. ) ;
#65 = ORIENTED_EDGE ( 'NONE', *, *, #199, .F. ) ;
#66 = VECTOR ( 'NONE', #51, 39.37007874015748143 ) ;
#67 = DIRECTION ( 'NONE',  ( 1.224646799147353454E-16, 0.0000000000000000000, 1.000000000000000000 ) ) ;
#68 = DIRECTION ( 'NONE',  ( 1.000000000000000000, 0.0000000000000000000, 0.0000000000000000000 ) ) ;
#69 = DIMENSIONAL_EXPONENTS ( 1.000000000000000000, 0.0000000000000000000, 0.0000000000000000000, 0.0000000000000000000, 0.0000000000000000000, 0.0000000000000000000, 0.0000000000000000000 ) ;
#70 = DIRECTION ( 'NONE',  ( 1.000000000000000000, 0.0000000000000000000, 0.0000000000000000000 ) ) ;
#71 = CONICAL_SURFACE ( 'NONE', #184, 0.01748250000000000151, 0.1745329251994338637 ) ;
#72 = PRESENTATION_LAYER_ASSIGNMENT (  '', '', ( #5 ) ) ;
#73 = DIRECTION ( 'NONE',  ( -1.224646799147353454E-16, -0.0000000000000000000, -1.000000000000000000 ) ) ;
#74 = CARTESIAN_POINT ( 'NONE',  ( 0.06250000000000006939, 7.654042494670963708E-18, 0.3603069293146390351 ) ) ;
#75 = LINE ( 'NONE', #246, #208 ) ;
#76 = DIRECTION ( 'NONE',  ( -1.000000000000000000, 0.0000000000000000000, 0.0000000000000000000 ) ) ;
#77 = FACE_OUTER_BOUND ( 'NONE', #191, .T. ) ;
#78 = EDGE_LOOP ( 'NONE', ( #30, #115, #225, #307 ) ) ;
#79 = DIRECTION ( 'NONE',  ( 0.0000000000000000000, 0.0000000000000000000, -1.000000000000000000 ) ) ;
#80 =( NAMED_UNIT ( * ) SI_UNIT ( $, .STERADIAN. ) SOLID_ANGLE_UNIT ( ) );
#81 = PRESENTATION_STYLE_ASSIGNMENT (( #89 ) ) ;
#82 = ORIENTED_EDGE ( 'NONE', *, *, #163, .T. ) ;
#83 = AXIS2_PLACEMENT_3D ( 'NONE', #188, #67, #168 ) ;
#84 = CARTESIAN_POINT ( 'NONE',  ( 0.0000000000000000000, 0.0000000000000000000, 0.0000000000000000000 ) ) ;
#85 = VECTOR ( 'NONE', #222, 39.37007874015748143 ) ;
#86 = CIRCLE ( 'NONE', #294, 0.01748250000000000151 ) ;
#87 = DIRECTION ( 'NONE',  ( 1.224646799147353207E-16, 1.000000000000000000, -0.0000000000000000000 ) ) ;
#88 = ORIENTED_EDGE ( 'NONE', *, *, #50, .T. ) ;
#89 = SURFACE_STYLE_USAGE ( .BOTH. , #315 ) ;
#90 = DIRECTION ( 'NONE',  ( -1.000000000000000000, 1.224646799147352961E-16, 0.0000000000000000000 ) ) ;
#91 = CIRCLE ( 'NONE', #15, 0.06250000000000002776 ) ;
#92 = EDGE_CURVE ( 'NONE', #318, #93, #226, .T. ) ;
#93 = VERTEX_POINT ( 'NONE', #173 ) ;
#94 = DIRECTION ( 'NONE',  ( 0.0000000000000000000, 0.0000000000000000000, -1.000000000000000000 ) ) ;
#95 = FACE_OUTER_BOUND ( 'NONE', #258, .T. ) ;
#96 = FACE_OUTER_BOUND ( 'NONE', #9, .T. ) ;
#97 = CARTESIAN_POINT ( 'NONE',  ( -0.04750000000000064587, 0.0000000000000000000, 1.500000000000000222 ) ) ;
#98 = AXIS2_PLACEMENT_3D ( 'NONE', #145, #25, #70 ) ;
#99 = EDGE_CURVE ( 'NONE', #93, #292, #146, .T. ) ;
#100 = SURFACE_STYLE_USAGE ( .BOTH. , #181 ) ;
#101 = ORIENTED_EDGE ( 'NONE', *, *, #209, .T. ) ;
#102 = CYLINDRICAL_SURFACE ( 'NONE', #227, 0.06250000000000002776 ) ;
#103 = ORIENTED_EDGE ( 'NONE', *, *, #245, .T. ) ;
#104 = SURFACE_STYLE_FILL_AREA ( #3 ) ;
#105 = ORIENTED_EDGE ( 'NONE', *, *, #163, .F. ) ;
#106 = FILL_AREA_STYLE_COLOUR ( '', #130 ) ;
#107 = UNCERTAINTY_MEASURE_WITH_UNIT (LENGTH_MEASURE( 1.000000000000000082E-05 ), #178, 'distance_accuracy_value', 'NONE');
#108 = EDGE_LOOP ( 'NONE', ( #183, #140, #304, #63 ) ) ;
#109 = CARTESIAN_POINT ( 'NONE',  ( 0.04750000000000064587, 6.735557395310483192E-18, 1.500000000000000222 ) ) ;
#110 = ADVANCED_FACE ( 'NONE', ( #122 ), #198, .T. ) ;
#111 = AXIS2_PLACEMENT_3D ( 'NONE', #187, #87, #90 ) ;
#112 = CARTESIAN_POINT ( 'NONE',  ( 3.211483149914040620E-18, 0.0000000000000000000, 0.0000000000000000000 ) ) ;
#113 = CIRCLE ( 'NONE', #138, 0.06250000000000002776 ) ;
#114 = FILL_AREA_STYLE ('',( #182 ) ) ;
#115 = ORIENTED_EDGE ( 'NONE', *, *, #120, .T. ) ;
#116 = DIRECTION ( 'NONE',  ( -1.000000000000000000, 0.0000000000000000000, 1.220795792964510544E-16 ) ) ;
#117 = ADVANCED_FACE ( 'NONE', ( #95 ), #45, .T. ) ;
#118 = ORIENTED_EDGE ( 'NONE', *, *, #275, .T. ) ;
#119 = CARTESIAN_POINT ( 'NONE',  ( 0.0000000000000000000, 0.0000000000000000000, 1.485000000000000764 ) ) ;
#120 = EDGE_CURVE ( 'NONE', #31, #179, #124, .T. ) ;
#121 = DIRECTION ( 'NONE',  ( 0.0000000000000000000, 0.0000000000000000000, -1.000000000000000000 ) ) ;
#122 = FACE_OUTER_BOUND ( 'NONE', #190, .T. ) ;
#123 = VECTOR ( 'NONE', #28, 39.37007874015748143 ) ;
#124 = LINE ( 'NONE', #272, #141 ) ;
#125 = DIRECTION ( 'NONE',  ( -0.7071067811865462405, 0.0000000000000000000, -0.7071067811865486830 ) ) ;
#126 = DIRECTION ( 'NONE',  ( 1.000000000000000000, 0.0000000000000000000, 0.0000000000000000000 ) ) ;
#127 = EDGE_CURVE ( 'NONE', #160, #156, #249, .T. ) ;
#128 =( NAMED_UNIT ( * ) PLANE_ANGLE_UNIT ( ) SI_UNIT ( $, .RADIAN. ) );
#129 = CARTESIAN_POINT ( 'NONE',  ( 0.0000000000000000000, 0.0000000000000000000, 1.500000000000000222 ) ) ;
#130 = COLOUR_RGB ( '',0.7921568627450980005, 0.8196078431372548767, 0.9333333333333333481 ) ;
#131 = ORIENTED_EDGE ( 'NONE', *, *, #153, .T. ) ;
#132 = DIRECTION ( 'NONE',  ( 1.224646799147353454E-16, 0.0000000000000000000, 1.000000000000000000 ) ) ;
#133 = EDGE_CURVE ( 'NONE', #160, #31, #134, .T. ) ;
#134 = CIRCLE ( 'NONE', #158, 0.04750000000000064587 ) ;
#135 = EDGE_LOOP ( 'NONE', ( #320, #305, #19, #65 ) ) ;
#136 = AXIS2_PLACEMENT_3D ( 'NONE', #237, #14, #17 ) ;
#137 = EDGE_LOOP ( 'NONE', ( #105, #231, #8, #118 ) ) ;
#138 = AXIS2_PLACEMENT_3D ( 'NONE', #296, #276, #68 ) ;
#139 = DIMENSIONAL_EXPONENTS ( 1.000000000000000000, 0.0000000000000000000, 0.0000000000000000000, 0.0000000000000000000, 0.0000000000000000000, 0.0000000000000000000, 0.0000000000000000000 ) ;
#140 = ORIENTED_EDGE ( 'NONE', *, *, #229, .T. ) ;
#141 = VECTOR ( 'NONE', #196, 39.37007874015748854 ) ;
#142 = DIRECTION ( 'NONE',  ( -1.224646799147353454E-16, -0.0000000000000000000, -1.000000000000000000 ) ) ;
#143 = CARTESIAN_POINT ( 'NONE',  ( 0.0000000000000000000, 0.0000000000000000000, 1.500000000000000222 ) ) ;
#144 = CIRCLE ( 'NONE', #228, 0.04750000000000064587 ) ;
#145 = CARTESIAN_POINT ( 'NONE',  ( 2.140988766609360927E-18, 0.0000000000000000000, 0.01748250000000000151 ) ) ;
#146 = LINE ( 'NONE', #54, #312 ) ;
#147 = CONICAL_SURFACE ( 'NONE', #192, 0.04750000000000064587, 0.7853981633974466137 ) ;
#148 = DIRECTION ( 'NONE',  ( -1.224646799147353454E-16, -0.0000000000000000000, -1.000000000000000000 ) ) ;
#149 = EDGE_CURVE ( 'NONE', #37, #292, #221, .T. ) ;
#150 = PRESENTATION_STYLE_ASSIGNMENT (( #100 ) ) ;
#151 = FACE_OUTER_BOUND ( 'NONE', #164, .T. ) ;
#152 = ORIENTED_EDGE ( 'NONE', *, *, #309, .F. ) ;
#153 = EDGE_CURVE ( 'NONE', #156, #179, #298, .T. ) ;
#154 = CIRCLE ( 'NONE', #111, 0.01748250000000000151 ) ;
#155 = CARTESIAN_POINT ( 'NONE',  ( 0.0000000000000000000, 0.0000000000000000000, 1.500000000000000222 ) ) ;
#156 = VERTEX_POINT ( 'NONE', #299 ) ;
#157 = DIRECTION ( 'NONE',  ( -1.000000000000000000, 0.0000000000000000000, 0.0000000000000000000 ) ) ;
#158 = AXIS2_PLACEMENT_3D ( 'NONE', #143, #244, #220 ) ;
#159 = CARTESIAN_POINT ( 'NONE',  ( -0.01748249999999999804, 0.0000000000000000000, 0.01748250000000000151 ) ) ;
#160 = VERTEX_POINT ( 'NONE', #97 ) ;
#161 = AXIS2_PLACEMENT_3D ( 'NONE', #171, #26, #48 ) ;
#162 = ORIENTED_EDGE ( 'NONE', *, *, #50, .F. ) ;
#163 = EDGE_CURVE ( 'NONE', #93, #242, #175, .T. ) ;
#164 = EDGE_LOOP ( 'NONE', ( #131, #317, #283, #202 ) ) ;
#165 = DIRECTION ( 'NONE',  ( -1.224646799147353454E-16, -0.0000000000000000000, -1.000000000000000000 ) ) ;
#166 = ORIENTED_EDGE ( 'NONE', *, *, #92, .T. ) ;
#167 = CIRCLE ( 'NONE', #161, 0.01748250000000000151 ) ;
#168 = DIRECTION ( 'NONE',  ( 1.000000000000000000, 0.0000000000000000000, 0.0000000000000000000 ) ) ;
#169 = DIRECTION ( 'NONE',  ( 0.0000000000000000000, 0.0000000000000000000, 1.000000000000000000 ) ) ;
#170 = CARTESIAN_POINT ( 'NONE',  ( -0.04750000000000064587, 0.0000000000000000000, 1.500000000000000222 ) ) ;
#171 = CARTESIAN_POINT ( 'NONE',  ( 2.140988766609360927E-18, 0.0000000000000000000, 0.01748250000000000151 ) ) ;
#172 = ADVANCED_BREP_SHAPE_REPRESENTATION ( 'Micro_BMR-035-2', ( #311, #219 ), #324 ) ;
#173 = CARTESIAN_POINT ( 'NONE',  ( -0.01748249999999999110, 4.897515630640160392E-18, 0.1049999999999999961 ) ) ;
#174 = EDGE_CURVE ( 'NONE', #42, #37, #167, .T. ) ;
#175 = LINE ( 'NONE', #200, #319 ) ;
#176 = AXIS2_PLACEMENT_3D ( 'NONE', #129, #308, #177 ) ;
#177 = DIRECTION ( 'NONE',  ( -1.000000000000000000, 0.0000000000000000000, 0.0000000000000000000 ) ) ;
#178 =( CONVERSION_BASED_UNIT ( 'INCH', #302 ) LENGTH_UNIT ( ) NAMED_UNIT ( #139 ) );
#179 = VERTEX_POINT ( 'NONE', #243 ) ;
#180 =( GEOMETRIC_REPRESENTATION_CONTEXT ( 3 ) GLOBAL_UNCERTAINTY_ASSIGNED_CONTEXT ( ( #107 ) ) GLOBAL_UNIT_ASSIGNED_CONTEXT ( ( #178, #230, #80 ) ) REPRESENTATION_CONTEXT ( 'NONE', 'WORKASPACE' ) );
#181 = SURFACE_SIDE_STYLE ('',( #104 ) ) ;
#182 = FILL_AREA_STYLE_COLOUR ( '', #234 ) ;
#183 = ORIENTED_EDGE ( 'NONE', *, *, #204, .T. ) ;
#184 = AXIS2_PLACEMENT_3D ( 'NONE', #293, #39, #12 ) ;
#185 =( CONVERSION_BASED_UNIT ( 'INCH', #189 ) LENGTH_UNIT ( ) NAMED_UNIT ( #69 ) );
#186 = PRODUCT_DEFINITION_FORMATION_WITH_SPECIFIED_SOURCE ( 'ANY', '', #316, .NOT_KNOWN. ) ;
#187 = CARTESIAN_POINT ( 'NONE',  ( 2.140988766609360927E-18, 0.0000000000000000000, 0.01748250000000000151 ) ) ;
#188 = CARTESIAN_POINT ( 'NONE',  ( 1.285879139104721102E-17, 0.0000000000000000000, 0.1049999999999999961 ) ) ;
#189 = LENGTH_MEASURE_WITH_UNIT ( LENGTH_MEASURE( 0.02539999999999999897 ), #205 );
#190 = EDGE_LOOP ( 'NONE', ( #62, #166, #269, #4 ) ) ;
#191 = EDGE_LOOP ( 'NONE', ( #265, #210, #101, #241 ) ) ;
#192 = AXIS2_PLACEMENT_3D ( 'NONE', #155, #79, #201 ) ;
#193 = DIRECTION ( 'NONE',  ( -0.0000000000000000000, -0.0000000000000000000, -1.000000000000000000 ) ) ;
#194 = EDGE_CURVE ( 'NONE', #179, #262, #23, .T. ) ;
#195 = CARTESIAN_POINT ( 'NONE',  ( 0.0000000000000000000, 0.0000000000000000000, 0.0000000000000000000 ) ) ;
#196 = DIRECTION ( 'NONE',  ( 0.7071067811865462405, 8.659560562354916834E-17, -0.7071067811865486830 ) ) ;
#197 = AXIS2_PLACEMENT_3D ( 'NONE', #239, #142, #211 ) ;
#198 = CYLINDRICAL_SURFACE ( 'NONE', #271, 0.01748250000000000151 ) ;
#199 = EDGE_CURVE ( 'NONE', #179, #156, #203, .T. ) ;
#200 = CARTESIAN_POINT ( 'NONE',  ( -0.01748249999999999110, 2.140988766609360927E-18, 0.1049999999999999961 ) ) ;
#201 = DIRECTION ( 'NONE',  ( -1.000000000000000000, 0.0000000000000000000, 0.0000000000000000000 ) ) ;
#202 = ORIENTED_EDGE ( 'NONE', *, *, #209, .F. ) ;
#203 = CIRCLE ( 'NONE', #284, 0.06250000000000002776 ) ;
#204 = EDGE_CURVE ( 'NONE', #93, #318, #86, .T. ) ;
#205 =( LENGTH_UNIT ( ) NAMED_UNIT ( * ) SI_UNIT ( $, .METRE. ) );
#206 = UNCERTAINTY_MEASURE_WITH_UNIT (LENGTH_MEASURE( 1.000000000000000082E-05 ), #60, 'distance_accuracy_value', 'NONE');
#207 = FACE_OUTER_BOUND ( 'NONE', #287, .T. ) ;
#208 = VECTOR ( 'NONE', #193, 39.37007874015748143 ) ;
#209 = EDGE_CURVE ( 'NONE', #156, #242, #75, .T. ) ;
#210 = ORIENTED_EDGE ( 'NONE', *, *, #199, .T. ) ;
#211 = DIRECTION ( 'NONE',  ( -1.000000000000000000, 0.0000000000000000000, 0.0000000000000000000 ) ) ;
#212 = PLANE ( 'NONE',  #136 ) ;
#213 = CIRCLE ( 'NONE', #52, 0.01748250000000000151 ) ;
#214 = ORIENTED_EDGE ( 'NONE', *, *, #149, .F. ) ;
#215 = CARTESIAN_POINT ( 'NONE',  ( -0.06249999999999997918, 0.0000000000000000000, 0.3603069293146390351 ) ) ;
#216 = DIRECTION ( 'NONE',  ( 1.000000000000000000, 0.0000000000000000000, 0.0000000000000000000 ) ) ;
#217 = DIRECTION ( 'NONE',  ( 1.000000000000000000, 0.0000000000000000000, 0.0000000000000000000 ) ) ;
#218 = PRODUCT_RELATED_PRODUCT_CATEGORY ( 'part', '', ( #316 ) ) ;
#219 = AXIS2_PLACEMENT_3D ( 'NONE', #61, #264, #260 ) ;
#220 = DIRECTION ( 'NONE',  ( 1.000000000000000000, 0.0000000000000000000, 0.0000000000000000000 ) ) ;
#221 = CIRCLE ( 'NONE', #223, 0.01748250000000000151 ) ;
#222 = DIRECTION ( 'NONE',  ( -1.224646799147353454E-16, -0.0000000000000000000, -1.000000000000000000 ) ) ;
#223 = AXIS2_PLACEMENT_3D ( 'NONE', #274, #247, #1 ) ;
#224 = LINE ( 'NONE', #56, #123 ) ;
#225 = ORIENTED_EDGE ( 'NONE', *, *, #153, .F. ) ;
#226 = CIRCLE ( 'NONE', #197, 0.01748250000000000151 ) ;
#227 = AXIS2_PLACEMENT_3D ( 'NONE', #235, #27, #76 ) ;
#228 = AXIS2_PLACEMENT_3D ( 'NONE', #49, #169, #217 ) ;
#229 = EDGE_CURVE ( 'NONE', #318, #37, #278, .T. ) ;
#230 =( NAMED_UNIT ( * ) PLANE_ANGLE_UNIT ( ) SI_UNIT ( $, .RADIAN. ) );
#231 = ORIENTED_EDGE ( 'NONE', *, *, #92, .F. ) ;
#232 = SPHERICAL_SURFACE ( 'NONE', #273, 0.01748250000000000151 ) ;
#233 = CARTESIAN_POINT ( 'NONE',  ( 0.01748250000000001539, 0.0000000000000000000, 0.1049999999999999961 ) ) ;
#234 = COLOUR_RGB ( '',0.7921568627450980005, 0.8196078431372548767, 0.9333333333333333481 ) ;
#235 = CARTESIAN_POINT ( 'NONE',  ( 0.0000000000000000000, 0.0000000000000000000, 1.500000000000000222 ) ) ;
#236 = FACE_OUTER_BOUND ( 'NONE', #137, .T. ) ;
#237 = CARTESIAN_POINT ( 'NONE',  ( 0.0000000000000000000, 0.0000000000000000000, 1.500000000000000222 ) ) ;
#238 =( GEOMETRIC_REPRESENTATION_CONTEXT ( 3 ) GLOBAL_UNCERTAINTY_ASSIGNED_CONTEXT ( ( #47 ) ) GLOBAL_UNIT_ASSIGNED_CONTEXT ( ( #185, #288, #40 ) ) REPRESENTATION_CONTEXT ( 'NONE', 'WORKASPACE' ) );
#239 = CARTESIAN_POINT ( 'NONE',  ( 1.285879139104721102E-17, 0.0000000000000000000, 0.1049999999999999961 ) ) ;
#240 =( NAMED_UNIT ( * ) SI_UNIT ( $, .STERADIAN. ) SOLID_ANGLE_UNIT ( ) );
#241 = ORIENTED_EDGE ( 'NONE', *, *, #275, .F. ) ;
#242 = VERTEX_POINT ( 'NONE', #215 ) ;
#243 = CARTESIAN_POINT ( 'NONE',  ( 0.06250000000000002776, 7.654042494670959086E-18, 1.485000000000000764 ) ) ;
#244 = DIRECTION ( 'NONE',  ( 0.0000000000000000000, 0.0000000000000000000, 1.000000000000000000 ) ) ;
#245 = EDGE_CURVE ( 'NONE', #242, #262, #113, .T. ) ;
#246 = CARTESIAN_POINT ( 'NONE',  ( -0.06250000000000002776, 0.0000000000000000000, 1.500000000000000222 ) ) ;
#247 = DIRECTION ( 'NONE',  ( 1.224646799147353454E-16, 0.0000000000000000000, 1.000000000000000000 ) ) ;
#248 = AXIS2_PLACEMENT_3D ( 'NONE', #282, #252, #157 ) ;
#249 = LINE ( 'NONE', #170, #13 ) ;
#250 = LENGTH_MEASURE_WITH_UNIT ( LENGTH_MEASURE( 0.02539999999999999897 ), #286 );
#251 = EDGE_CURVE ( 'NONE', #31, #160, #144, .T. ) ;
#252 = DIRECTION ( 'NONE',  ( 0.0000000000000000000, 0.0000000000000000000, -1.000000000000000000 ) ) ;
#253 = ORIENTED_EDGE ( 'NONE', *, *, #133, .T. ) ;
#254 =( LENGTH_UNIT ( ) NAMED_UNIT ( * ) SI_UNIT ( $, .METRE. ) );
#255 = ORIENTED_EDGE ( 'NONE', *, *, #251, .T. ) ;
#256 = ADVANCED_FACE ( 'NONE', ( #96 ), #232, .T. ) ;
#257 = CARTESIAN_POINT ( 'NONE',  ( 2.140988766609360927E-18, 0.0000000000000000000, 0.01748250000000000151 ) ) ;
#258 = EDGE_LOOP ( 'NONE', ( #34, #88, #214 ) ) ;
#259 = PRODUCT_DEFINITION_CONTEXT ( 'detailed design', #300, 'design' ) ;
#260 = DIRECTION ( 'NONE',  ( 1.000000000000000000, 0.0000000000000000000, 0.0000000000000000000 ) ) ;
#261 = CYLINDRICAL_SURFACE ( 'NONE', #35, 0.01748250000000000151 ) ;
#262 = VERTEX_POINT ( 'NONE', #74 ) ;
#263 = DIRECTION ( 'NONE',  ( -1.000000000000000000, 0.0000000000000000000, 1.224646799147353454E-16 ) ) ;
#264 = DIRECTION ( 'NONE',  ( 0.0000000000000000000, 0.0000000000000000000, 1.000000000000000000 ) ) ;
#265 = ORIENTED_EDGE ( 'NONE', *, *, #194, .F. ) ;
#266 = DIMENSIONAL_EXPONENTS ( 1.000000000000000000, 0.0000000000000000000, 0.0000000000000000000, 0.0000000000000000000, 0.0000000000000000000, 0.0000000000000000000, 0.0000000000000000000 ) ;
#267 = APPLICATION_CONTEXT ( 'automotive_design' ) ;
#268 = ADVANCED_FACE ( 'NONE', ( #151 ), #102, .T. ) ;
#269 = ORIENTED_EDGE ( 'NONE', *, *, #99, .T. ) ;
#270 = PRODUCT_DEFINITION ( 'UNKNOWN', '', #186, #259 ) ;
#271 = AXIS2_PLACEMENT_3D ( 'NONE', #195, #148, #321 ) ;
#272 = CARTESIAN_POINT ( 'NONE',  ( 0.04750000000000064587, 5.817072295950006528E-18, 1.500000000000000222 ) ) ;
#273 = AXIS2_PLACEMENT_3D ( 'NONE', #257, #33, #7 ) ;
#274 = CARTESIAN_POINT ( 'NONE',  ( 2.140988766609360927E-18, 0.0000000000000000000, 0.01748250000000000151 ) ) ;
#275 = EDGE_CURVE ( 'NONE', #262, #242, #91, .T. ) ;
#276 = DIRECTION ( 'NONE',  ( -1.224646799147353454E-16, -0.0000000000000000000, -1.000000000000000000 ) ) ;
#277 = CARTESIAN_POINT ( 'NONE',  ( 0.0000000000000000000, 0.0000000000000000000, 1.485000000000000764 ) ) ;
#278 = LINE ( 'NONE', #24, #85 ) ;
#279 = MECHANICAL_DESIGN_GEOMETRIC_PRESENTATION_REPRESENTATION (  '', ( #59 ), #238 ) ;
#280 = CYLINDRICAL_SURFACE ( 'NONE', #176, 0.06250000000000002776 ) ;
#281 = ADVANCED_FACE ( 'NONE', ( #58 ), #29, .T. ) ;
#282 = CARTESIAN_POINT ( 'NONE',  ( 0.0000000000000000000, 0.0000000000000000000, 1.500000000000000222 ) ) ;
#283 = ORIENTED_EDGE ( 'NONE', *, *, #245, .F. ) ;
#284 = AXIS2_PLACEMENT_3D ( 'NONE', #119, #121, #216 ) ;
#285 = ADVANCED_FACE ( 'NONE', ( #303 ), #147, .T. ) ;
#286 =( LENGTH_UNIT ( ) NAMED_UNIT ( * ) SI_UNIT ( $, .METRE. ) );
#287 = EDGE_LOOP ( 'NONE', ( #253, #255 ) ) ;
#288 =( NAMED_UNIT ( * ) PLANE_ANGLE_UNIT ( ) SI_UNIT ( $, .RADIAN. ) );
#289 = EDGE_LOOP ( 'NONE', ( #41, #82, #103, #152 ) ) ;
#290 = ADVANCED_FACE ( 'NONE', ( #77 ), #280, .T. ) ;
#291 = SURFACE_STYLE_FILL_AREA ( #114 ) ;
#292 = VERTEX_POINT ( 'NONE', #159 ) ;
#293 = CARTESIAN_POINT ( 'NONE',  ( 1.285879139104721102E-17, 0.0000000000000000000, 0.1049999999999999961 ) ) ;
#294 = AXIS2_PLACEMENT_3D ( 'NONE', #322, #325, #301 ) ;
#295 = FACE_OUTER_BOUND ( 'NONE', #289, .T. ) ;
#296 = CARTESIAN_POINT ( 'NONE',  ( 4.412487276957844211E-17, 0.0000000000000000000, 0.3603069293146390351 ) ) ;
#297 = DIRECTION ( 'NONE',  ( 1.000000000000000000, 0.0000000000000000000, 0.0000000000000000000 ) ) ;
#298 = CIRCLE ( 'NONE', #10, 0.06250000000000002776 ) ;
#299 = CARTESIAN_POINT ( 'NONE',  ( -0.06250000000000002776, 0.0000000000000000000, 1.485000000000000764 ) ) ;
#300 = APPLICATION_CONTEXT ( 'automotive_design' ) ;
#301 = DIRECTION ( 'NONE',  ( -1.000000000000000000, 0.0000000000000000000, 0.0000000000000000000 ) ) ;
#302 = LENGTH_MEASURE_WITH_UNIT ( LENGTH_MEASURE( 0.02539999999999999897 ), #254 );
#303 = FACE_OUTER_BOUND ( 'NONE', #135, .T. ) ;
#304 = ORIENTED_EDGE ( 'NONE', *, *, #149, .T. ) ;
#305 = ORIENTED_EDGE ( 'NONE', *, *, #133, .F. ) ;
#306 = DIRECTION ( 'NONE',  ( -1.224646799147353454E-16, -0.0000000000000000000, -1.000000000000000000 ) ) ;
#307 = ORIENTED_EDGE ( 'NONE', *, *, #127, .F. ) ;
#308 = DIRECTION ( 'NONE',  ( -0.0000000000000000000, -0.0000000000000000000, -1.000000000000000000 ) ) ;
#309 = EDGE_CURVE ( 'NONE', #318, #262, #224, .T. ) ;
#310 = CARTESIAN_POINT ( 'NONE',  ( 0.01748250000000000151, 2.140988766609360157E-18, 0.01748249999999999804 ) ) ;
#311 = MANIFOLD_SOLID_BREP ( 'Fillet1', #323 ) ;
#312 = VECTOR ( 'NONE', #73, 39.37007874015748143 ) ;
#313 = PRODUCT_CONTEXT ( 'NONE', #267, 'mechanical' ) ;
#314 = ORIENTED_EDGE ( 'NONE', *, *, #11, .F. ) ;
#315 = SURFACE_SIDE_STYLE ('',( #291 ) ) ;
#316 = PRODUCT ( 'Micro_BMR-035-2', 'Micro_BMR-035-2', '', ( #313 ) ) ;
#317 = ORIENTED_EDGE ( 'NONE', *, *, #194, .T. ) ;
#318 = VERTEX_POINT ( 'NONE', #233 ) ;
#319 = VECTOR ( 'NONE', #2, 39.37007874015747433 ) ;
#320 = ORIENTED_EDGE ( 'NONE', *, *, #120, .F. ) ;
#321 = DIRECTION ( 'NONE',  ( -1.000000000000000000, 0.0000000000000000000, 1.224646799147353454E-16 ) ) ;
#322 = CARTESIAN_POINT ( 'NONE',  ( 1.285879139104721102E-17, 0.0000000000000000000, 0.1049999999999999961 ) ) ;
#323 = CLOSED_SHELL ( 'NONE', ( #117, #6, #57, #281, #268, #290, #36, #285, #22, #110, #256 ) ) ;
#324 =( GEOMETRIC_REPRESENTATION_CONTEXT ( 3 ) GLOBAL_UNCERTAINTY_ASSIGNED_CONTEXT ( ( #206 ) ) GLOBAL_UNIT_ASSIGNED_CONTEXT ( ( #60, #128, #240 ) ) REPRESENTATION_CONTEXT ( 'NONE', 'WORKASPACE' ) );
#325 = DIRECTION ( 'NONE',  ( -1.224646799147353454E-16, -0.0000000000000000000, -1.000000000000000000 ) ) ;
ENDSEC;
END-ISO-10303-21;
