ISO-10303-21;
HEADER;
FILE_DESCRIPTION (( 'STEP AP214' ),
    '1' );
FILE_NAME ('Micro_RME-023-2X.STEP',
    '2021-09-01T22:54:31',
    ( '' ),
    ( '' ),
    'SwSTEP 2.0',
    'SolidWorks 2020',
    '' );
FILE_SCHEMA (( 'AUTOMOTIVE_DESIGN' ));
ENDSEC;

DATA;
#1 = CYLINDRICAL_SURFACE ( 'NONE', #199, 0.01148849999999999871 ) ;
#2 = CARTESIAN_POINT ( 'NONE',  ( 0.06250000000000002776, 7.654042494670959086E-18, 1.485000000000000764 ) ) ;
#3 = CARTESIAN_POINT ( 'NONE',  ( 8.450062914116739989E-18, 0.0000000000000000000, 0.06900000000000000577 ) ) ;
#4 = FILL_AREA_STYLE_COLOUR ( '', #6 ) ;
#5 = CIRCLE ( 'NONE', #186, 0.01148850000000000218 ) ;
#6 = COLOUR_RGB ( '',0.7921568627450980005, 0.8196078431372548767, 0.9333333333333333481 ) ;
#7 = ORIENTED_EDGE ( 'NONE', *, *, #11, .F. ) ;
#8 = ORIENTED_EDGE ( 'NONE', *, *, #174, .T. ) ;
#9 = EDGE_LOOP ( 'NONE', ( #7, #262, #221, #244 ) ) ;
#10 = AXIS2_PLACEMENT_3D ( 'NONE', #233, #17, #33 ) ;
#11 = EDGE_CURVE ( 'NONE', #183, #225, #212, .T. ) ;
#12 = ORIENTED_EDGE ( 'NONE', *, *, #52, .F. ) ;
#13 = CYLINDRICAL_SURFACE ( 'NONE', #124, 0.01148849999999999871 ) ;
#14 = ORIENTED_EDGE ( 'NONE', *, *, #133, .T. ) ;
#15 = DIRECTION ( 'NONE',  ( 0.0000000000000000000, 0.0000000000000000000, 1.000000000000000000 ) ) ;
#16 = STYLED_ITEM ( 'NONE', ( #138 ), #232 ) ;
#17 = DIRECTION ( 'NONE',  ( -1.224646799147353454E-16, -0.0000000000000000000, -1.000000000000000000 ) ) ;
#18 = PLANE ( 'NONE',  #192 ) ;
#19 = CARTESIAN_POINT ( 'NONE',  ( 0.0000000000000000000, 0.0000000000000000000, 1.500000000000000222 ) ) ;
#20 = AXIS2_PLACEMENT_3D ( 'NONE', #230, #165, #35 ) ;
#21 = DIRECTION ( 'NONE',  ( -0.7071067811865462405, 0.0000000000000000000, -0.7071067811865486830 ) ) ;
#22 = AXIS2_PLACEMENT_3D ( 'NONE', #101, #235, #273 ) ;
#23 = ADVANCED_FACE ( 'NONE', ( #251 ), #95, .T. ) ;
#24 = CARTESIAN_POINT ( 'NONE',  ( -0.01148849999999999351, 4.530488984935698628E-18, 0.06900000000000000577 ) ) ;
#25 = CARTESIAN_POINT ( 'NONE',  ( -0.01148849999999999871, 0.0000000000000000000, 1.406935475200436823E-18 ) ) ;
#26 = AXIS2_PLACEMENT_3D ( 'NONE', #253, #270, #96 ) ;
#27 = EDGE_LOOP ( 'NONE', ( #266, #209, #81, #41 ) ) ;
#28 = VERTEX_POINT ( 'NONE', #136 ) ;
#29 = AXIS2_PLACEMENT_3D ( 'NONE', #260, #176, #99 ) ;
#30 = ORIENTED_EDGE ( 'NONE', *, *, #85, .T. ) ;
#31 = EDGE_CURVE ( 'NONE', #179, #242, #49, .T. ) ;
#32 = DIRECTION ( 'NONE',  ( -1.224646799147353454E-16, -0.0000000000000000000, -1.000000000000000000 ) ) ;
#33 = DIRECTION ( 'NONE',  ( 1.000000000000000000, 0.0000000000000000000, 0.0000000000000000000 ) ) ;
#34 = PRODUCT_CONTEXT ( 'NONE', #40, 'mechanical' ) ;
#35 = DIRECTION ( 'NONE',  ( 1.000000000000000000, 0.0000000000000000000, 0.0000000000000000000 ) ) ;
#36 = ORIENTED_EDGE ( 'NONE', *, *, #277, .T. ) ;
#37 = VECTOR ( 'NONE', #293, 39.37007874015747433 ) ;
#38 = PRODUCT_DEFINITION_FORMATION_WITH_SPECIFIED_SOURCE ( 'ANY', '', #107, .NOT_KNOWN. ) ;
#39 = DIRECTION ( 'NONE',  ( 1.224646799147353454E-16, 0.0000000000000000000, 1.000000000000000000 ) ) ;
#40 = APPLICATION_CONTEXT ( 'automotive_design' ) ;
#41 = ORIENTED_EDGE ( 'NONE', *, *, #295, .F. ) ;
#42 = DIRECTION ( 'NONE',  ( 0.0000000000000000000, 0.0000000000000000000, -1.000000000000000000 ) ) ;
#43 = DIRECTION ( 'NONE',  ( -1.000000000000000000, 0.0000000000000000000, 0.0000000000000000000 ) ) ;
#44 = DIRECTION ( 'NONE',  ( 0.7071067811865462405, 8.659560562354916834E-17, -0.7071067811865486830 ) ) ;
#45 = CIRCLE ( 'NONE', #264, 0.04750000000000064587 ) ;
#46 = CARTESIAN_POINT ( 'NONE',  ( 8.450062914116739989E-18, 0.0000000000000000000, 0.06900000000000000577 ) ) ;
#47 = FACE_OUTER_BOUND ( 'NONE', #86, .T. ) ;
#48 = ORIENTED_EDGE ( 'NONE', *, *, #185, .T. ) ;
#49 = CIRCLE ( 'NONE', #256, 0.01148849999999999698 ) ;
#50 = EDGE_CURVE ( 'NONE', #28, #184, #5, .T. ) ;
#51 = EDGE_LOOP ( 'NONE', ( #12, #110, #76, #112 ) ) ;
#52 = EDGE_CURVE ( 'NONE', #58, #130, #290, .T. ) ;
#53 = PRODUCT_DEFINITION_SHAPE ( 'NONE', 'NONE',  #237 ) ;
#54 = EDGE_LOOP ( 'NONE', ( #36, #202, #204, #205 ) ) ;
#55 = EDGE_CURVE ( 'NONE', #225, #163, #182, .T. ) ;
#56 = FACE_OUTER_BOUND ( 'NONE', #106, .T. ) ;
#57 = VECTOR ( 'NONE', #284, 39.37007874015748143 ) ;
#58 = VERTEX_POINT ( 'NONE', #169 ) ;
#59 = AXIS2_PLACEMENT_3D ( 'NONE', #158, #79, #181 ) ;
#60 = DIRECTION ( 'NONE',  ( -1.000000000000000000, 0.0000000000000000000, 0.0000000000000000000 ) ) ;
#61 = DIRECTION ( 'NONE',  ( 0.0000000000000000000, 0.0000000000000000000, -1.000000000000000000 ) ) ;
#62 = LINE ( 'NONE', #275, #37 ) ;
#63 = DIRECTION ( 'NONE',  ( -1.000000000000000000, 0.0000000000000000000, 1.224646799147353454E-16 ) ) ;
#64 = DIRECTION ( 'NONE',  ( -0.0000000000000000000, -0.0000000000000000000, -1.000000000000000000 ) ) ;
#65 = SURFACE_STYLE_USAGE ( .BOTH. , #228 ) ;
#66 =( NAMED_UNIT ( * ) PLANE_ANGLE_UNIT ( ) SI_UNIT ( $, .RADIAN. ) );
#67 = AXIS2_PLACEMENT_3D ( 'NONE', #134, #296, #60 ) ;
#68 = STYLED_ITEM ( 'NONE', ( #150 ), #171 ) ;
#69 =( NAMED_UNIT ( * ) PLANE_ANGLE_UNIT ( ) SI_UNIT ( $, .RADIAN. ) );
#70 = LENGTH_MEASURE_WITH_UNIT ( LENGTH_MEASURE( 0.02539999999999999897 ), #149 );
#71 = FILL_AREA_STYLE ('',( #147 ) ) ;
#72 = VECTOR ( 'NONE', #291, 39.37007874015748143 ) ;
#73 = DIRECTION ( 'NONE',  ( -1.224646799147353454E-16, -0.0000000000000000000, -1.000000000000000000 ) ) ;
#74 = AXIS2_PLACEMENT_3D ( 'NONE', #292, #39, #211 ) ;
#75 = SURFACE_SIDE_STYLE ('',( #200 ) ) ;
#76 = ORIENTED_EDGE ( 'NONE', *, *, #277, .F. ) ;
#77 = EDGE_CURVE ( 'NONE', #28, #179, #252, .T. ) ;
#78 = EDGE_LOOP ( 'NONE', ( #283, #30, #8, #83 ) ) ;
#79 = DIRECTION ( 'NONE',  ( 0.0000000000000000000, 0.0000000000000000000, 1.000000000000000000 ) ) ;
#80 = UNCERTAINTY_MEASURE_WITH_UNIT (LENGTH_MEASURE( 1.000000000000000082E-05 ), #175, 'distance_accuracy_value', 'NONE');
#81 = ORIENTED_EDGE ( 'NONE', *, *, #185, .F. ) ;
#82 = ADVANCED_FACE ( 'NONE', ( #190 ), #229, .T. ) ;
#83 = ORIENTED_EDGE ( 'NONE', *, *, #133, .F. ) ;
#84 = DIRECTION ( 'NONE',  ( -1.000000000000000000, 0.0000000000000000000, 0.0000000000000000000 ) ) ;
#85 = EDGE_CURVE ( 'NONE', #184, #163, #62, .T. ) ;
#86 = EDGE_LOOP ( 'NONE', ( #48, #285 ) ) ;
#87 =( NAMED_UNIT ( * ) SI_UNIT ( $, .STERADIAN. ) SOLID_ANGLE_UNIT ( ) );
#88 = AXIS2_PLACEMENT_3D ( 'NONE', #189, #61, #140 ) ;
#89 = CARTESIAN_POINT ( 'NONE',  ( 4.387916737884590977E-17, 0.0000000000000000000, 0.3583005925414273762 ) ) ;
#90 = ADVANCED_FACE ( 'NONE', ( #269 ), #97, .T. ) ;
#91 = CARTESIAN_POINT ( 'NONE',  ( 0.0000000000000000000, 0.0000000000000000000, 1.500000000000000222 ) ) ;
#92 = DIRECTION ( 'NONE',  ( -1.224646799147353454E-16, -0.0000000000000000000, -1.000000000000000000 ) ) ;
#93 = FACE_OUTER_BOUND ( 'NONE', #108, .T. ) ;
#94 = VECTOR ( 'NONE', #44, 39.37007874015748854 ) ;
#95 = CONICAL_SURFACE ( 'NONE', #74, 0.01148850000000000218, 0.1745329251994338915 ) ;
#96 = DIRECTION ( 'NONE',  ( -1.000000000000000000, 0.0000000000000000000, 0.0000000000000000000 ) ) ;
#97 = CONICAL_SURFACE ( 'NONE', #67, 0.04750000000000064587, 0.7853981633974466137 ) ;
#98 = PRODUCT_RELATED_PRODUCT_CATEGORY ( 'part', '', ( #107 ) ) ;
#99 = DIRECTION ( 'NONE',  ( 1.000000000000000000, 0.0000000000000000000, -0.0000000000000000000 ) ) ;
#100 =( NAMED_UNIT ( * ) SI_UNIT ( $, .STERADIAN. ) SOLID_ANGLE_UNIT ( ) );
#101 = CARTESIAN_POINT ( 'NONE',  ( 1.722999026311075366E-34, 0.0000000000000000000, 1.406935475200436630E-18 ) ) ;
#102 = FILL_AREA_STYLE ('',( #4 ) ) ;
#103 = MECHANICAL_DESIGN_GEOMETRIC_PRESENTATION_REPRESENTATION (  '', ( #16 ), #271 ) ;
#104 =( GEOMETRIC_REPRESENTATION_CONTEXT ( 3 ) GLOBAL_UNCERTAINTY_ASSIGNED_CONTEXT ( ( #80 ) ) GLOBAL_UNIT_ASSIGNED_CONTEXT ( ( #175, #240, #100 ) ) REPRESENTATION_CONTEXT ( 'NONE', 'WORKASPACE' ) );
#105 = ORIENTED_EDGE ( 'NONE', *, *, #85, .F. ) ;
#106 = EDGE_LOOP ( 'NONE', ( #120, #180, #152, #155 ) ) ;
#107 = PRODUCT ( 'Micro_RME-023-2X', 'Micro_RME-023-2X', '', ( #34 ) ) ;
#108 = EDGE_LOOP ( 'NONE', ( #207, #128 ) ) ;
#109 = ADVANCED_FACE ( 'NONE', ( #93 ), #18, .T. ) ;
#110 = ORIENTED_EDGE ( 'NONE', *, *, #177, .T. ) ;
#111 = EDGE_CURVE ( 'NONE', #130, #58, #45, .T. ) ;
#112 = ORIENTED_EDGE ( 'NONE', *, *, #208, .F. ) ;
#113 = CARTESIAN_POINT ( 'NONE',  ( 0.06250000000000002776, 7.654042494670959086E-18, 1.500000000000000222 ) ) ;
#114 = VECTOR ( 'NONE', #21, 39.37007874015748854 ) ;
#115 = CYLINDRICAL_SURFACE ( 'NONE', #196, 0.06250000000000002776 ) ;
#116 = AXIS2_PLACEMENT_3D ( 'NONE', #3, #146, #198 ) ;
#117 = DIRECTION ( 'NONE',  ( -1.224646799147353454E-16, -0.0000000000000000000, -1.000000000000000000 ) ) ;
#118 = SURFACE_STYLE_FILL_AREA ( #71 ) ;
#119 = CARTESIAN_POINT ( 'NONE',  ( 8.450062914116739989E-18, 0.0000000000000000000, 0.06900000000000000577 ) ) ;
#120 = ORIENTED_EDGE ( 'NONE', *, *, #77, .F. ) ;
#121 = AXIS2_PLACEMENT_3D ( 'NONE', #46, #280, #43 ) ;
#122 = CARTESIAN_POINT ( 'NONE',  ( 0.06250000000000006939, 7.654042494670963708E-18, 0.3583005925414273762 ) ) ;
#123 = LINE ( 'NONE', #197, #94 ) ;
#124 = AXIS2_PLACEMENT_3D ( 'NONE', #162, #32, #131 ) ;
#125 = APPLICATION_PROTOCOL_DEFINITION ( 'draft international standard', 'automotive_design', 1998, #40 ) ;
#126 = ORIENTED_EDGE ( 'NONE', *, *, #177, .F. ) ;
#127 = VERTEX_POINT ( 'NONE', #193 ) ;
#128 = ORIENTED_EDGE ( 'NONE', *, *, #52, .T. ) ;
#129 = CIRCLE ( 'NONE', #22, 0.01148849999999999698 ) ;
#130 = VERTEX_POINT ( 'NONE', #274 ) ;
#131 = DIRECTION ( 'NONE',  ( -1.000000000000000000, 0.0000000000000000000, 1.224646799147353454E-16 ) ) ;
#132 = DIRECTION ( 'NONE',  ( 1.000000000000000000, 0.0000000000000000000, -0.0000000000000000000 ) ) ;
#133 = EDGE_CURVE ( 'NONE', #28, #225, #216, .T. ) ;
#134 = CARTESIAN_POINT ( 'NONE',  ( 0.0000000000000000000, 0.0000000000000000000, 1.500000000000000222 ) ) ;
#135 =( NAMED_UNIT ( * ) SI_UNIT ( $, .STERADIAN. ) SOLID_ANGLE_UNIT ( ) );
#136 = CARTESIAN_POINT ( 'NONE',  ( 0.01148850000000001086, 0.0000000000000000000, 0.06900000000000000577 ) ) ;
#137 = DIRECTION ( 'NONE',  ( 0.0000000000000000000, 0.0000000000000000000, 1.000000000000000000 ) ) ;
#138 = PRESENTATION_STYLE_ASSIGNMENT (( #65 ) ) ;
#139 = ADVANCED_FACE ( 'NONE', ( #254 ), #115, .T. ) ;
#140 = DIRECTION ( 'NONE',  ( 1.000000000000000000, 0.0000000000000000000, 0.0000000000000000000 ) ) ;
#141 = CLOSED_SHELL ( 'NONE', ( #248, #23, #90, #139, #195, #109, #82, #298, #206, #265 ) ) ;
#142 = CARTESIAN_POINT ( 'NONE',  ( 0.01148849999999999698, 1.406935475200436630E-18, 0.0000000000000000000 ) ) ;
#143 = CONICAL_SURFACE ( 'NONE', #116, 0.01148850000000000218, 0.1745329251994338915 ) ;
#144 = FACE_OUTER_BOUND ( 'NONE', #246, .T. ) ;
#145 = DIRECTION ( 'NONE',  ( 1.000000000000000000, 0.0000000000000000000, 0.0000000000000000000 ) ) ;
#146 = DIRECTION ( 'NONE',  ( 1.224646799147353454E-16, 0.0000000000000000000, 1.000000000000000000 ) ) ;
#147 = FILL_AREA_STYLE_COLOUR ( '', #153 ) ;
#148 = UNCERTAINTY_MEASURE_WITH_UNIT (LENGTH_MEASURE( 1.000000000000000082E-05 ), #297, 'distance_accuracy_value', 'NONE');
#149 =( LENGTH_UNIT ( ) NAMED_UNIT ( * ) SI_UNIT ( $, .METRE. ) );
#150 = PRESENTATION_STYLE_ASSIGNMENT (( #261 ) ) ;
#151 = EDGE_CURVE ( 'NONE', #183, #127, #259, .T. ) ;
#152 = ORIENTED_EDGE ( 'NONE', *, *, #295, .T. ) ;
#153 = COLOUR_RGB ( '',0.7921568627450980005, 0.8196078431372548767, 0.9333333333333333481 ) ;
#154 = MECHANICAL_DESIGN_GEOMETRIC_PRESENTATION_REPRESENTATION (  '', ( #68 ), #215 ) ;
#155 = ORIENTED_EDGE ( 'NONE', *, *, #31, .F. ) ;
#156 = PRODUCT_DEFINITION_CONTEXT ( 'detailed design', #173, 'design' ) ;
#157 = ORIENTED_EDGE ( 'NONE', *, *, #151, .F. ) ;
#158 = CARTESIAN_POINT ( 'NONE',  ( 0.0000000000000000000, 0.0000000000000000000, 0.0000000000000000000 ) ) ;
#159 = EDGE_LOOP ( 'NONE', ( #126, #245, #172, #157 ) ) ;
#160 = AXIS2_PLACEMENT_3D ( 'NONE', #178, #42, #222 ) ;
#161 = DIMENSIONAL_EXPONENTS ( 1.000000000000000000, 0.0000000000000000000, 0.0000000000000000000, 0.0000000000000000000, 0.0000000000000000000, 0.0000000000000000000, 0.0000000000000000000 ) ;
#162 = CARTESIAN_POINT ( 'NONE',  ( 0.0000000000000000000, 0.0000000000000000000, 0.0000000000000000000 ) ) ;
#163 = VERTEX_POINT ( 'NONE', #289 ) ;
#164 = CYLINDRICAL_SURFACE ( 'NONE', #278, 0.06250000000000002776 ) ;
#165 = DIRECTION ( 'NONE',  ( 0.0000000000000000000, 0.0000000000000000000, 1.000000000000000000 ) ) ;
#166 = CARTESIAN_POINT ( 'NONE',  ( 0.01148849999999999871, 1.406935475200436630E-18, -1.406935475200436823E-18 ) ) ;
#167 = LINE ( 'NONE', #191, #294 ) ;
#168 = PRESENTATION_LAYER_ASSIGNMENT (  '', '', ( #16 ) ) ;
#169 = CARTESIAN_POINT ( 'NONE',  ( 0.04750000000000064587, 6.735557395310483192E-18, 1.500000000000000222 ) ) ;
#170 = FACE_OUTER_BOUND ( 'NONE', #9, .T. ) ;
#171 = ADVANCED_BREP_SHAPE_REPRESENTATION ( 'Micro_RME-023-2X', ( #232, #59 ), #104 ) ;
#172 = ORIENTED_EDGE ( 'NONE', *, *, #208, .T. ) ;
#173 = APPLICATION_CONTEXT ( 'automotive_design' ) ;
#174 = EDGE_CURVE ( 'NONE', #163, #225, #214, .T. ) ;
#175 =( CONVERSION_BASED_UNIT ( 'INCH', #70 ) LENGTH_UNIT ( ) NAMED_UNIT ( #201 ) );
#176 = DIRECTION ( 'NONE',  ( 0.0000000000000000000, 0.0000000000000000000, 1.000000000000000000 ) ) ;
#177 = EDGE_CURVE ( 'NONE', #58, #183, #123, .T. ) ;
#178 = CARTESIAN_POINT ( 'NONE',  ( 0.0000000000000000000, 0.0000000000000000000, 1.485000000000000764 ) ) ;
#179 = VERTEX_POINT ( 'NONE', #142 ) ;
#180 = ORIENTED_EDGE ( 'NONE', *, *, #50, .T. ) ;
#181 = DIRECTION ( 'NONE',  ( 1.000000000000000000, 0.0000000000000000000, 0.0000000000000000000 ) ) ;
#182 = CIRCLE ( 'NONE', #10, 0.06250000000000002776 ) ;
#183 = VERTEX_POINT ( 'NONE', #2 ) ;
#184 = VERTEX_POINT ( 'NONE', #24 ) ;
#185 = EDGE_CURVE ( 'NONE', #242, #179, #129, .T. ) ;
#186 = AXIS2_PLACEMENT_3D ( 'NONE', #119, #92, #249 ) ;
#187 = LINE ( 'NONE', #299, #114 ) ;
#188 = DIRECTION ( 'NONE',  ( -1.224646799147353454E-16, -0.0000000000000000000, -1.000000000000000000 ) ) ;
#189 = CARTESIAN_POINT ( 'NONE',  ( 0.0000000000000000000, 0.0000000000000000000, 1.485000000000000764 ) ) ;
#190 = FACE_OUTER_BOUND ( 'NONE', #159, .T. ) ;
#191 = CARTESIAN_POINT ( 'NONE',  ( -0.06250000000000002776, 0.0000000000000000000, 1.500000000000000222 ) ) ;
#192 = AXIS2_PLACEMENT_3D ( 'NONE', #19, #137, #132 ) ;
#193 = CARTESIAN_POINT ( 'NONE',  ( -0.06250000000000002776, 0.0000000000000000000, 1.485000000000000764 ) ) ;
#194 = CARTESIAN_POINT ( 'NONE',  ( 1.722999026311075366E-34, 0.0000000000000000000, 1.406935475200436630E-18 ) ) ;
#195 = ADVANCED_FACE ( 'NONE', ( #170 ), #164, .T. ) ;
#196 = AXIS2_PLACEMENT_3D ( 'NONE', #91, #64, #210 ) ;
#197 = CARTESIAN_POINT ( 'NONE',  ( 0.04750000000000064587, 5.817072295950006528E-18, 1.500000000000000222 ) ) ;
#198 = DIRECTION ( 'NONE',  ( 1.000000000000000000, 0.0000000000000000000, 0.0000000000000000000 ) ) ;
#199 = AXIS2_PLACEMENT_3D ( 'NONE', #220, #73, #241 ) ;
#200 = SURFACE_STYLE_FILL_AREA ( #102 ) ;
#201 = DIMENSIONAL_EXPONENTS ( 1.000000000000000000, 0.0000000000000000000, 0.0000000000000000000, 0.0000000000000000000, 0.0000000000000000000, 0.0000000000000000000, 0.0000000000000000000 ) ;
#202 = ORIENTED_EDGE ( 'NONE', *, *, #11, .T. ) ;
#203 = DIRECTION ( 'NONE',  ( -0.0000000000000000000, -0.0000000000000000000, -1.000000000000000000 ) ) ;
#204 = ORIENTED_EDGE ( 'NONE', *, *, #174, .F. ) ;
#205 = ORIENTED_EDGE ( 'NONE', *, *, #234, .F. ) ;
#206 = ADVANCED_FACE ( 'NONE', ( #56 ), #13, .T. ) ;
#207 = ORIENTED_EDGE ( 'NONE', *, *, #111, .T. ) ;
#208 = EDGE_CURVE ( 'NONE', #130, #127, #187, .T. ) ;
#209 = ORIENTED_EDGE ( 'NONE', *, *, #77, .T. ) ;
#210 = DIRECTION ( 'NONE',  ( -1.000000000000000000, 0.0000000000000000000, 0.0000000000000000000 ) ) ;
#211 = DIRECTION ( 'NONE',  ( 1.000000000000000000, 0.0000000000000000000, 0.0000000000000000000 ) ) ;
#212 = LINE ( 'NONE', #113, #72 ) ;
#213 = CARTESIAN_POINT ( 'NONE',  ( 0.0000000000000000000, 0.0000000000000000000, 1.500000000000000222 ) ) ;
#214 = CIRCLE ( 'NONE', #243, 0.06250000000000002776 ) ;
#215 =( GEOMETRIC_REPRESENTATION_CONTEXT ( 3 ) GLOBAL_UNCERTAINTY_ASSIGNED_CONTEXT ( ( #148 ) ) GLOBAL_UNIT_ASSIGNED_CONTEXT ( ( #297, #69, #87 ) ) REPRESENTATION_CONTEXT ( 'NONE', 'WORKASPACE' ) );
#216 = LINE ( 'NONE', #268, #224 ) ;
#217 =( CONVERSION_BASED_UNIT ( 'INCH', #236 ) LENGTH_UNIT ( ) NAMED_UNIT ( #286 ) );
#218 = LENGTH_MEASURE_WITH_UNIT ( LENGTH_MEASURE( 0.02539999999999999897 ), #257 );
#219 = FACE_OUTER_BOUND ( 'NONE', #27, .T. ) ;
#220 = CARTESIAN_POINT ( 'NONE',  ( 0.0000000000000000000, 0.0000000000000000000, 0.0000000000000000000 ) ) ;
#221 = ORIENTED_EDGE ( 'NONE', *, *, #234, .T. ) ;
#222 = DIRECTION ( 'NONE',  ( 1.000000000000000000, 0.0000000000000000000, 0.0000000000000000000 ) ) ;
#223 = ORIENTED_EDGE ( 'NONE', *, *, #50, .F. ) ;
#224 = VECTOR ( 'NONE', #227, 39.37007874015748143 ) ;
#225 = VERTEX_POINT ( 'NONE', #122 ) ;
#226 = DIRECTION ( 'NONE',  ( 1.000000000000000000, 0.0000000000000000000, 0.0000000000000000000 ) ) ;
#227 = DIRECTION ( 'NONE',  ( 0.1736481776669313859, 0.0000000000000000000, 0.9848077530122077983 ) ) ;
#228 = SURFACE_SIDE_STYLE ('',( #118 ) ) ;
#229 = CONICAL_SURFACE ( 'NONE', #26, 0.04750000000000064587, 0.7853981633974466137 ) ;
#230 = CARTESIAN_POINT ( 'NONE',  ( 0.0000000000000000000, 0.0000000000000000000, 1.500000000000000222 ) ) ;
#231 = DIRECTION ( 'NONE',  ( -1.224646799147353454E-16, -0.0000000000000000000, -1.000000000000000000 ) ) ;
#232 = MANIFOLD_SOLID_BREP ( 'Cut-Revolve1', #141 ) ;
#233 = CARTESIAN_POINT ( 'NONE',  ( 4.387916737884590977E-17, 0.0000000000000000000, 0.3583005925414273762 ) ) ;
#234 = EDGE_CURVE ( 'NONE', #127, #163, #167, .T. ) ;
#235 = DIRECTION ( 'NONE',  ( -1.224646799147353454E-16, -0.0000000000000000000, -1.000000000000000000 ) ) ;
#236 = LENGTH_MEASURE_WITH_UNIT ( LENGTH_MEASURE( 0.02539999999999999897 ), #255 );
#237 = PRODUCT_DEFINITION ( 'UNKNOWN', '', #38, #156 ) ;
#238 = LINE ( 'NONE', #25, #57 ) ;
#239 = UNCERTAINTY_MEASURE_WITH_UNIT (LENGTH_MEASURE( 1.000000000000000082E-05 ), #217, 'distance_accuracy_value', 'NONE');
#240 =( NAMED_UNIT ( * ) PLANE_ANGLE_UNIT ( ) SI_UNIT ( $, .RADIAN. ) );
#241 = DIRECTION ( 'NONE',  ( -1.000000000000000000, 0.0000000000000000000, 1.224646799147353454E-16 ) ) ;
#242 = VERTEX_POINT ( 'NONE', #279 ) ;
#243 = AXIS2_PLACEMENT_3D ( 'NONE', #89, #188, #145 ) ;
#244 = ORIENTED_EDGE ( 'NONE', *, *, #55, .F. ) ;
#245 = ORIENTED_EDGE ( 'NONE', *, *, #111, .F. ) ;
#246 = EDGE_LOOP ( 'NONE', ( #105, #223, #14, #288 ) ) ;
#247 = CIRCLE ( 'NONE', #121, 0.01148850000000000218 ) ;
#248 = ADVANCED_FACE ( 'NONE', ( #219 ), #1, .T. ) ;
#249 = DIRECTION ( 'NONE',  ( -1.000000000000000000, 0.0000000000000000000, 0.0000000000000000000 ) ) ;
#250 = CARTESIAN_POINT ( 'NONE',  ( 0.0000000000000000000, 0.0000000000000000000, 1.500000000000000222 ) ) ;
#251 = FACE_OUTER_BOUND ( 'NONE', #78, .T. ) ;
#252 = LINE ( 'NONE', #166, #258 ) ;
#253 = CARTESIAN_POINT ( 'NONE',  ( 0.0000000000000000000, 0.0000000000000000000, 1.500000000000000222 ) ) ;
#254 = FACE_OUTER_BOUND ( 'NONE', #54, .T. ) ;
#255 =( LENGTH_UNIT ( ) NAMED_UNIT ( * ) SI_UNIT ( $, .METRE. ) );
#256 = AXIS2_PLACEMENT_3D ( 'NONE', #194, #231, #63 ) ;
#257 =( LENGTH_UNIT ( ) NAMED_UNIT ( * ) SI_UNIT ( $, .METRE. ) );
#258 = VECTOR ( 'NONE', #117, 39.37007874015748143 ) ;
#259 = CIRCLE ( 'NONE', #88, 0.06250000000000002776 ) ;
#260 = CARTESIAN_POINT ( 'NONE',  ( 0.0000000000000000000, 0.0000000000000000000, 0.0000000000000000000 ) ) ;
#261 = SURFACE_STYLE_USAGE ( .BOTH. , #75 ) ;
#262 = ORIENTED_EDGE ( 'NONE', *, *, #151, .T. ) ;
#263 = APPLICATION_PROTOCOL_DEFINITION ( 'draft international standard', 'automotive_design', 1998, #173 ) ;
#264 = AXIS2_PLACEMENT_3D ( 'NONE', #213, #15, #226 ) ;
#265 = ADVANCED_FACE ( 'NONE', ( #47 ), #281, .F. ) ;
#266 = ORIENTED_EDGE ( 'NONE', *, *, #276, .T. ) ;
#267 = SHAPE_DEFINITION_REPRESENTATION ( #53, #171 ) ;
#268 = CARTESIAN_POINT ( 'NONE',  ( 0.01148850000000001086, 0.0000000000000000000, 0.06900000000000000577 ) ) ;
#269 = FACE_OUTER_BOUND ( 'NONE', #51, .T. ) ;
#270 = DIRECTION ( 'NONE',  ( 0.0000000000000000000, 0.0000000000000000000, -1.000000000000000000 ) ) ;
#271 =( GEOMETRIC_REPRESENTATION_CONTEXT ( 3 ) GLOBAL_UNCERTAINTY_ASSIGNED_CONTEXT ( ( #239 ) ) GLOBAL_UNIT_ASSIGNED_CONTEXT ( ( #217, #66, #135 ) ) REPRESENTATION_CONTEXT ( 'NONE', 'WORKASPACE' ) );
#272 = PRESENTATION_LAYER_ASSIGNMENT (  '', '', ( #68 ) ) ;
#273 = DIRECTION ( 'NONE',  ( -1.000000000000000000, 0.0000000000000000000, 1.224646799147353454E-16 ) ) ;
#274 = CARTESIAN_POINT ( 'NONE',  ( -0.04750000000000064587, 0.0000000000000000000, 1.500000000000000222 ) ) ;
#275 = CARTESIAN_POINT ( 'NONE',  ( -0.01148849999999999351, 1.406935475200436823E-18, 0.06900000000000000577 ) ) ;
#276 = EDGE_CURVE ( 'NONE', #184, #28, #247, .T. ) ;
#277 = EDGE_CURVE ( 'NONE', #127, #183, #282, .T. ) ;
#278 = AXIS2_PLACEMENT_3D ( 'NONE', #250, #287, #84 ) ;
#279 = CARTESIAN_POINT ( 'NONE',  ( -0.01148849999999999698, 0.0000000000000000000, 2.813870950400873261E-18 ) ) ;
#280 = DIRECTION ( 'NONE',  ( -1.224646799147353454E-16, -0.0000000000000000000, -1.000000000000000000 ) ) ;
#281 = PLANE ( 'NONE',  #29 ) ;
#282 = CIRCLE ( 'NONE', #160, 0.06250000000000002776 ) ;
#283 = ORIENTED_EDGE ( 'NONE', *, *, #276, .F. ) ;
#284 = DIRECTION ( 'NONE',  ( -1.224646799147353454E-16, -0.0000000000000000000, -1.000000000000000000 ) ) ;
#285 = ORIENTED_EDGE ( 'NONE', *, *, #31, .T. ) ;
#286 = DIMENSIONAL_EXPONENTS ( 1.000000000000000000, 0.0000000000000000000, 0.0000000000000000000, 0.0000000000000000000, 0.0000000000000000000, 0.0000000000000000000, 0.0000000000000000000 ) ;
#287 = DIRECTION ( 'NONE',  ( -0.0000000000000000000, -0.0000000000000000000, -1.000000000000000000 ) ) ;
#288 = ORIENTED_EDGE ( 'NONE', *, *, #55, .T. ) ;
#289 = CARTESIAN_POINT ( 'NONE',  ( -0.06249999999999997918, 0.0000000000000000000, 0.3583005925414273762 ) ) ;
#290 = CIRCLE ( 'NONE', #20, 0.04750000000000064587 ) ;
#291 = DIRECTION ( 'NONE',  ( -0.0000000000000000000, -0.0000000000000000000, -1.000000000000000000 ) ) ;
#292 = CARTESIAN_POINT ( 'NONE',  ( 8.450062914116739989E-18, 0.0000000000000000000, 0.06900000000000000577 ) ) ;
#293 = DIRECTION ( 'NONE',  ( -0.1736481776669311916, 2.126576849575783316E-17, 0.9848077530122080203 ) ) ;
#294 = VECTOR ( 'NONE', #203, 39.37007874015748143 ) ;
#295 = EDGE_CURVE ( 'NONE', #184, #242, #238, .T. ) ;
#296 = DIRECTION ( 'NONE',  ( 0.0000000000000000000, 0.0000000000000000000, -1.000000000000000000 ) ) ;
#297 =( CONVERSION_BASED_UNIT ( 'INCH', #218 ) LENGTH_UNIT ( ) NAMED_UNIT ( #161 ) );
#298 = ADVANCED_FACE ( 'NONE', ( #144 ), #143, .T. ) ;
#299 = CARTESIAN_POINT ( 'NONE',  ( -0.04750000000000064587, 0.0000000000000000000, 1.500000000000000222 ) ) ;
ENDSEC;
END-ISO-10303-21;
