ISO-10303-21;
HEADER;
FILE_DESCRIPTION (( 'STEP AP214' ),
    '1' );
FILE_NAME ('07018.STEP',
    '2023-07-12T13:05:05',
    ( '' ),
    ( '' ),
    'SwSTEP 2.0',
    'SolidWorks 2023',
    '' );
FILE_SCHEMA (( 'AUTOMOTIVE_DESIGN' ));
ENDSEC;

DATA;
#1 = EDGE_LOOP ( 'NONE', ( #276, #186 ) ) ;
#2 = CIRCLE ( 'NONE', #36, 0.3124999999999996669 ) ;
#3 = DIRECTION ( 'NONE',  ( 9.388545036063263300E-18, 1.000000000000000000, 0.000000000000000000 ) ) ;
#4 = PRODUCT_RELATED_PRODUCT_CATEGORY ( 'part', '', ( #288 ) ) ;
#5 = DIRECTION ( 'NONE',  ( 1.000000000000000000, 0.000000000000000000, 0.000000000000000000 ) ) ;
#6 = SURFACE_STYLE_FILL_AREA ( #147 ) ;
#7 = EDGE_CURVE ( 'NONE', #154, #303, #71, .T. ) ;
#8 = AXIS2_PLACEMENT_3D ( 'NONE', #69, #138, #157 ) ;
#9 = DIRECTION ( 'NONE',  ( -1.000000000000000000, 9.388545036063263300E-18, 0.000000000000000000 ) ) ;
#10 = CIRCLE ( 'NONE', #24, 0.3124999999999996669 ) ;
#11 = PRODUCT_DEFINITION_FORMATION_WITH_SPECIFIED_SOURCE ( 'ANY', '', #288, .NOT_KNOWN. ) ;
#12 =( NAMED_UNIT ( * ) SI_UNIT ( $, .STERADIAN. ) SOLID_ANGLE_UNIT ( ) );
#13 =( CONVERSION_BASED_UNIT ( 'INCH', #92 ) LENGTH_UNIT ( ) NAMED_UNIT ( #204 ) );
#14 = APPLICATION_PROTOCOL_DEFINITION ( 'draft international standard', 'automotive_design', 1998, #64 ) ;
#15 = ORIENTED_EDGE ( 'NONE', *, *, #63, .T. ) ;
#16 = PRESENTATION_LAYER_ASSIGNMENT (  '', '', ( #223 ) ) ;
#17 = SURFACE_STYLE_USAGE ( .BOTH. , #45 ) ;
#18 = UNCERTAINTY_MEASURE_WITH_UNIT (LENGTH_MEASURE( 1.000000000000000082E-05 ), #308, 'distance_accuracy_value', 'NONE');
#19 = DIRECTION ( 'NONE',  ( -1.000000000000000000, 0.000000000000000000, 0.000000000000000000 ) ) ;
#20 = SURFACE_SIDE_STYLE ('',( #301 ) ) ;
#21 = EDGE_CURVE ( 'NONE', #178, #135, #22, .T. ) ;
#22 = LINE ( 'NONE', #97, #279 ) ;
#23 = CARTESIAN_POINT ( 'NONE',  ( 3.966515005238466176E-36, 4.224845266228468119E-19, 0.000000000000000000 ) ) ;
#24 = AXIS2_PLACEMENT_3D ( 'NONE', #119, #94, #180 ) ;
#25 =( LENGTH_UNIT ( ) NAMED_UNIT ( * ) SI_UNIT ( $, .METRE. ) );
#26 = DIRECTION ( 'NONE',  ( 1.000000000000000000, 0.000000000000000000, 0.000000000000000000 ) ) ;
#27 = DIRECTION ( 'NONE',  ( -1.000000000000000000, 0.000000000000000000, 0.000000000000000000 ) ) ;
#28 = EDGE_LOOP ( 'NONE', ( #56, #169, #139, #142 ) ) ;
#29 = DIRECTION ( 'NONE',  ( 1.000000000000000000, -9.388545036063263300E-18, 0.000000000000000000 ) ) ;
#30 = ORIENTED_EDGE ( 'NONE', *, *, #84, .T. ) ;
#31 = SURFACE_STYLE_USAGE ( .BOTH. , #172 ) ;
#32 = AXIS2_PLACEMENT_3D ( 'NONE', #77, #209, #211 ) ;
#33 = FILL_AREA_STYLE ('',( #87 ) ) ;
#34 =( NAMED_UNIT ( * ) PLANE_ANGLE_UNIT ( ) SI_UNIT ( $, .RADIAN. ) );
#35 = PLANE ( 'NONE',  #296 ) ;
#36 = AXIS2_PLACEMENT_3D ( 'NONE', #250, #116, #39 ) ;
#37 = PRODUCT_DEFINITION_SHAPE ( 'NONE', 'NONE',  #121 ) ;
#38 = FILL_AREA_STYLE_COLOUR ( '', #51 ) ;
#39 = DIRECTION ( 'NONE',  ( -1.000000000000000000, -1.092739197465706397E-16, 0.000000000000000000 ) ) ;
#40 = ORIENTED_EDGE ( 'NONE', *, *, #109, .T. ) ;
#41 = CYLINDRICAL_SURFACE ( 'NONE', #44, 0.3124999999999998890 ) ;
#42 =( LENGTH_UNIT ( ) NAMED_UNIT ( * ) SI_UNIT ( $, .METRE. ) );
#43 = EDGE_CURVE ( 'NONE', #257, #154, #10, .T. ) ;
#44 = AXIS2_PLACEMENT_3D ( 'NONE', #100, #206, #19 ) ;
#45 = SURFACE_SIDE_STYLE ('',( #302 ) ) ;
#46 = AXIS2_PLACEMENT_3D ( 'NONE', #80, #193, #194 ) ;
#47 = APPLICATION_PROTOCOL_DEFINITION ( 'draft international standard', 'automotive_design', 1998, #55 ) ;
#48 = FILL_AREA_STYLE ('',( #255 ) ) ;
#49 = ORIENTED_EDGE ( 'NONE', *, *, #7, .T. ) ;
#50 = SURFACE_STYLE_FILL_AREA ( #48 ) ;
#51 = COLOUR_RGB ( '',0.7921568627450980005, 0.8196078431372548767, 0.9333333333333333481 ) ;
#52 = UNCERTAINTY_MEASURE_WITH_UNIT (LENGTH_MEASURE( 1.000000000000000082E-05 ), #152, 'distance_accuracy_value', 'NONE');
#53 = DIRECTION ( 'NONE',  ( -1.445235866196893338E-16, 1.000000000000000000, -0.000000000000000000 ) ) ;
#54 = FACE_OUTER_BOUND ( 'NONE', #1, .T. ) ;
#55 = APPLICATION_CONTEXT ( 'automotive_design' ) ;
#56 = ORIENTED_EDGE ( 'NONE', *, *, #7, .F. ) ;
#57 = EDGE_LOOP ( 'NONE', ( #189, #86 ) ) ;
#58 = FACE_OUTER_BOUND ( 'NONE', #215, .T. ) ;
#59 = MECHANICAL_DESIGN_GEOMETRIC_PRESENTATION_REPRESENTATION (  '', ( #238 ), #111 ) ;
#60 = CARTESIAN_POINT ( 'NONE',  ( 0.3125000000000000000, 0.1544411970082240904, 3.827021247335478926E-17 ) ) ;
#61 = CARTESIAN_POINT ( 'NONE',  ( 3.500180241882337064E-16, 0.1544411970082240904, 0.000000000000000000 ) ) ;
#62 =( LENGTH_UNIT ( ) NAMED_UNIT ( * ) SI_UNIT ( $, .METRE. ) );
#63 = EDGE_CURVE ( 'NONE', #178, #114, #183, .T. ) ;
#64 = APPLICATION_CONTEXT ( 'automotive_design' ) ;
#65 =( NAMED_UNIT ( * ) SI_UNIT ( $, .STERADIAN. ) SOLID_ANGLE_UNIT ( ) );
#66 = DIRECTION ( 'NONE',  ( 0.8660254037844397068, 0.4999999999999979461, 1.060575238724908024E-16 ) ) ;
#67 = VECTOR ( 'NONE', #277, 39.37007874015748143 ) ;
#68 = DIRECTION ( 'NONE',  ( 0.000000000000000000, 0.000000000000000000, 1.000000000000000000 ) ) ;
#69 = CARTESIAN_POINT ( 'NONE',  ( -6.123233995736770966E-17, 3.000000000000000444, 0.000000000000000000 ) ) ;
#70 = CARTESIAN_POINT ( 'NONE',  ( -0.3124999999999999445, 3.000000000000000444, 0.000000000000000000 ) ) ;
#71 = LINE ( 'NONE', #184, #241 ) ;
#72 = EDGE_CURVE ( 'NONE', #76, #303, #113, .T. ) ;
#73 = STYLED_ITEM ( 'NONE', ( #168 ), #136 ) ;
#74 = AXIS2_PLACEMENT_3D ( 'NONE', #93, #68, #26 ) ;
#75 = ORIENTED_EDGE ( 'NONE', *, *, #240, .T. ) ;
#76 = VERTEX_POINT ( 'NONE', #278 ) ;
#77 = CARTESIAN_POINT ( 'NONE',  ( 1.449978133535230861E-18, 0.1544411970082241181, 0.000000000000000000 ) ) ;
#78 = CIRCLE ( 'NONE', #243, 0.3125000000000000555 ) ;
#79 = EDGE_LOOP ( 'NONE', ( #179, #49, #108, #298 ) ) ;
#80 = CARTESIAN_POINT ( 'NONE',  ( 3.966515005238466176E-36, 4.224845266228468119E-19, 0.000000000000000000 ) ) ;
#81 = MANIFOLD_SOLID_BREP ( 'Revolve - Cutting Edge', #196 ) ;
#82 = FILL_AREA_STYLE ('',( #166 ) ) ;
#83 = PRESENTATION_LAYER_ASSIGNMENT (  '', '', ( #122 ) ) ;
#84 = EDGE_CURVE ( 'NONE', #114, #191, #101, .T. ) ;
#85 = SURFACE_STYLE_USAGE ( .BOTH. , #141 ) ;
#86 = ORIENTED_EDGE ( 'NONE', *, *, #109, .F. ) ;
#87 = FILL_AREA_STYLE_COLOUR ( '', #185 ) ;
#88 = CIRCLE ( 'NONE', #155, 0.3125000000000000000 ) ;
#89 = DIMENSIONAL_EXPONENTS ( 1.000000000000000000, 0.000000000000000000, 0.000000000000000000, 0.000000000000000000, 0.000000000000000000, 0.000000000000000000, 0.000000000000000000 ) ;
#90 = CONICAL_SURFACE ( 'NONE', #284, 0.04499999999999999833, 1.047197551196600074 ) ;
#91 = DIRECTION ( 'NONE',  ( -1.445235866196893338E-16, 1.000000000000000000, 0.000000000000000000 ) ) ;
#92 = LENGTH_MEASURE_WITH_UNIT ( LENGTH_MEASURE( 0.02539999999999999897 ), #42 );
#93 = CARTESIAN_POINT ( 'NONE',  ( 0.000000000000000000, 0.000000000000000000, 0.000000000000000000 ) ) ;
#94 = DIRECTION ( 'NONE',  ( -1.445235866196893338E-16, 1.000000000000000000, -0.000000000000000000 ) ) ;
#95 = EDGE_CURVE ( 'NONE', #154, #257, #2, .T. ) ;
#96 = CARTESIAN_POINT ( 'NONE',  ( 0.3125000000000000000, 3.000000000000000444, 3.827021247335478926E-17 ) ) ;
#97 = CARTESIAN_POINT ( 'NONE',  ( -0.04499999999999999833, 8.449690532456936238E-19, 0.000000000000000000 ) ) ;
#98 = DIMENSIONAL_EXPONENTS ( 1.000000000000000000, 0.000000000000000000, 0.000000000000000000, 0.000000000000000000, 0.000000000000000000, 0.000000000000000000, 0.000000000000000000 ) ;
#99 = MECHANICAL_DESIGN_GEOMETRIC_PRESENTATION_REPRESENTATION (  '', ( #73 ), #163 ) ;
#100 = CARTESIAN_POINT ( 'NONE',  ( -6.123233995736772199E-17, 3.000000000000000444, 0.000000000000000000 ) ) ;
#101 = LINE ( 'NONE', #228, #107 ) ;
#102 = SURFACE_SIDE_STYLE ('',( #237 ) ) ;
#103 = FACE_OUTER_BOUND ( 'NONE', #290, .T. ) ;
#104 = SHAPE_DEFINITION_REPRESENTATION ( #37, #244 ) ;
#105 =( NAMED_UNIT ( * ) SI_UNIT ( $, .STERADIAN. ) SOLID_ANGLE_UNIT ( ) );
#106 = CARTESIAN_POINT ( 'NONE',  ( -0.3125000000000000000, 0.1544411970082240904, 0.000000000000000000 ) ) ;
#107 = VECTOR ( 'NONE', #66, 39.37007874015748854 ) ;
#108 = ORIENTED_EDGE ( 'NONE', *, *, #72, .F. ) ;
#109 = EDGE_CURVE ( 'NONE', #191, #135, #269, .T. ) ;
#110 =( LENGTH_UNIT ( ) NAMED_UNIT ( * ) SI_UNIT ( $, .METRE. ) );
#111 =( GEOMETRIC_REPRESENTATION_CONTEXT ( 3 ) GLOBAL_UNCERTAINTY_ASSIGNED_CONTEXT ( ( #212 ) ) GLOBAL_UNIT_ASSIGNED_CONTEXT ( ( #143, #34, #151 ) ) REPRESENTATION_CONTEXT ( 'NONE', 'WORKASPACE' ) );
#112 = DIMENSIONAL_EXPONENTS ( 1.000000000000000000, 0.000000000000000000, 0.000000000000000000, 0.000000000000000000, 0.000000000000000000, 0.000000000000000000, 0.000000000000000000 ) ;
#113 = CIRCLE ( 'NONE', #8, 0.3125000000000000555 ) ;
#114 = VERTEX_POINT ( 'NONE', #124 ) ;
#115 = DIRECTION ( 'NONE',  ( -9.388545036063263300E-18, -1.000000000000000000, -0.000000000000000000 ) ) ;
#116 = DIRECTION ( 'NONE',  ( -1.445235866196893338E-16, 1.000000000000000000, -0.000000000000000000 ) ) ;
#117 =( NAMED_UNIT ( * ) PLANE_ANGLE_UNIT ( ) SI_UNIT ( $, .RADIAN. ) );
#118 =( NAMED_UNIT ( * ) PLANE_ANGLE_UNIT ( ) SI_UNIT ( $, .RADIAN. ) );
#119 = CARTESIAN_POINT ( 'NONE',  ( 3.500180241882337064E-16, 0.1544411970082242846, 0.000000000000000000 ) ) ;
#120 = DIRECTION ( 'NONE',  ( 1.000000000000000000, 1.445235866196893338E-16, 0.000000000000000000 ) ) ;
#121 = PRODUCT_DEFINITION ( 'UNKNOWN', '', #11, #208 ) ;
#122 = STYLED_ITEM ( 'NONE', ( #177 ), #267 ) ;
#123 = PRODUCT_CONTEXT ( 'NONE', #64, 'mechanical' ) ;
#124 = CARTESIAN_POINT ( 'NONE',  ( 0.04499999999999999833, 0.000000000000000000, 2.189056153475893941E-17 ) ) ;
#125 = LENGTH_MEASURE_WITH_UNIT ( LENGTH_MEASURE( 0.02539999999999999897 ), #190 );
#126 = DIRECTION ( 'NONE',  ( -1.000000000000000000, 0.000000000000000000, 0.000000000000000000 ) ) ;
#127 = ORIENTED_EDGE ( 'NONE', *, *, #21, .F. ) ;
#128 = PRESENTATION_STYLE_ASSIGNMENT (( #31 ) ) ;
#129 = FILL_AREA_STYLE_COLOUR ( '', #221 ) ;
#130 = CONICAL_SURFACE ( 'NONE', #46, 0.04499999999999999833, 1.047197551196600074 ) ;
#131 =( NAMED_UNIT ( * ) PLANE_ANGLE_UNIT ( ) SI_UNIT ( $, .RADIAN. ) );
#132 =( GEOMETRIC_REPRESENTATION_CONTEXT ( 3 ) GLOBAL_UNCERTAINTY_ASSIGNED_CONTEXT ( ( #165 ) ) GLOBAL_UNIT_ASSIGNED_CONTEXT ( ( #13, #117, #207 ) ) REPRESENTATION_CONTEXT ( 'NONE', 'WORKASPACE' ) );
#133 =( NAMED_UNIT ( * ) SI_UNIT ( $, .STERADIAN. ) SOLID_ANGLE_UNIT ( ) );
#134 =( NAMED_UNIT ( * ) PLANE_ANGLE_UNIT ( ) SI_UNIT ( $, .RADIAN. ) );
#135 = VERTEX_POINT ( 'NONE', #106 ) ;
#136 = ADVANCED_FACE ( 'NONE', ( #305 ), #286, .T. ) ;
#137 = LENGTH_MEASURE_WITH_UNIT ( LENGTH_MEASURE( 0.02539999999999999897 ), #299 );
#138 = DIRECTION ( 'NONE',  ( -1.445235866196893338E-16, 1.000000000000000000, -0.000000000000000000 ) ) ;
#139 = ORIENTED_EDGE ( 'NONE', *, *, #271, .T. ) ;
#140 = CARTESIAN_POINT ( 'NONE',  ( 0.3125000000000000000, 3.000000000000000444, 0.000000000000000000 ) ) ;
#141 = SURFACE_SIDE_STYLE ('',( #50 ) ) ;
#142 = ORIENTED_EDGE ( 'NONE', *, *, #159, .F. ) ;
#143 =( CONVERSION_BASED_UNIT ( 'INCH', #164 ) LENGTH_UNIT ( ) NAMED_UNIT ( #226 ) );
#144 = DIRECTION ( 'NONE',  ( 1.445235866196893338E-16, -1.000000000000000000, 0.000000000000000000 ) ) ;
#145 = SURFACE_STYLE_FILL_AREA ( #33 ) ;
#146 = COLOUR_RGB ( '',1.000000000000000000, 0.000000000000000000, 0.000000000000000000 ) ;
#147 = FILL_AREA_STYLE ('',( #129 ) ) ;
#148 = CARTESIAN_POINT ( 'NONE',  ( 1.449978133535230669E-18, 0.1544411970082240904, 0.000000000000000000 ) ) ;
#149 = FACE_OUTER_BOUND ( 'NONE', #265, .T. ) ;
#150 = EDGE_CURVE ( 'NONE', #114, #178, #199, .T. ) ;
#151 =( NAMED_UNIT ( * ) SI_UNIT ( $, .STERADIAN. ) SOLID_ANGLE_UNIT ( ) );
#152 =( CONVERSION_BASED_UNIT ( 'INCH', #248 ) LENGTH_UNIT ( ) NAMED_UNIT ( #247 ) );
#153 = ADVANCED_FACE ( 'NONE', ( #54 ), #260, .F. ) ;
#154 = VERTEX_POINT ( 'NONE', #307 ) ;
#155 = AXIS2_PLACEMENT_3D ( 'NONE', #148, #197, #5 ) ;
#156 = AXIS2_PLACEMENT_3D ( 'NONE', #232, #115, #200 ) ;
#157 = DIRECTION ( 'NONE',  ( -1.000000000000000000, 0.000000000000000000, 0.000000000000000000 ) ) ;
#158 = ORIENTED_EDGE ( 'NONE', *, *, #150, .T. ) ;
#159 = EDGE_CURVE ( 'NONE', #303, #76, #78, .T. ) ;
#160 =( GEOMETRIC_REPRESENTATION_CONTEXT ( 3 ) GLOBAL_UNCERTAINTY_ASSIGNED_CONTEXT ( ( #52 ) ) GLOBAL_UNIT_ASSIGNED_CONTEXT ( ( #152, #134, #12 ) ) REPRESENTATION_CONTEXT ( 'NONE', 'WORKASPACE' ) );
#161 = DIRECTION ( 'NONE',  ( -9.388545036063263300E-18, -1.000000000000000000, -0.000000000000000000 ) ) ;
#162 = FACE_OUTER_BOUND ( 'NONE', #28, .T. ) ;
#163 =( GEOMETRIC_REPRESENTATION_CONTEXT ( 3 ) GLOBAL_UNCERTAINTY_ASSIGNED_CONTEXT ( ( #18 ) ) GLOBAL_UNIT_ASSIGNED_CONTEXT ( ( #308, #283, #105 ) ) REPRESENTATION_CONTEXT ( 'NONE', 'WORKASPACE' ) );
#164 = LENGTH_MEASURE_WITH_UNIT ( LENGTH_MEASURE( 0.02539999999999999897 ), #25 );
#165 = UNCERTAINTY_MEASURE_WITH_UNIT (LENGTH_MEASURE( 1.000000000000000082E-05 ), #13, 'distance_accuracy_value', 'NONE');
#166 = FILL_AREA_STYLE_COLOUR ( '', #167 ) ;
#167 = COLOUR_RGB ( '',1.000000000000000000, 0.000000000000000000, 0.000000000000000000 ) ;
#168 = PRESENTATION_STYLE_ASSIGNMENT (( #262 ) ) ;
#169 = ORIENTED_EDGE ( 'NONE', *, *, #95, .T. ) ;
#170 = LENGTH_MEASURE_WITH_UNIT ( LENGTH_MEASURE( 0.02539999999999999897 ), #268 );
#171 = AXIS2_PLACEMENT_3D ( 'NONE', #23, #264, #29 ) ;
#172 = SURFACE_SIDE_STYLE ('',( #145 ) ) ;
#173 = ADVANCED_FACE ( 'NONE', ( #162 ), #304, .T. ) ;
#174 = SURFACE_SIDE_STYLE ('',( #6 ) ) ;
#175 =( GEOMETRIC_REPRESENTATION_CONTEXT ( 3 ) GLOBAL_UNCERTAINTY_ASSIGNED_CONTEXT ( ( #233 ) ) GLOBAL_UNIT_ASSIGNED_CONTEXT ( ( #246, #131, #133 ) ) REPRESENTATION_CONTEXT ( 'NONE', 'WORKASPACE' ) );
#176 = SURFACE_STYLE_USAGE ( .BOTH. , #174 ) ;
#177 = PRESENTATION_STYLE_ASSIGNMENT (( #227 ) ) ;
#178 = VERTEX_POINT ( 'NONE', #309 ) ;
#179 = ORIENTED_EDGE ( 'NONE', *, *, #43, .T. ) ;
#180 = DIRECTION ( 'NONE',  ( -1.000000000000000000, -1.092739197465706397E-16, 0.000000000000000000 ) ) ;
#181 = UNCERTAINTY_MEASURE_WITH_UNIT (LENGTH_MEASURE( 1.000000000000000082E-05 ), #274, 'distance_accuracy_value', 'NONE');
#182 = COLOUR_RGB ( '',0.7921568627450980005, 0.8196078431372548767, 0.9333333333333333481 ) ;
#183 = CIRCLE ( 'NONE', #239, 0.04499999999999999833 ) ;
#184 = CARTESIAN_POINT ( 'NONE',  ( 0.3124999999999998335, 3.000000000000000444, 3.827021247335477078E-17 ) ) ;
#185 = COLOUR_RGB ( '',1.000000000000000000, 0.000000000000000000, 0.000000000000000000 ) ;
#186 = ORIENTED_EDGE ( 'NONE', *, *, #159, .T. ) ;
#187 = ADVANCED_FACE ( 'NONE', ( #103 ), #130, .T. ) ;
#188 = STYLED_ITEM ( 'NONE', ( #128 ), #261 ) ;
#189 = ORIENTED_EDGE ( 'NONE', *, *, #240, .F. ) ;
#190 =( LENGTH_UNIT ( ) NAMED_UNIT ( * ) SI_UNIT ( $, .METRE. ) );
#191 = VERTEX_POINT ( 'NONE', #60 ) ;
#192 = DIRECTION ( 'NONE',  ( -1.000000000000000000, -1.445235866196893338E-16, 0.000000000000000000 ) ) ;
#193 = DIRECTION ( 'NONE',  ( 9.388545036063263300E-18, 1.000000000000000000, 0.000000000000000000 ) ) ;
#194 = DIRECTION ( 'NONE',  ( -1.000000000000000000, 9.388545036063263300E-18, 0.000000000000000000 ) ) ;
#195 = FACE_OUTER_BOUND ( 'NONE', #234, .T. ) ;
#196 = CLOSED_SHELL ( 'NONE', ( #230, #136, #187, #261 ) ) ;
#197 = DIRECTION ( 'NONE',  ( -9.388545036063263300E-18, -1.000000000000000000, -0.000000000000000000 ) ) ;
#198 = DIRECTION ( 'NONE',  ( -1.445235866196893338E-16, 1.000000000000000000, -0.000000000000000000 ) ) ;
#199 = CIRCLE ( 'NONE', #171, 0.04499999999999999833 ) ;
#200 = DIRECTION ( 'NONE',  ( 1.000000000000000000, 0.000000000000000000, 0.000000000000000000 ) ) ;
#201 =( NAMED_UNIT ( * ) SI_UNIT ( $, .STERADIAN. ) SOLID_ANGLE_UNIT ( ) );
#202 = ORIENTED_EDGE ( 'NONE', *, *, #84, .F. ) ;
#203 = MECHANICAL_DESIGN_GEOMETRIC_PRESENTATION_REPRESENTATION (  '', ( #188 ), #236 ) ;
#204 = DIMENSIONAL_EXPONENTS ( 1.000000000000000000, 0.000000000000000000, 0.000000000000000000, 0.000000000000000000, 0.000000000000000000, 0.000000000000000000, 0.000000000000000000 ) ;
#205 = FILL_AREA_STYLE ('',( #300 ) ) ;
#206 = DIRECTION ( 'NONE',  ( -1.445235866196893338E-16, 1.000000000000000000, -0.000000000000000000 ) ) ;
#207 =( NAMED_UNIT ( * ) SI_UNIT ( $, .STERADIAN. ) SOLID_ANGLE_UNIT ( ) );
#208 = PRODUCT_DEFINITION_CONTEXT ( 'detailed design', #55, 'design' ) ;
#209 = DIRECTION ( 'NONE',  ( 9.388545036063263300E-18, 1.000000000000000000, 0.000000000000000000 ) ) ;
#210 = PRESENTATION_LAYER_ASSIGNMENT (  '', '', ( #188 ) ) ;
#211 = DIRECTION ( 'NONE',  ( -1.000000000000000000, 9.388545036063263300E-18, 0.000000000000000000 ) ) ;
#212 = UNCERTAINTY_MEASURE_WITH_UNIT (LENGTH_MEASURE( 1.000000000000000082E-05 ), #143, 'distance_accuracy_value', 'NONE');
#213 = AXIS2_PLACEMENT_3D ( 'NONE', #140, #144, #120 ) ;
#214 = CARTESIAN_POINT ( 'NONE',  ( -6.123233995736770966E-17, 3.000000000000000444, 0.000000000000000000 ) ) ;
#215 = EDGE_LOOP ( 'NONE', ( #263, #30, #40, #127 ) ) ;
#216 = PRESENTATION_LAYER_ASSIGNMENT (  '', '', ( #73 ) ) ;
#217 = STYLED_ITEM ( 'NONE', ( #218 ), #230 ) ;
#218 = PRESENTATION_STYLE_ASSIGNMENT (( #176 ) ) ;
#219 = ADVANCED_FACE ( 'NONE', ( #195 ), #35, .F. ) ;
#220 =( NAMED_UNIT ( * ) PLANE_ANGLE_UNIT ( ) SI_UNIT ( $, .RADIAN. ) );
#221 = COLOUR_RGB ( '',1.000000000000000000, 0.000000000000000000, 0.000000000000000000 ) ;
#222 = DIMENSIONAL_EXPONENTS ( 1.000000000000000000, 0.000000000000000000, 0.000000000000000000, 0.000000000000000000, 0.000000000000000000, 0.000000000000000000, 0.000000000000000000 ) ;
#223 = STYLED_ITEM ( 'NONE', ( #254 ), #81 ) ;
#224 = DIRECTION ( 'NONE',  ( 1.000000000000000000, -9.388545036063263300E-18, 0.000000000000000000 ) ) ;
#225 = FACE_OUTER_BOUND ( 'NONE', #79, .T. ) ;
#226 = DIMENSIONAL_EXPONENTS ( 1.000000000000000000, 0.000000000000000000, 0.000000000000000000, 0.000000000000000000, 0.000000000000000000, 0.000000000000000000, 0.000000000000000000 ) ;
#227 = SURFACE_STYLE_USAGE ( .BOTH. , #20 ) ;
#228 = CARTESIAN_POINT ( 'NONE',  ( 0.04499999999999999833, 0.000000000000000000, 5.510910596163089556E-18 ) ) ;
#229 = MECHANICAL_DESIGN_GEOMETRIC_PRESENTATION_REPRESENTATION (  '', ( #223 ), #132 ) ;
#230 = ADVANCED_FACE ( 'NONE', ( #58 ), #90, .T. ) ;
#231 = CARTESIAN_POINT ( 'NONE',  ( 1.983257502619233088E-36, 2.112422633114234060E-19, 0.000000000000000000 ) ) ;
#232 = CARTESIAN_POINT ( 'NONE',  ( 1.449978133535230669E-18, 0.1544411970082240904, 0.000000000000000000 ) ) ;
#233 = UNCERTAINTY_MEASURE_WITH_UNIT (LENGTH_MEASURE( 1.000000000000000082E-05 ), #246, 'distance_accuracy_value', 'NONE');
#234 = EDGE_LOOP ( 'NONE', ( #285, #282 ) ) ;
#235 = PRESENTATION_STYLE_ASSIGNMENT (( #85 ) ) ;
#236 =( GEOMETRIC_REPRESENTATION_CONTEXT ( 3 ) GLOBAL_UNCERTAINTY_ASSIGNED_CONTEXT ( ( #256 ) ) GLOBAL_UNIT_ASSIGNED_CONTEXT ( ( #245, #220, #65 ) ) REPRESENTATION_CONTEXT ( 'NONE', 'WORKASPACE' ) );
#237 = SURFACE_STYLE_FILL_AREA ( #82 ) ;
#238 = STYLED_ITEM ( 'NONE', ( #235 ), #187 ) ;
#239 = AXIS2_PLACEMENT_3D ( 'NONE', #253, #161, #295 ) ;
#240 = EDGE_CURVE ( 'NONE', #135, #191, #88, .T. ) ;
#241 = VECTOR ( 'NONE', #198, 39.37007874015748143 ) ;
#242 = ORIENTED_EDGE ( 'NONE', *, *, #63, .F. ) ;
#243 = AXIS2_PLACEMENT_3D ( 'NONE', #214, #53, #27 ) ;
#244 = ADVANCED_BREP_SHAPE_REPRESENTATION ( '07018', ( #81, #267, #74 ), #160 ) ;
#245 =( CONVERSION_BASED_UNIT ( 'INCH', #291 ) LENGTH_UNIT ( ) NAMED_UNIT ( #89 ) );
#246 =( CONVERSION_BASED_UNIT ( 'INCH', #170 ) LENGTH_UNIT ( ) NAMED_UNIT ( #112 ) );
#247 = DIMENSIONAL_EXPONENTS ( 1.000000000000000000, 0.000000000000000000, 0.000000000000000000, 0.000000000000000000, 0.000000000000000000, 0.000000000000000000, 0.000000000000000000 ) ;
#248 = LENGTH_MEASURE_WITH_UNIT ( LENGTH_MEASURE( 0.02539999999999999897 ), #62 );
#249 = AXIS2_PLACEMENT_3D ( 'NONE', #231, #252, #224 ) ;
#250 = CARTESIAN_POINT ( 'NONE',  ( 3.500180241882337064E-16, 0.1544411970082242846, 0.000000000000000000 ) ) ;
#251 = DIRECTION ( 'NONE',  ( -0.8660254037844397068, 0.4999999999999979461, 0.000000000000000000 ) ) ;
#252 = DIRECTION ( 'NONE',  ( -9.388545036063263300E-18, -1.000000000000000000, 0.000000000000000000 ) ) ;
#253 = CARTESIAN_POINT ( 'NONE',  ( 3.966515005238466176E-36, 4.224845266228468119E-19, 0.000000000000000000 ) ) ;
#254 = PRESENTATION_STYLE_ASSIGNMENT (( #17 ) ) ;
#255 = FILL_AREA_STYLE_COLOUR ( '', #146 ) ;
#256 = UNCERTAINTY_MEASURE_WITH_UNIT (LENGTH_MEASURE( 1.000000000000000082E-05 ), #245, 'distance_accuracy_value', 'NONE');
#257 = VERTEX_POINT ( 'NONE', #294 ) ;
#258 = DIRECTION ( 'NONE',  ( -1.445235866196893338E-16, 1.000000000000000000, -0.000000000000000000 ) ) ;
#259 = AXIS2_PLACEMENT_3D ( 'NONE', #287, #258, #126 ) ;
#260 = PLANE ( 'NONE',  #213 ) ;
#261 = ADVANCED_FACE ( 'NONE', ( #149 ), #270, .T. ) ;
#262 = SURFACE_STYLE_USAGE ( .BOTH. , #102 ) ;
#263 = ORIENTED_EDGE ( 'NONE', *, *, #150, .F. ) ;
#264 = DIRECTION ( 'NONE',  ( -9.388545036063263300E-18, -1.000000000000000000, -0.000000000000000000 ) ) ;
#265 = EDGE_LOOP ( 'NONE', ( #15, #158 ) ) ;
#266 = ADVANCED_FACE ( 'NONE', ( #225 ), #41, .T. ) ;
#267 = MANIFOLD_SOLID_BREP ( 'Revolve - Tool Body (Tipped Off)', #289 ) ;
#268 =( LENGTH_UNIT ( ) NAMED_UNIT ( * ) SI_UNIT ( $, .METRE. ) );
#269 = CIRCLE ( 'NONE', #156, 0.3125000000000000000 ) ;
#270 = PLANE ( 'NONE',  #249 ) ;
#271 = EDGE_CURVE ( 'NONE', #257, #76, #275, .T. ) ;
#272 = MECHANICAL_DESIGN_GEOMETRIC_PRESENTATION_REPRESENTATION (  '', ( #217 ), #175 ) ;
#273 = FILL_AREA_STYLE ('',( #38 ) ) ;
#274 =( CONVERSION_BASED_UNIT ( 'INCH', #137 ) LENGTH_UNIT ( ) NAMED_UNIT ( #222 ) );
#275 = LINE ( 'NONE', #70, #67 ) ;
#276 = ORIENTED_EDGE ( 'NONE', *, *, #72, .T. ) ;
#277 = DIRECTION ( 'NONE',  ( -1.445235866196893338E-16, 1.000000000000000000, -0.000000000000000000 ) ) ;
#278 = CARTESIAN_POINT ( 'NONE',  ( -0.3125000000000001665, 3.000000000000000444, 0.000000000000000000 ) ) ;
#279 = VECTOR ( 'NONE', #251, 39.37007874015748854 ) ;
#280 = ORIENTED_EDGE ( 'NONE', *, *, #21, .T. ) ;
#281 = MECHANICAL_DESIGN_GEOMETRIC_PRESENTATION_REPRESENTATION (  '', ( #122 ), #293 ) ;
#282 = ORIENTED_EDGE ( 'NONE', *, *, #95, .F. ) ;
#283 =( NAMED_UNIT ( * ) PLANE_ANGLE_UNIT ( ) SI_UNIT ( $, .RADIAN. ) );
#284 = AXIS2_PLACEMENT_3D ( 'NONE', #292, #3, #9 ) ;
#285 = ORIENTED_EDGE ( 'NONE', *, *, #43, .F. ) ;
#286 = PLANE ( 'NONE',  #32 ) ;
#287 = CARTESIAN_POINT ( 'NONE',  ( -6.123233995736772199E-17, 3.000000000000000444, 0.000000000000000000 ) ) ;
#288 = PRODUCT ( '07018', '07018', '', ( #123 ) ) ;
#289 = CLOSED_SHELL ( 'NONE', ( #266, #219, #173, #153 ) ) ;
#290 = EDGE_LOOP ( 'NONE', ( #202, #242, #280, #75 ) ) ;
#291 = LENGTH_MEASURE_WITH_UNIT ( LENGTH_MEASURE( 0.02539999999999999897 ), #110 );
#292 = CARTESIAN_POINT ( 'NONE',  ( 3.966515005238466176E-36, 4.224845266228468119E-19, 0.000000000000000000 ) ) ;
#293 =( GEOMETRIC_REPRESENTATION_CONTEXT ( 3 ) GLOBAL_UNCERTAINTY_ASSIGNED_CONTEXT ( ( #181 ) ) GLOBAL_UNIT_ASSIGNED_CONTEXT ( ( #274, #118, #201 ) ) REPRESENTATION_CONTEXT ( 'NONE', 'WORKASPACE' ) );
#294 = CARTESIAN_POINT ( 'NONE',  ( -0.3124999999999993339, 0.1544411970082242569, 0.000000000000000000 ) ) ;
#295 = DIRECTION ( 'NONE',  ( 1.000000000000000000, -9.388545036063263300E-18, 0.000000000000000000 ) ) ;
#296 = AXIS2_PLACEMENT_3D ( 'NONE', #61, #91, #192 ) ;
#297 = PRESENTATION_LAYER_ASSIGNMENT (  '', '', ( #217 ) ) ;
#298 = ORIENTED_EDGE ( 'NONE', *, *, #271, .F. ) ;
#299 =( LENGTH_UNIT ( ) NAMED_UNIT ( * ) SI_UNIT ( $, .METRE. ) );
#300 = FILL_AREA_STYLE_COLOUR ( '', #182 ) ;
#301 = SURFACE_STYLE_FILL_AREA ( #273 ) ;
#302 = SURFACE_STYLE_FILL_AREA ( #205 ) ;
#303 = VERTEX_POINT ( 'NONE', #96 ) ;
#304 = CYLINDRICAL_SURFACE ( 'NONE', #259, 0.3124999999999998890 ) ;
#305 = FACE_OUTER_BOUND ( 'NONE', #57, .T. ) ;
#306 = PRESENTATION_LAYER_ASSIGNMENT (  '', '', ( #238 ) ) ;
#307 = CARTESIAN_POINT ( 'NONE',  ( 0.3125000000000000000, 0.1544411970082243124, 3.827021247335478926E-17 ) ) ;
#308 =( CONVERSION_BASED_UNIT ( 'INCH', #125 ) LENGTH_UNIT ( ) NAMED_UNIT ( #98 ) );
#309 = CARTESIAN_POINT ( 'NONE',  ( -0.04499999999999999833, 8.449690532456936238E-19, 0.000000000000000000 ) ) ;
ENDSEC;
END-ISO-10303-21;
