ISO-10303-21;
HEADER;
FILE_DESCRIPTION (( 'STEP AP214' ),
    '1' );
FILE_NAME ('59501.STEP',
    '2023-07-24T15:08:05',
    ( '' ),
    ( '' ),
    'SwSTEP 2.0',
    'SolidWorks 2023',
    '' );
FILE_SCHEMA (( 'AUTOMOTIVE_DESIGN' ));
ENDSEC;

DATA;
#1 = PRESENTATION_LAYER_ASSIGNMENT (  '', '', ( #97 ) ) ;
#2 = PRESENTATION_LAYER_ASSIGNMENT (  '', '', ( #120 ) ) ;
#3 = DIRECTION ( 'NONE',  ( 1.560495851798313744E-17, 1.000000000000000000, -0.000000000000000000 ) ) ;
#4 = DIRECTION ( 'NONE',  ( -0.000000000000000000, -1.000000000000000000, -0.000000000000000000 ) ) ;
#5 = CARTESIAN_POINT ( 'NONE',  ( -5.999999999999988454, 75.00000000000000000, 0.000000000000000000 ) ) ;
#6 = LINE ( 'NONE', #261, #175 ) ;
#7 = UNCERTAINTY_MEASURE_WITH_UNIT (LENGTH_MEASURE( 1.000000000000000082E-05 ), #129, 'distance_accuracy_value', 'NONE');
#8 = CIRCLE ( 'NONE', #265, 5.000000000000000000 ) ;
#9 =( LENGTH_UNIT ( ) NAMED_UNIT ( * ) SI_UNIT ( .MILLI., .METRE. ) );
#10 = VERTEX_POINT ( 'NONE', #198 ) ;
#11 = CARTESIAN_POINT ( 'NONE',  ( 0.000000000000000000, 0.000000000000000000, 0.000000000000000000 ) ) ;
#12 = CLOSED_SHELL ( 'NONE', ( #53, #325, #156, #215 ) ) ;
#13 = FILL_AREA_STYLE ('',( #155 ) ) ;
#14 = PRODUCT_DEFINITION_FORMATION_WITH_SPECIFIED_SOURCE ( 'ANY', '', #207, .NOT_KNOWN. ) ;
#15 = EDGE_CURVE ( 'NONE', #10, #194, #204, .T. ) ;
#16 = SURFACE_STYLE_FILL_AREA ( #241 ) ;
#17 = CARTESIAN_POINT ( 'NONE',  ( 6.123233995736762930E-15, 75.00000000000000000, 0.000000000000000000 ) ) ;
#18 = CARTESIAN_POINT ( 'NONE',  ( 0.000000000000000000, 1.000000000000000000, 0.000000000000000000 ) ) ;
#19 = AXIS2_PLACEMENT_3D ( 'NONE', #213, #351, #216 ) ;
#20 = DIRECTION ( 'NONE',  ( -0.000000000000000000, -1.000000000000000000, -0.000000000000000000 ) ) ;
#21 = EDGE_LOOP ( 'NONE', ( #126, #208, #157, #332 ) ) ;
#22 = COLOUR_RGB ( '',1.000000000000000000, 0.000000000000000000, 0.000000000000000000 ) ;
#23 = FACE_OUTER_BOUND ( 'NONE', #361, .T. ) ;
#24 = AXIS2_PLACEMENT_3D ( 'NONE', #195, #20, #50 ) ;
#25 = ORIENTED_EDGE ( 'NONE', *, *, #347, .T. ) ;
#26 = PRODUCT_RELATED_PRODUCT_CATEGORY ( 'part', '', ( #207 ) ) ;
#27 = DIRECTION ( 'NONE',  ( 1.560495851798313744E-17, 1.000000000000000000, -0.000000000000000000 ) ) ;
#28 = DIRECTION ( 'NONE',  ( 0.000000000000000000, -0.000000000000000000, 1.000000000000000000 ) ) ;
#29 = FILL_AREA_STYLE_COLOUR ( '', #22 ) ;
#30 = CARTESIAN_POINT ( 'NONE',  ( 0.000000000000000000, 0.000000000000000000, 0.000000000000000000 ) ) ;
#31 = SURFACE_STYLE_FILL_AREA ( #225 ) ;
#32 = ORIENTED_EDGE ( 'NONE', *, *, #266, .T. ) ;
#33 = MECHANICAL_DESIGN_GEOMETRIC_PRESENTATION_REPRESENTATION (  '', ( #292 ), #40 ) ;
#34 = SURFACE_SIDE_STYLE ('',( #307 ) ) ;
#35 = STYLED_ITEM ( 'NONE', ( #193 ), #200 ) ;
#36 = ADVANCED_FACE ( 'NONE', ( #234 ), #341, .T. ) ;
#37 = DIRECTION ( 'NONE',  ( -0.000000000000000000, -1.000000000000000000, -0.000000000000000000 ) ) ;
#38 = SURFACE_STYLE_USAGE ( .BOTH. , #83 ) ;
#39 = UNCERTAINTY_MEASURE_WITH_UNIT (LENGTH_MEASURE( 1.000000000000000082E-05 ), #178, 'distance_accuracy_value', 'NONE');
#40 =( GEOMETRIC_REPRESENTATION_CONTEXT ( 3 ) GLOBAL_UNCERTAINTY_ASSIGNED_CONTEXT ( ( #205 ) ) GLOBAL_UNIT_ASSIGNED_CONTEXT ( ( #110, #303, #163 ) ) REPRESENTATION_CONTEXT ( 'NONE', 'WORKASPACE' ) );
#41 = DIRECTION ( 'NONE',  ( -1.000000000000000000, 0.000000000000000000, 0.000000000000000000 ) ) ;
#42 = DIRECTION ( 'NONE',  ( 0.000000000000000000, 0.000000000000000000, -1.000000000000000000 ) ) ;
#43 = PRESENTATION_STYLE_ASSIGNMENT (( #244 ) ) ;
#44 = CARTESIAN_POINT ( 'NONE',  ( 6.123233995736762930E-15, 75.00000000000000000, 0.000000000000000000 ) ) ;
#45 = AXIS2_PLACEMENT_3D ( 'NONE', #17, #358, #340 ) ;
#46 = UNCERTAINTY_MEASURE_WITH_UNIT (LENGTH_MEASURE( 1.000000000000000082E-05 ), #232, 'distance_accuracy_value', 'NONE');
#47 = SURFACE_SIDE_STYLE ('',( #77 ) ) ;
#48 = AXIS2_PLACEMENT_3D ( 'NONE', #151, #71, #42 ) ;
#49 = ORIENTED_EDGE ( 'NONE', *, *, #185, .T. ) ;
#50 = DIRECTION ( 'NONE',  ( 0.000000000000000000, 0.000000000000000000, -1.000000000000000000 ) ) ;
#51 = VERTEX_POINT ( 'NONE', #150 ) ;
#52 = ORIENTED_EDGE ( 'NONE', *, *, #185, .F. ) ;
#53 = ADVANCED_FACE ( 'NONE', ( #98 ), #298, .T. ) ;
#54 = AXIS2_PLACEMENT_3D ( 'NONE', #18, #70, #219 ) ;
#55 = PRODUCT_DEFINITION_SHAPE ( 'NONE', 'NONE',  #94 ) ;
#56 = FILL_AREA_STYLE ('',( #29 ) ) ;
#57 = DIRECTION ( 'NONE',  ( -0.000000000000000000, -1.000000000000000000, -0.000000000000000000 ) ) ;
#58 =( NAMED_UNIT ( * ) PLANE_ANGLE_UNIT ( ) SI_UNIT ( $, .RADIAN. ) );
#59 = ORIENTED_EDGE ( 'NONE', *, *, #196, .T. ) ;
#60 = SURFACE_STYLE_FILL_AREA ( #56 ) ;
#61 = VERTEX_POINT ( 'NONE', #316 ) ;
#62 = LINE ( 'NONE', #5, #75 ) ;
#63 = STYLED_ITEM ( 'NONE', ( #43 ), #254 ) ;
#64 = SURFACE_STYLE_USAGE ( .BOTH. , #34 ) ;
#65 = CIRCLE ( 'NONE', #24, 6.000000000000000000 ) ;
#66 = CARTESIAN_POINT ( 'NONE',  ( 0.000000000000000000, 0.000000000000000000, 0.000000000000000000 ) ) ;
#67 = DIRECTION ( 'NONE',  ( 1.000000000000000000, 0.000000000000000000, 0.000000000000000000 ) ) ;
#68 = PLANE ( 'NONE',  #356 ) ;
#69 = AXIS2_PLACEMENT_3D ( 'NONE', #242, #359, #134 ) ;
#70 = DIRECTION ( 'NONE',  ( -0.000000000000000000, -1.000000000000000000, -0.000000000000000000 ) ) ;
#71 = DIRECTION ( 'NONE',  ( 0.000000000000000000, -1.000000000000000000, -0.000000000000000000 ) ) ;
#72 = CARTESIAN_POINT ( 'NONE',  ( 6.123233995736766282E-16, 1.000000000000000000, 5.000000000000000000 ) ) ;
#73 =( GEOMETRIC_REPRESENTATION_CONTEXT ( 3 ) GLOBAL_UNCERTAINTY_ASSIGNED_CONTEXT ( ( #263 ) ) GLOBAL_UNIT_ASSIGNED_CONTEXT ( ( #314, #58, #233 ) ) REPRESENTATION_CONTEXT ( 'NONE', 'WORKASPACE' ) );
#74 = CIRCLE ( 'NONE', #323, 5.999999999999994671 ) ;
#75 = VECTOR ( 'NONE', #3, 1000.000000000000000 ) ;
#76 =( NAMED_UNIT ( * ) PLANE_ANGLE_UNIT ( ) SI_UNIT ( $, .RADIAN. ) );
#77 = SURFACE_STYLE_FILL_AREA ( #217 ) ;
#78 = EDGE_LOOP ( 'NONE', ( #133, #327, #306, #330 ) ) ;
#79 = CLOSED_SHELL ( 'NONE', ( #36, #258, #200, #254, #149, #82 ) ) ;
#80 = MECHANICAL_DESIGN_GEOMETRIC_PRESENTATION_REPRESENTATION (  '', ( #224 ), #289 ) ;
#81 = EDGE_LOOP ( 'NONE', ( #49, #112 ) ) ;
#82 = ADVANCED_FACE ( 'NONE', ( #153 ), #68, .T. ) ;
#83 = SURFACE_SIDE_STYLE ('',( #206 ) ) ;
#84 = EDGE_LOOP ( 'NONE', ( #310, #115, #312, #302 ) ) ;
#85 = CARTESIAN_POINT ( 'NONE',  ( 0.000000000000000000, 1.000000000000000000, 0.000000000000000000 ) ) ;
#86 = COLOUR_RGB ( '',0.7921568627450980005, 0.8196078431372548767, 0.9333333333333333481 ) ;
#87 = CARTESIAN_POINT ( 'NONE',  ( 0.000000000000000000, 1.000000000000000000, -5.000000000000000000 ) ) ;
#88 = EDGE_CURVE ( 'NONE', #51, #109, #240, .T. ) ;
#89 = FILL_AREA_STYLE_COLOUR ( '', #152 ) ;
#90 = VERTEX_POINT ( 'NONE', #321 ) ;
#91 = MANIFOLD_SOLID_BREP ( 'Revolve - Cutting Edge', #79 ) ;
#92 = SURFACE_SIDE_STYLE ('',( #60 ) ) ;
#93 = MANIFOLD_SOLID_BREP ( 'Revolve - Tool Body (Straight Shanked)', #12 ) ;
#94 = PRODUCT_DEFINITION ( 'UNKNOWN', '', #14, #301 ) ;
#95 = DIRECTION ( 'NONE',  ( -0.000000000000000000, -1.000000000000000000, -0.000000000000000000 ) ) ;
#96 = DIRECTION ( 'NONE',  ( -0.000000000000000000, -1.000000000000000000, -0.000000000000000000 ) ) ;
#97 = STYLED_ITEM ( 'NONE', ( #203 ), #82 ) ;
#98 = FACE_OUTER_BOUND ( 'NONE', #84, .T. ) ;
#99 = CIRCLE ( 'NONE', #45, 5.999999999999993783 ) ;
#100 = CARTESIAN_POINT ( 'NONE',  ( -5.999999999999989342, 30.00000000000000000, 0.000000000000000000 ) ) ;
#101 = EDGE_CURVE ( 'NONE', #139, #90, #99, .T. ) ;
#102 = DIRECTION ( 'NONE',  ( 0.000000000000000000, 0.000000000000000000, -1.000000000000000000 ) ) ;
#103 = FILL_AREA_STYLE_COLOUR ( '', #329 ) ;
#104 = DIRECTION ( 'NONE',  ( -0.000000000000000000, -1.000000000000000000, -0.000000000000000000 ) ) ;
#105 = STYLED_ITEM ( 'NONE', ( #342 ), #36 ) ;
#106 = PRESENTATION_LAYER_ASSIGNMENT (  '', '', ( #35 ) ) ;
#107 =( LENGTH_UNIT ( ) NAMED_UNIT ( * ) SI_UNIT ( .MILLI., .METRE. ) );
#108 = SURFACE_STYLE_FILL_AREA ( #246 ) ;
#109 = VERTEX_POINT ( 'NONE', #127 ) ;
#110 =( LENGTH_UNIT ( ) NAMED_UNIT ( * ) SI_UNIT ( .MILLI., .METRE. ) );
#111 = ORIENTED_EDGE ( 'NONE', *, *, #278, .T. ) ;
#112 = ORIENTED_EDGE ( 'NONE', *, *, #328, .T. ) ;
#113 =( GEOMETRIC_REPRESENTATION_CONTEXT ( 3 ) GLOBAL_UNCERTAINTY_ASSIGNED_CONTEXT ( ( #39 ) ) GLOBAL_UNIT_ASSIGNED_CONTEXT ( ( #178, #299, #355 ) ) REPRESENTATION_CONTEXT ( 'NONE', 'WORKASPACE' ) );
#114 = FILL_AREA_STYLE ('',( #89 ) ) ;
#115 = ORIENTED_EDGE ( 'NONE', *, *, #353, .T. ) ;
#116 = DIRECTION ( 'NONE',  ( -1.000000000000000000, 1.560495851798313744E-17, 0.000000000000000000 ) ) ;
#117 = CARTESIAN_POINT ( 'NONE',  ( 6.000000000000000000, 75.00000000000000000, 7.347880794884112834E-16 ) ) ;
#118 = ORIENTED_EDGE ( 'NONE', *, *, #88, .T. ) ;
#119 = CARTESIAN_POINT ( 'NONE',  ( 0.000000000000000000, 0.000000000000000000, 0.000000000000000000 ) ) ;
#120 = STYLED_ITEM ( 'NONE', ( #297 ), #258 ) ;
#121 = SHAPE_DEFINITION_REPRESENTATION ( #55, #287 ) ;
#122 =( NAMED_UNIT ( * ) PLANE_ANGLE_UNIT ( ) SI_UNIT ( $, .RADIAN. ) );
#123 = EDGE_CURVE ( 'NONE', #281, #223, #280, .T. ) ;
#124 = COLOUR_RGB ( '',1.000000000000000000, 0.000000000000000000, 0.000000000000000000 ) ;
#125 = DIRECTION ( 'NONE',  ( 0.000000000000000000, 0.000000000000000000, -1.000000000000000000 ) ) ;
#126 = ORIENTED_EDGE ( 'NONE', *, *, #266, .F. ) ;
#127 = CARTESIAN_POINT ( 'NONE',  ( 7.347880794884118750E-16, 1.000000000000000000, 6.000000000000000000 ) ) ;
#128 = AXIS2_PLACEMENT_3D ( 'NONE', #186, #273, #182 ) ;
#129 =( LENGTH_UNIT ( ) NAMED_UNIT ( * ) SI_UNIT ( .MILLI., .METRE. ) );
#130 = SURFACE_STYLE_USAGE ( .BOTH. , #158 ) ;
#131 =( NAMED_UNIT ( * ) SI_UNIT ( $, .STERADIAN. ) SOLID_ANGLE_UNIT ( ) );
#132 = UNCERTAINTY_MEASURE_WITH_UNIT (LENGTH_MEASURE( 1.000000000000000082E-05 ), #107, 'distance_accuracy_value', 'NONE');
#133 = ORIENTED_EDGE ( 'NONE', *, *, #88, .F. ) ;
#134 = DIRECTION ( 'NONE',  ( 0.000000000000000000, 0.000000000000000000, -1.000000000000000000 ) ) ;
#135 =( NAMED_UNIT ( * ) PLANE_ANGLE_UNIT ( ) SI_UNIT ( $, .RADIAN. ) );
#136 = ORIENTED_EDGE ( 'NONE', *, *, #15, .F. ) ;
#137 = PLANE ( 'NONE',  #189 ) ;
#138 = EDGE_CURVE ( 'NONE', #223, #281, #74, .T. ) ;
#139 = VERTEX_POINT ( 'NONE', #117 ) ;
#140 = AXIS2_PLACEMENT_3D ( 'NONE', #239, #57, #285 ) ;
#141 = SURFACE_SIDE_STYLE ('',( #31 ) ) ;
#142 = ORIENTED_EDGE ( 'NONE', *, *, #353, .F. ) ;
#143 = PRESENTATION_STYLE_ASSIGNMENT (( #148 ) ) ;
#144 = CARTESIAN_POINT ( 'NONE',  ( 5.421010862427522170E-15, 30.00000000000000000, 0.000000000000000000 ) ) ;
#145 = APPLICATION_PROTOCOL_DEFINITION ( 'draft international standard', 'automotive_design', 1998, #334 ) ;
#146 = EDGE_CURVE ( 'NONE', #194, #187, #202, .T. ) ;
#147 =( NAMED_UNIT ( * ) SI_UNIT ( $, .STERADIAN. ) SOLID_ANGLE_UNIT ( ) );
#148 = SURFACE_STYLE_USAGE ( .BOTH. , #141 ) ;
#149 = ADVANCED_FACE ( 'NONE', ( #209 ), #171, .T. ) ;
#150 = CARTESIAN_POINT ( 'NONE',  ( 7.347880794884119736E-16, 30.00000000000000000, 6.000000000000000000 ) ) ;
#151 = CARTESIAN_POINT ( 'NONE',  ( 0.000000000000000000, 0.000000000000000000, 0.000000000000000000 ) ) ;
#152 = COLOUR_RGB ( '',1.000000000000000000, 0.000000000000000000, 0.000000000000000000 ) ;
#153 = FACE_OUTER_BOUND ( 'NONE', #174, .T. ) ;
#154 =( GEOMETRIC_REPRESENTATION_CONTEXT ( 3 ) GLOBAL_UNCERTAINTY_ASSIGNED_CONTEXT ( ( #324 ) ) GLOBAL_UNIT_ASSIGNED_CONTEXT ( ( #300, #221, #349 ) ) REPRESENTATION_CONTEXT ( 'NONE', 'WORKASPACE' ) );
#155 = FILL_AREA_STYLE_COLOUR ( '', #268 ) ;
#156 = ADVANCED_FACE ( 'NONE', ( #23 ), #257, .T. ) ;
#157 = ORIENTED_EDGE ( 'NONE', *, *, #146, .T. ) ;
#158 = SURFACE_SIDE_STYLE ('',( #16 ) ) ;
#159 = FILL_AREA_STYLE_COLOUR ( '', #86 ) ;
#160 = MECHANICAL_DESIGN_GEOMETRIC_PRESENTATION_REPRESENTATION (  '', ( #105 ), #343 ) ;
#161 = CIRCLE ( 'NONE', #128, 6.000000000000000000 ) ;
#162 = CIRCLE ( 'NONE', #237, 1.000000000000000000 ) ;
#163 =( NAMED_UNIT ( * ) SI_UNIT ( $, .STERADIAN. ) SOLID_ANGLE_UNIT ( ) );
#164 = DIRECTION ( 'NONE',  ( -1.000000000000000000, 0.000000000000000000, 0.000000000000000000 ) ) ;
#165 = APPLICATION_CONTEXT ( 'automotive_design' ) ;
#166 = EDGE_LOOP ( 'NONE', ( #59, #118, #274, #136 ) ) ;
#167 = STYLED_ITEM ( 'NONE', ( #222 ), #91 ) ;
#168 = AXIS2_PLACEMENT_3D ( 'NONE', #369, #197, #125 ) ;
#169 = CARTESIAN_POINT ( 'NONE',  ( 0.000000000000000000, 30.00000000000000000, 0.000000000000000000 ) ) ;
#170 = DIRECTION ( 'NONE',  ( -1.224646799147352468E-16, 0.000000000000000000, -1.000000000000000000 ) ) ;
#171 = CYLINDRICAL_SURFACE ( 'NONE', #168, 6.000000000000000000 ) ;
#172 = ORIENTED_EDGE ( 'NONE', *, *, #290, .T. ) ;
#173 =( LENGTH_UNIT ( ) NAMED_UNIT ( * ) SI_UNIT ( .MILLI., .METRE. ) );
#174 = EDGE_LOOP ( 'NONE', ( #250, #248 ) ) ;
#175 = VECTOR ( 'NONE', #201, 1000.000000000000000 ) ;
#176 =( NAMED_UNIT ( * ) SI_UNIT ( $, .STERADIAN. ) SOLID_ANGLE_UNIT ( ) );
#177 = DIRECTION ( 'NONE',  ( 0.000000000000000000, 0.000000000000000000, 1.000000000000000000 ) ) ;
#178 =( LENGTH_UNIT ( ) NAMED_UNIT ( * ) SI_UNIT ( .MILLI., .METRE. ) );
#179 = CARTESIAN_POINT ( 'NONE',  ( 0.000000000000000000, 1.000000000000000000, -6.000000000000000000 ) ) ;
#180 = TOROIDAL_SURFACE ( 'NONE', #69, 5.000000000000000000, 0.9999999999999995559 ) ;
#181 = PLANE ( 'NONE',  #19 ) ;
#182 = DIRECTION ( 'NONE',  ( 0.000000000000000000, 0.000000000000000000, -1.000000000000000000 ) ) ;
#183 = AXIS2_PLACEMENT_3D ( 'NONE', #11, #96, #102 ) ;
#184 = AXIS2_PLACEMENT_3D ( 'NONE', #66, #177, #67 ) ;
#185 = EDGE_CURVE ( 'NONE', #187, #61, #8, .T. ) ;
#186 = CARTESIAN_POINT ( 'NONE',  ( 0.000000000000000000, 30.00000000000000000, 0.000000000000000000 ) ) ;
#187 = VERTEX_POINT ( 'NONE', #229 ) ;
#188 = AXIS2_PLACEMENT_3D ( 'NONE', #238, #346, #333 ) ;
#189 = AXIS2_PLACEMENT_3D ( 'NONE', #283, #368, #116 ) ;
#190 = FILL_AREA_STYLE_COLOUR ( '', #362 ) ;
#191 = ORIENTED_EDGE ( 'NONE', *, *, #146, .F. ) ;
#192 = DIRECTION ( 'NONE',  ( 1.000000000000000000, 0.000000000000000000, -1.224646799147353207E-16 ) ) ;
#193 = PRESENTATION_STYLE_ASSIGNMENT (( #38 ) ) ;
#194 = VERTEX_POINT ( 'NONE', #179 ) ;
#195 = CARTESIAN_POINT ( 'NONE',  ( 0.000000000000000000, 1.000000000000000000, 0.000000000000000000 ) ) ;
#196 = EDGE_CURVE ( 'NONE', #10, #51, #218, .T. ) ;
#197 = DIRECTION ( 'NONE',  ( -0.000000000000000000, -1.000000000000000000, -0.000000000000000000 ) ) ;
#198 = CARTESIAN_POINT ( 'NONE',  ( 0.000000000000000000, 30.00000000000000000, -6.000000000000000000 ) ) ;
#199 = EDGE_LOOP ( 'NONE', ( #172, #227 ) ) ;
#200 = ADVANCED_FACE ( 'NONE', ( #366 ), #311, .T. ) ;
#201 = DIRECTION ( 'NONE',  ( 1.560495851798313744E-17, 1.000000000000000000, -0.000000000000000000 ) ) ;
#202 = CIRCLE ( 'NONE', #252, 1.000000000000000000 ) ;
#203 = PRESENTATION_STYLE_ASSIGNMENT (( #64 ) ) ;
#204 = LINE ( 'NONE', #338, #267 ) ;
#205 = UNCERTAINTY_MEASURE_WITH_UNIT (LENGTH_MEASURE( 1.000000000000000082E-05 ), #110, 'distance_accuracy_value', 'NONE');
#206 = SURFACE_STYLE_FILL_AREA ( #114 ) ;
#207 = PRODUCT ( '59501', '59501', '', ( #339 ) ) ;
#208 = ORIENTED_EDGE ( 'NONE', *, *, #243, .T. ) ;
#209 = FACE_OUTER_BOUND ( 'NONE', #78, .T. ) ;
#210 = PRESENTATION_LAYER_ASSIGNMENT (  '', '', ( #167 ) ) ;
#211 = MECHANICAL_DESIGN_GEOMETRIC_PRESENTATION_REPRESENTATION (  '', ( #120 ), #154 ) ;
#212 = CIRCLE ( 'NONE', #350, 5.000000000000000000 ) ;
#213 = CARTESIAN_POINT ( 'NONE',  ( 6.000000000000000000, 75.00000000000000000, 0.000000000000000000 ) ) ;
#214 = FACE_OUTER_BOUND ( 'NONE', #335, .T. ) ;
#215 = ADVANCED_FACE ( 'NONE', ( #296 ), #181, .F. ) ;
#216 = DIRECTION ( 'NONE',  ( 1.000000000000000000, -1.560495851798313744E-17, 0.000000000000000000 ) ) ;
#217 = FILL_AREA_STYLE ('',( #271 ) ) ;
#218 = CIRCLE ( 'NONE', #140, 6.000000000000000000 ) ;
#219 = DIRECTION ( 'NONE',  ( 0.000000000000000000, 0.000000000000000000, -1.000000000000000000 ) ) ;
#220 = PRESENTATION_STYLE_ASSIGNMENT (( #326 ) ) ;
#221 =( NAMED_UNIT ( * ) PLANE_ANGLE_UNIT ( ) SI_UNIT ( $, .RADIAN. ) );
#222 = PRESENTATION_STYLE_ASSIGNMENT (( #249 ) ) ;
#223 = VERTEX_POINT ( 'NONE', #100 ) ;
#224 = STYLED_ITEM ( 'NONE', ( #143 ), #149 ) ;
#225 = FILL_AREA_STYLE ('',( #293 ) ) ;
#226 = EDGE_CURVE ( 'NONE', #51, #10, #161, .T. ) ;
#227 = ORIENTED_EDGE ( 'NONE', *, *, #101, .T. ) ;
#228 = CARTESIAN_POINT ( 'NONE',  ( 6.123233995736762930E-15, 75.00000000000000000, 0.000000000000000000 ) ) ;
#229 = CARTESIAN_POINT ( 'NONE',  ( 0.000000000000000000, 0.000000000000000000, -5.000000000000000000 ) ) ;
#230 = ORIENTED_EDGE ( 'NONE', *, *, #123, .T. ) ;
#231 = DIRECTION ( 'NONE',  ( -1.000000000000000000, 0.000000000000000000, 0.000000000000000000 ) ) ;
#232 =( LENGTH_UNIT ( ) NAMED_UNIT ( * ) SI_UNIT ( .MILLI., .METRE. ) );
#233 =( NAMED_UNIT ( * ) SI_UNIT ( $, .STERADIAN. ) SOLID_ANGLE_UNIT ( ) );
#234 = FACE_OUTER_BOUND ( 'NONE', #166, .T. ) ;
#235 = MECHANICAL_DESIGN_GEOMETRIC_PRESENTATION_REPRESENTATION (  '', ( #97 ), #73 ) ;
#236 = PRESENTATION_LAYER_ASSIGNMENT (  '', '', ( #224 ) ) ;
#237 = AXIS2_PLACEMENT_3D ( 'NONE', #72, #192, #170 ) ;
#238 = CARTESIAN_POINT ( 'NONE',  ( 6.123233995736762930E-15, 75.00000000000000000, 0.000000000000000000 ) ) ;
#239 = CARTESIAN_POINT ( 'NONE',  ( 0.000000000000000000, 30.00000000000000000, 0.000000000000000000 ) ) ;
#240 = LINE ( 'NONE', #348, #279 ) ;
#241 = FILL_AREA_STYLE ('',( #103 ) ) ;
#242 = CARTESIAN_POINT ( 'NONE',  ( 0.000000000000000000, 1.000000000000000000, 0.000000000000000000 ) ) ;
#243 = EDGE_CURVE ( 'NONE', #109, #194, #363, .T. ) ;
#244 = SURFACE_STYLE_USAGE ( .BOTH. , #270 ) ;
#245 = DIRECTION ( 'NONE',  ( 1.560495851798313744E-17, 1.000000000000000000, -0.000000000000000000 ) ) ;
#246 = FILL_AREA_STYLE ('',( #159 ) ) ;
#247 =( GEOMETRIC_REPRESENTATION_CONTEXT ( 3 ) GLOBAL_UNCERTAINTY_ASSIGNED_CONTEXT ( ( #7 ) ) GLOBAL_UNIT_ASSIGNED_CONTEXT ( ( #129, #135, #131 ) ) REPRESENTATION_CONTEXT ( 'NONE', 'WORKASPACE' ) );
#248 = ORIENTED_EDGE ( 'NONE', *, *, #226, .F. ) ;
#249 = SURFACE_STYLE_USAGE ( .BOTH. , #47 ) ;
#250 = ORIENTED_EDGE ( 'NONE', *, *, #196, .F. ) ;
#251 = PRESENTATION_LAYER_ASSIGNMENT (  '', '', ( #105 ) ) ;
#252 = AXIS2_PLACEMENT_3D ( 'NONE', #87, #315, #370 ) ;
#253 = CARTESIAN_POINT ( 'NONE',  ( 6.000000000000000000, 30.00000000000000000, 7.347880794884112834E-16 ) ) ;
#254 = ADVANCED_FACE ( 'NONE', ( #295 ), #180, .T. ) ;
#255 = ORIENTED_EDGE ( 'NONE', *, *, #123, .F. ) ;
#256 =( NAMED_UNIT ( * ) SI_UNIT ( $, .STERADIAN. ) SOLID_ANGLE_UNIT ( ) );
#257 = CYLINDRICAL_SURFACE ( 'NONE', #188, 5.999999999999994671 ) ;
#258 = ADVANCED_FACE ( 'NONE', ( #214 ), #282, .T. ) ;
#259 = PRESENTATION_LAYER_ASSIGNMENT (  '', '', ( #292 ) ) ;
#260 = PRESENTATION_LAYER_ASSIGNMENT (  '', '', ( #63 ) ) ;
#261 = CARTESIAN_POINT ( 'NONE',  ( 6.000000000000000888, 75.00000000000000000, 7.347880794884112834E-16 ) ) ;
#262 = DIRECTION ( 'NONE',  ( 0.000000000000000000, 0.000000000000000000, -1.000000000000000000 ) ) ;
#263 = UNCERTAINTY_MEASURE_WITH_UNIT (LENGTH_MEASURE( 1.000000000000000082E-05 ), #314, 'distance_accuracy_value', 'NONE');
#264 = DIRECTION ( 'NONE',  ( 1.560495851798313744E-17, 1.000000000000000000, -0.000000000000000000 ) ) ;
#265 = AXIS2_PLACEMENT_3D ( 'NONE', #119, #95, #336 ) ;
#266 = EDGE_CURVE ( 'NONE', #109, #61, #162, .T. ) ;
#267 = VECTOR ( 'NONE', #4, 1000.000000000000000 ) ;
#268 = COLOUR_RGB ( '',1.000000000000000000, 0.000000000000000000, 0.000000000000000000 ) ;
#269 = CIRCLE ( 'NONE', #304, 5.999999999999993783 ) ;
#270 = SURFACE_SIDE_STYLE ('',( #352 ) ) ;
#271 = FILL_AREA_STYLE_COLOUR ( '', #322 ) ;
#272 =( NAMED_UNIT ( * ) SI_UNIT ( $, .STERADIAN. ) SOLID_ANGLE_UNIT ( ) );
#273 = DIRECTION ( 'NONE',  ( -0.000000000000000000, -1.000000000000000000, -0.000000000000000000 ) ) ;
#274 = ORIENTED_EDGE ( 'NONE', *, *, #278, .F. ) ;
#275 = DIRECTION ( 'NONE',  ( -0.000000000000000000, -1.000000000000000000, -0.000000000000000000 ) ) ;
#276 = FACE_OUTER_BOUND ( 'NONE', #367, .T. ) ;
#277 = FILL_AREA_STYLE ('',( #190 ) ) ;
#278 = EDGE_CURVE ( 'NONE', #194, #109, #65, .T. ) ;
#279 = VECTOR ( 'NONE', #104, 1000.000000000000000 ) ;
#280 = CIRCLE ( 'NONE', #313, 5.999999999999994671 ) ;
#281 = VERTEX_POINT ( 'NONE', #253 ) ;
#282 = TOROIDAL_SURFACE ( 'NONE', #294, 5.000000000000000000, 0.9999999999999995559 ) ;
#283 = CARTESIAN_POINT ( 'NONE',  ( 5.421010862427522170E-15, 30.00000000000000000, 0.000000000000000000 ) ) ;
#284 = DIRECTION ( 'NONE',  ( 0.000000000000000000, 1.000000000000000000, 0.000000000000000000 ) ) ;
#285 = DIRECTION ( 'NONE',  ( 0.000000000000000000, 0.000000000000000000, -1.000000000000000000 ) ) ;
#286 =( NAMED_UNIT ( * ) PLANE_ANGLE_UNIT ( ) SI_UNIT ( $, .RADIAN. ) );
#287 = ADVANCED_BREP_SHAPE_REPRESENTATION ( '59501', ( #91, #93, #184 ), #364 ) ;
#288 = SURFACE_STYLE_USAGE ( .BOTH. , #92 ) ;
#289 =( GEOMETRIC_REPRESENTATION_CONTEXT ( 3 ) GLOBAL_UNCERTAINTY_ASSIGNED_CONTEXT ( ( #318 ) ) GLOBAL_UNIT_ASSIGNED_CONTEXT ( ( #9, #320, #256 ) ) REPRESENTATION_CONTEXT ( 'NONE', 'WORKASPACE' ) );
#290 = EDGE_CURVE ( 'NONE', #90, #139, #269, .T. ) ;
#291 = ORIENTED_EDGE ( 'NONE', *, *, #101, .F. ) ;
#292 = STYLED_ITEM ( 'NONE', ( #220 ), #93 ) ;
#293 = FILL_AREA_STYLE_COLOUR ( '', #124 ) ;
#294 = AXIS2_PLACEMENT_3D ( 'NONE', #85, #275, #331 ) ;
#295 = FACE_OUTER_BOUND ( 'NONE', #21, .T. ) ;
#296 = FACE_OUTER_BOUND ( 'NONE', #199, .T. ) ;
#297 = PRESENTATION_STYLE_ASSIGNMENT (( #130 ) ) ;
#298 = CYLINDRICAL_SURFACE ( 'NONE', #319, 5.999999999999994671 ) ;
#299 =( NAMED_UNIT ( * ) PLANE_ANGLE_UNIT ( ) SI_UNIT ( $, .RADIAN. ) );
#300 =( LENGTH_UNIT ( ) NAMED_UNIT ( * ) SI_UNIT ( .MILLI., .METRE. ) );
#301 = PRODUCT_DEFINITION_CONTEXT ( 'detailed design', #334, 'design' ) ;
#302 = ORIENTED_EDGE ( 'NONE', *, *, #347, .F. ) ;
#303 =( NAMED_UNIT ( * ) PLANE_ANGLE_UNIT ( ) SI_UNIT ( $, .RADIAN. ) );
#304 = AXIS2_PLACEMENT_3D ( 'NONE', #228, #365, #164 ) ;
#305 = ORIENTED_EDGE ( 'NONE', *, *, #138, .F. ) ;
#306 = ORIENTED_EDGE ( 'NONE', *, *, #15, .T. ) ;
#307 = SURFACE_STYLE_FILL_AREA ( #277 ) ;
#308 = CARTESIAN_POINT ( 'NONE',  ( 5.421010862427522170E-15, 30.00000000000000000, 0.000000000000000000 ) ) ;
#309 = MECHANICAL_DESIGN_GEOMETRIC_PRESENTATION_REPRESENTATION (  '', ( #167 ), #247 ) ;
#310 = ORIENTED_EDGE ( 'NONE', *, *, #138, .T. ) ;
#311 = PLANE ( 'NONE',  #48 ) ;
#312 = ORIENTED_EDGE ( 'NONE', *, *, #290, .F. ) ;
#313 = AXIS2_PLACEMENT_3D ( 'NONE', #308, #264, #231 ) ;
#314 =( LENGTH_UNIT ( ) NAMED_UNIT ( * ) SI_UNIT ( .MILLI., .METRE. ) );
#315 = DIRECTION ( 'NONE',  ( -1.000000000000000000, 0.000000000000000000, 0.000000000000000000 ) ) ;
#316 = CARTESIAN_POINT ( 'NONE',  ( 6.735557395310443009E-16, 0.000000000000000000, 5.000000000000000000 ) ) ;
#317 = APPLICATION_PROTOCOL_DEFINITION ( 'draft international standard', 'automotive_design', 1998, #165 ) ;
#318 = UNCERTAINTY_MEASURE_WITH_UNIT (LENGTH_MEASURE( 1.000000000000000082E-05 ), #9, 'distance_accuracy_value', 'NONE');
#319 = AXIS2_PLACEMENT_3D ( 'NONE', #44, #245, #354 ) ;
#320 =( NAMED_UNIT ( * ) PLANE_ANGLE_UNIT ( ) SI_UNIT ( $, .RADIAN. ) );
#321 = CARTESIAN_POINT ( 'NONE',  ( -5.999999999999987566, 75.00000000000000000, 0.000000000000000000 ) ) ;
#322 = COLOUR_RGB ( '',0.7921568627450980005, 0.8196078431372548767, 0.9333333333333333481 ) ;
#323 = AXIS2_PLACEMENT_3D ( 'NONE', #144, #27, #41 ) ;
#324 = UNCERTAINTY_MEASURE_WITH_UNIT (LENGTH_MEASURE( 1.000000000000000082E-05 ), #300, 'distance_accuracy_value', 'NONE');
#325 = ADVANCED_FACE ( 'NONE', ( #276 ), #137, .F. ) ;
#326 = SURFACE_STYLE_USAGE ( .BOTH. , #360 ) ;
#327 = ORIENTED_EDGE ( 'NONE', *, *, #226, .T. ) ;
#328 = EDGE_CURVE ( 'NONE', #61, #187, #212, .T. ) ;
#329 = COLOUR_RGB ( '',1.000000000000000000, 0.000000000000000000, 0.000000000000000000 ) ;
#330 = ORIENTED_EDGE ( 'NONE', *, *, #243, .F. ) ;
#331 = DIRECTION ( 'NONE',  ( 0.000000000000000000, 0.000000000000000000, -1.000000000000000000 ) ) ;
#332 = ORIENTED_EDGE ( 'NONE', *, *, #328, .F. ) ;
#333 = DIRECTION ( 'NONE',  ( -1.000000000000000000, 0.000000000000000000, 0.000000000000000000 ) ) ;
#334 = APPLICATION_CONTEXT ( 'automotive_design' ) ;
#335 = EDGE_LOOP ( 'NONE', ( #111, #32, #52, #191 ) ) ;
#336 = DIRECTION ( 'NONE',  ( 0.000000000000000000, 0.000000000000000000, -1.000000000000000000 ) ) ;
#337 =( GEOMETRIC_REPRESENTATION_CONTEXT ( 3 ) GLOBAL_UNCERTAINTY_ASSIGNED_CONTEXT ( ( #132 ) ) GLOBAL_UNIT_ASSIGNED_CONTEXT ( ( #107, #76, #272 ) ) REPRESENTATION_CONTEXT ( 'NONE', 'WORKASPACE' ) );
#338 = CARTESIAN_POINT ( 'NONE',  ( 0.000000000000000000, 0.000000000000000000, -6.000000000000000000 ) ) ;
#339 = PRODUCT_CONTEXT ( 'NONE', #165, 'mechanical' ) ;
#340 = DIRECTION ( 'NONE',  ( -1.000000000000000000, 0.000000000000000000, 0.000000000000000000 ) ) ;
#341 = CYLINDRICAL_SURFACE ( 'NONE', #183, 6.000000000000000000 ) ;
#342 = PRESENTATION_STYLE_ASSIGNMENT (( #288 ) ) ;
#343 =( GEOMETRIC_REPRESENTATION_CONTEXT ( 3 ) GLOBAL_UNCERTAINTY_ASSIGNED_CONTEXT ( ( #344 ) ) GLOBAL_UNIT_ASSIGNED_CONTEXT ( ( #173, #286, #176 ) ) REPRESENTATION_CONTEXT ( 'NONE', 'WORKASPACE' ) );
#344 = UNCERTAINTY_MEASURE_WITH_UNIT (LENGTH_MEASURE( 1.000000000000000082E-05 ), #173, 'distance_accuracy_value', 'NONE');
#345 = MECHANICAL_DESIGN_GEOMETRIC_PRESENTATION_REPRESENTATION (  '', ( #63 ), #337 ) ;
#346 = DIRECTION ( 'NONE',  ( 1.560495851798313744E-17, 1.000000000000000000, -0.000000000000000000 ) ) ;
#347 = EDGE_CURVE ( 'NONE', #223, #90, #62, .T. ) ;
#348 = CARTESIAN_POINT ( 'NONE',  ( 7.347880794884119736E-16, 0.000000000000000000, 6.000000000000000000 ) ) ;
#349 =( NAMED_UNIT ( * ) SI_UNIT ( $, .STERADIAN. ) SOLID_ANGLE_UNIT ( ) );
#350 = AXIS2_PLACEMENT_3D ( 'NONE', #30, #37, #262 ) ;
#351 = DIRECTION ( 'NONE',  ( -1.560495851798313744E-17, -1.000000000000000000, 0.000000000000000000 ) ) ;
#352 = SURFACE_STYLE_FILL_AREA ( #13 ) ;
#353 = EDGE_CURVE ( 'NONE', #281, #139, #6, .T. ) ;
#354 = DIRECTION ( 'NONE',  ( -1.000000000000000000, 0.000000000000000000, 0.000000000000000000 ) ) ;
#355 =( NAMED_UNIT ( * ) SI_UNIT ( $, .STERADIAN. ) SOLID_ANGLE_UNIT ( ) );
#356 = AXIS2_PLACEMENT_3D ( 'NONE', #169, #284, #28 ) ;
#357 = MECHANICAL_DESIGN_GEOMETRIC_PRESENTATION_REPRESENTATION (  '', ( #35 ), #113 ) ;
#358 = DIRECTION ( 'NONE',  ( 1.560495851798313744E-17, 1.000000000000000000, -0.000000000000000000 ) ) ;
#359 = DIRECTION ( 'NONE',  ( -0.000000000000000000, -1.000000000000000000, -0.000000000000000000 ) ) ;
#360 = SURFACE_SIDE_STYLE ('',( #108 ) ) ;
#361 = EDGE_LOOP ( 'NONE', ( #142, #230, #25, #291 ) ) ;
#362 = COLOUR_RGB ( '',1.000000000000000000, 0.000000000000000000, 0.000000000000000000 ) ;
#363 = CIRCLE ( 'NONE', #54, 6.000000000000000000 ) ;
#364 =( GEOMETRIC_REPRESENTATION_CONTEXT ( 3 ) GLOBAL_UNCERTAINTY_ASSIGNED_CONTEXT ( ( #46 ) ) GLOBAL_UNIT_ASSIGNED_CONTEXT ( ( #232, #122, #147 ) ) REPRESENTATION_CONTEXT ( 'NONE', 'WORKASPACE' ) );
#365 = DIRECTION ( 'NONE',  ( 1.560495851798313744E-17, 1.000000000000000000, -0.000000000000000000 ) ) ;
#366 = FACE_OUTER_BOUND ( 'NONE', #81, .T. ) ;
#367 = EDGE_LOOP ( 'NONE', ( #305, #255 ) ) ;
#368 = DIRECTION ( 'NONE',  ( 1.560495851798313744E-17, 1.000000000000000000, -0.000000000000000000 ) ) ;
#369 = CARTESIAN_POINT ( 'NONE',  ( 0.000000000000000000, 0.000000000000000000, 0.000000000000000000 ) ) ;
#370 = DIRECTION ( 'NONE',  ( 0.000000000000000000, 0.000000000000000000, 1.000000000000000000 ) ) ;
ENDSEC;
END-ISO-10303-21;
