ISO-10303-21;
HEADER;
FILE_DESCRIPTION (( 'STEP AP214' ),
    '1' );
FILE_NAME ('Micro_DC-4.STEP',
    '2021-08-31T17:22:34',
    ( '' ),
    ( '' ),
    'SwSTEP 2.0',
    'SolidWorks 2020',
    '' );
FILE_SCHEMA (( 'AUTOMOTIVE_DESIGN' ));
ENDSEC;

DATA;
#1 = DIRECTION ( 'NONE',  ( 1.285575526430241399E-16, 0.0000000000000000000, -1.000000000000000000 ) ) ;
#2 = DIRECTION ( 'NONE',  ( -1.000000000000000000, 0.0000000000000000000, 0.0000000000000000000 ) ) ;
#3 = ORIENTED_EDGE ( 'NONE', *, *, #269, .F. ) ;
#4 = AXIS2_PLACEMENT_3D ( 'NONE', #325, #26, #396 ) ;
#5 = EDGE_LOOP ( 'NONE', ( #253, #313, #297, #58 ) ) ;
#6 = ORIENTED_EDGE ( 'NONE', *, *, #384, .T. ) ;
#7 = DIRECTION ( 'NONE',  ( -0.8571673007021136659, -1.049727191138620298E-16, -0.5150380749100519351 ) ) ;
#8 = EDGE_LOOP ( 'NONE', ( #96, #335, #236 ) ) ;
#9 = CYLINDRICAL_SURFACE ( 'NONE', #153, 0.06249999999999999306 ) ;
#10 = ORIENTED_EDGE ( 'NONE', *, *, #269, .T. ) ;
#11 = PRESENTATION_LAYER_ASSIGNMENT (  '', '', ( #190 ) ) ;
#12 = DIRECTION ( 'NONE',  ( 0.8571673007021137769, 0.0000000000000000000, -0.5150380749100517130 ) ) ;
#13 = DIRECTION ( 'NONE',  ( -0.0000000000000000000, -0.0000000000000000000, -1.000000000000000000 ) ) ;
#14 = DIRECTION ( 'NONE',  ( 0.5000000000000013323, 0.0000000000000000000, -0.8660254037844377084 ) ) ;
#15 = CARTESIAN_POINT ( 'NONE',  ( 5.061320970197801148E-15, 0.0000000000000000000, 39.37007874015748143 ) ) ;
#16 = CONICAL_SURFACE ( 'NONE', #65, 65.52281426576882950, 1.029744258676657198 ) ;
#17 = CARTESIAN_POINT ( 'NONE',  ( 0.06250000000000001388, 0.0000000000000000000, 0.1625537886892222950 ) ) ;
#18 = AXIS2_PLACEMENT_3D ( 'NONE', #397, #296, #213 ) ;
#19 = ADVANCED_FACE ( 'NONE', ( #143 ), #51, .T. ) ;
#20 = DIRECTION ( 'NONE',  ( 1.000000000000000000, 0.0000000000000000000, -1.334178587669835812E-16 ) ) ;
#21 = FILL_AREA_STYLE_COLOUR ( '', #267 ) ;
#22 = FACE_OUTER_BOUND ( 'NONE', #66, .T. ) ;
#23 = ORIENTED_EDGE ( 'NONE', *, *, #290, .T. ) ;
#24 = AXIS2_PLACEMENT_3D ( 'NONE', #131, #233, #252 ) ;
#25 = DIRECTION ( 'NONE',  ( 1.000000000000000000, 0.0000000000000000000, 0.0000000000000000000 ) ) ;
#26 = DIRECTION ( 'NONE',  ( 1.285575526430241399E-16, 0.0000000000000000000, -1.000000000000000000 ) ) ;
#27 = VERTEX_POINT ( 'NONE', #239 ) ;
#28 = DIRECTION ( 'NONE',  ( -1.285575526430241399E-16, -0.0000000000000000000, 1.000000000000000000 ) ) ;
#29 = EDGE_LOOP ( 'NONE', ( #68, #328, #158, #250 ) ) ;
#30 = CARTESIAN_POINT ( 'NONE',  ( 2.089751724673771771E-17, 0.0000000000000000000, 0.1625537886892222950 ) ) ;
#31 = EDGE_CURVE ( 'NONE', #99, #319, #322, .T. ) ;
#32 = CYLINDRICAL_SURFACE ( 'NONE', #43, 0.06249999999999999306 ) ;
#33 = VERTEX_POINT ( 'NONE', #291 ) ;
#34 = ORIENTED_EDGE ( 'NONE', *, *, #276, .T. ) ;
#35 = ORIENTED_EDGE ( 'NONE', *, *, #50, .T. ) ;
#36 = DIRECTION ( 'NONE',  ( 1.000000000000000000, 0.0000000000000000000, 0.0000000000000000000 ) ) ;
#37 = ORIENTED_EDGE ( 'NONE', *, *, #302, .F. ) ;
#38 = EDGE_CURVE ( 'NONE', #103, #168, #370, .T. ) ;
#39 = ORIENTED_EDGE ( 'NONE', *, *, #111, .F. ) ;
#40 = CIRCLE ( 'NONE', #387, 0.1562499999999999722 ) ;
#41 = CARTESIAN_POINT ( 'NONE',  ( 0.06250000000000001388, -7.654042494670959086E-18, 1.962446211310777677 ) ) ;
#42 = VECTOR ( 'NONE', #72, 39.37007874015748143 ) ;
#43 = AXIS2_PLACEMENT_3D ( 'NONE', #245, #360, #212 ) ;
#44 = DIRECTION ( 'NONE',  ( -1.285575526430241399E-16, -0.0000000000000000000, -1.000000000000000000 ) ) ;
#45 = CIRCLE ( 'NONE', #392, 0.06249999999999999306 ) ;
#46 = DIRECTION ( 'NONE',  ( 1.285575526430241399E-16, 0.0000000000000000000, -1.000000000000000000 ) ) ;
#47 = DIRECTION ( 'NONE',  ( -1.000000000000000000, 0.0000000000000000000, 0.0000000000000000000 ) ) ;
#48 = EDGE_LOOP ( 'NONE', ( #191, #339, #10, #342 ) ) ;
#49 = CONICAL_SURFACE ( 'NONE', #332, 65.52281426576882950, 1.029744258676657198 ) ;
#50 = EDGE_CURVE ( 'NONE', #148, #366, #106, .T. ) ;
#51 = CYLINDRICAL_SURFACE ( 'NONE', #244, 0.1562500000000000000 ) ;
#52 = CARTESIAN_POINT ( 'NONE',  ( 2.089751724673771771E-17, 0.0000000000000000000, 1.962446211310777677 ) ) ;
#53 = FACE_OUTER_BOUND ( 'NONE', #185, .T. ) ;
#54 = AXIS2_PLACEMENT_3D ( 'NONE', #30, #83, #305 ) ;
#55 = CYLINDRICAL_SURFACE ( 'NONE', #346, 0.06249999999999999306 ) ;
#56 = VECTOR ( 'NONE', #77, 39.37007874015748143 ) ;
#57 = CARTESIAN_POINT ( 'NONE',  ( 2.089751724673771771E-17, 0.0000000000000000000, 1.962446211310777677 ) ) ;
#58 = ORIENTED_EDGE ( 'NONE', *, *, #317, .T. ) ;
#59 = EDGE_CURVE ( 'NONE', #308, #374, #74, .T. ) ;
#60 = DIRECTION ( 'NONE',  ( -1.285575526430241399E-16, -0.0000000000000000000, -1.000000000000000000 ) ) ;
#61 = PRODUCT_DEFINITION ( 'UNKNOWN', '', #97, #124 ) ;
#62 = CARTESIAN_POINT ( 'NONE',  ( 0.0000000000000000000, 0.0000000000000000000, 2.125000000000000000 ) ) ;
#63 = ORIENTED_EDGE ( 'NONE', *, *, #384, .F. ) ;
#64 = EDGE_LOOP ( 'NONE', ( #249, #162, #156, #227 ) ) ;
#65 = AXIS2_PLACEMENT_3D ( 'NONE', #152, #275, #120 ) ;
#66 = EDGE_LOOP ( 'NONE', ( #136, #282, #222, #188 ) ) ;
#67 = ADVANCED_BREP_SHAPE_REPRESENTATION ( 'Micro_DC-4', ( #122, #206 ), #388 ) ;
#68 = ORIENTED_EDGE ( 'NONE', *, *, #361, .F. ) ;
#69 = LINE ( 'NONE', #318, #115 ) ;
#70 = ADVANCED_FACE ( 'NONE', ( #264 ), #251, .T. ) ;
#71 = ORIENTED_EDGE ( 'NONE', *, *, #125, .T. ) ;
#72 = DIRECTION ( 'NONE',  ( -1.285575526430241399E-16, -0.0000000000000000000, -1.000000000000000000 ) ) ;
#73 = DIRECTION ( 'NONE',  ( 1.285575526430241399E-16, 0.0000000000000000000, -1.000000000000000000 ) ) ;
#74 = CIRCLE ( 'NONE', #295, 0.06249999999999999306 ) ;
#75 = LINE ( 'NONE', #283, #42 ) ;
#76 = VECTOR ( 'NONE', #323, 39.37007874015748854 ) ;
#77 = DIRECTION ( 'NONE',  ( -1.285575526430241399E-16, -0.0000000000000000000, -1.000000000000000000 ) ) ;
#78 = ADVANCED_FACE ( 'NONE', ( #268 ), #49, .T. ) ;
#79 = DIRECTION ( 'NONE',  ( 0.5000000000000013323, 0.0000000000000000000, 0.8660254037844377084 ) ) ;
#80 = FACE_OUTER_BOUND ( 'NONE', #155, .T. ) ;
#81 = EDGE_CURVE ( 'NONE', #27, #319, #230, .T. ) ;
#82 = CARTESIAN_POINT ( 'NONE',  ( -0.1562499999999999445, 0.0000000000000000000, 1.800066448101195871 ) ) ;
#83 = DIRECTION ( 'NONE',  ( 1.285575526430241399E-16, 0.0000000000000000000, 1.000000000000000000 ) ) ;
#84 = AXIS2_PLACEMENT_3D ( 'NONE', #203, #73, #287 ) ;
#85 = SHAPE_DEFINITION_REPRESENTATION ( #375, #67 ) ;
#86 = AXIS2_PLACEMENT_3D ( 'NONE', #240, #151, #91 ) ;
#87 = CARTESIAN_POINT ( 'NONE',  ( -0.06249999999999997224, 7.654042494670956004E-18, 0.1625537886892222950 ) ) ;
#88 = CONICAL_SURFACE ( 'NONE', #108, 0.06249999999999999306, 0.5235987755983003700 ) ;
#89 = APPLICATION_CONTEXT ( 'automotive_design' ) ;
#90 = CARTESIAN_POINT ( 'NONE',  ( 0.06249999999999999306, 0.0000000000000000000, 0.03755378868922227414 ) ) ;
#91 = DIRECTION ( 'NONE',  ( -1.000000000000000000, 0.0000000000000000000, 0.0000000000000000000 ) ) ;
#92 = CLOSED_SHELL ( 'NONE', ( #196, #279, #220, #294, #226, #78, #19, #134, #70, #150, #204, #263, #121, #266 ) ) ;
#93 = LINE ( 'NONE', #306, #381 ) ;
#94 = UNCERTAINTY_MEASURE_WITH_UNIT (LENGTH_MEASURE( 1.000000000000000082E-05 ), #380, 'distance_accuracy_value', 'NONE');
#95 = VERTEX_POINT ( 'NONE', #138 ) ;
#96 = ORIENTED_EDGE ( 'NONE', *, *, #237, .F. ) ;
#97 = PRODUCT_DEFINITION_FORMATION_WITH_SPECIFIED_SOURCE ( 'ANY', '', #110, .NOT_KNOWN. ) ;
#98 = AXIS2_PLACEMENT_3D ( 'NONE', #175, #178, #2 ) ;
#99 = VERTEX_POINT ( 'NONE', #173 ) ;
#100 = MECHANICAL_DESIGN_GEOMETRIC_PRESENTATION_REPRESENTATION (  '', ( #190 ), #130 ) ;
#101 = EDGE_LOOP ( 'NONE', ( #133, #369, #35 ) ) ;
#102 = DIRECTION ( 'NONE',  ( -1.000000000000000000, 0.0000000000000000000, 0.0000000000000000000 ) ) ;
#103 = VERTEX_POINT ( 'NONE', #348 ) ;
#104 = DIRECTION ( 'NONE',  ( 1.285575526430241399E-16, 0.0000000000000000000, -1.000000000000000000 ) ) ;
#105 = FACE_OUTER_BOUND ( 'NONE', #128, .T. ) ;
#106 = CIRCLE ( 'NONE', #221, 0.06249999999999999306 ) ;
#107 = LINE ( 'NONE', #167, #280 ) ;
#108 = AXIS2_PLACEMENT_3D ( 'NONE', #57, #104, #194 ) ;
#109 = CARTESIAN_POINT ( 'NONE',  ( 4.177266220371530732E-17, 0.0000000000000000000, 1.800066448101195871 ) ) ;
#110 = PRODUCT ( 'Micro_DC-4', 'Micro_DC-4', '', ( #393 ) ) ;
#111 = EDGE_CURVE ( 'NONE', #186, #27, #40, .T. ) ;
#112 = DIRECTION ( 'NONE',  ( 1.285575526430241399E-16, 0.0000000000000000000, 1.000000000000000000 ) ) ;
#113 = AXIS2_PLACEMENT_3D ( 'NONE', #15, #321, #20 ) ;
#114 = APPLICATION_PROTOCOL_DEFINITION ( 'draft international standard', 'automotive_design', 1998, #214 ) ;
#115 = VECTOR ( 'NONE', #286, 39.37007874015748854 ) ;
#116 = SURFACE_STYLE_FILL_AREA ( #389 ) ;
#117 = LENGTH_MEASURE_WITH_UNIT ( LENGTH_MEASURE( 0.02539999999999999897 ), #205 );
#118 = CARTESIAN_POINT ( 'NONE',  ( -0.06250000000000009714, -7.654042494670969871E-18, 2.087446211310777677 ) ) ;
#119 = CARTESIAN_POINT ( 'NONE',  ( 2.089751724673771771E-17, 0.0000000000000000000, 1.962446211310777677 ) ) ;
#120 = DIRECTION ( 'NONE',  ( 1.000000000000000000, 0.0000000000000000000, 1.334178587669835812E-16 ) ) ;
#121 = ADVANCED_FACE ( 'NONE', ( #80 ), #351, .T. ) ;
#122 = MANIFOLD_SOLID_BREP ( 'Mirror1', #92 ) ;
#123 = DIRECTION ( 'NONE',  ( -1.285575526430241399E-16, -0.0000000000000000000, 1.000000000000000000 ) ) ;
#124 = PRODUCT_DEFINITION_CONTEXT ( 'detailed design', #214, 'design' ) ;
#125 = EDGE_CURVE ( 'NONE', #308, #168, #355, .T. ) ;
#126 = VECTOR ( 'NONE', #28, 39.37007874015748143 ) ;
#127 = EDGE_LOOP ( 'NONE', ( #180, #307, #3, #63 ) ) ;
#128 = EDGE_LOOP ( 'NONE', ( #218, #160, #6, #285 ) ) ;
#129 = ORIENTED_EDGE ( 'NONE', *, *, #338, .F. ) ;
#130 =( GEOMETRIC_REPRESENTATION_CONTEXT ( 3 ) GLOBAL_UNCERTAINTY_ASSIGNED_CONTEXT ( ( #363 ) ) GLOBAL_UNIT_ASSIGNED_CONTEXT ( ( #208, #298, #176 ) ) REPRESENTATION_CONTEXT ( 'NONE', 'WORKASPACE' ) );
#131 = CARTESIAN_POINT ( 'NONE',  ( 4.827823166359698686E-18, 0.0000000000000000000, 0.03755378868922228802 ) ) ;
#132 = CONICAL_SURFACE ( 'NONE', #195, 0.06249999999999999306, 0.5235987755983003700 ) ;
#133 = ORIENTED_EDGE ( 'NONE', *, *, #367, .F. ) ;
#134 = ADVANCED_FACE ( 'NONE', ( #105 ), #272, .T. ) ;
#135 = DIRECTION ( 'NONE',  ( -1.285575526430241399E-16, -0.0000000000000000000, -1.000000000000000000 ) ) ;
#136 = ORIENTED_EDGE ( 'NONE', *, *, #166, .T. ) ;
#137 = DIRECTION ( 'NONE',  ( 1.285575526430241399E-16, 0.0000000000000000000, -1.000000000000000000 ) ) ;
#138 = CARTESIAN_POINT ( 'NONE',  ( -0.1562499999999999445, 0.0000000000000000000, 0.3249335518988039628 ) ) ;
#139 = DIRECTION ( 'NONE',  ( -1.285575526430241399E-16, -0.0000000000000000000, 1.000000000000000000 ) ) ;
#140 = CARTESIAN_POINT ( 'NONE',  ( 0.1562500000000000000, 1.913510623667739463E-17, 2.125000000000000000 ) ) ;
#141 = ORIENTED_EDGE ( 'NONE', *, *, #338, .T. ) ;
#142 = EDGE_CURVE ( 'NONE', #168, #103, #364, .T. ) ;
#143 = FACE_OUTER_BOUND ( 'NONE', #127, .T. ) ;
#144 = MECHANICAL_DESIGN_GEOMETRIC_PRESENTATION_REPRESENTATION (  '', ( #229 ), #378 ) ;
#145 = FILL_AREA_STYLE ('',( #352 ) ) ;
#146 = CONICAL_SURFACE ( 'NONE', #177, 0.06249999999999999306, 0.5235987755983003700 ) ;
#147 = CARTESIAN_POINT ( 'NONE',  ( 2.089751724673771771E-17, 0.0000000000000000000, 0.1625537886892222950 ) ) ;
#148 = VERTEX_POINT ( 'NONE', #90 ) ;
#149 = FACE_OUTER_BOUND ( 'NONE', #64, .T. ) ;
#150 = ADVANCED_FACE ( 'NONE', ( #304 ), #55, .T. ) ;
#151 = DIRECTION ( 'NONE',  ( 1.285575526430241399E-16, 0.0000000000000000000, -1.000000000000000000 ) ) ;
#152 = CARTESIAN_POINT ( 'NONE',  ( 5.061320970197801148E-15, 0.0000000000000000000, -37.24507874015748143 ) ) ;
#153 = AXIS2_PLACEMENT_3D ( 'NONE', #184, #139, #223 ) ;
#154 = LINE ( 'NONE', #243, #199 ) ;
#155 = EDGE_LOOP ( 'NONE', ( #336, #372, #71, #337 ) ) ;
#156 = ORIENTED_EDGE ( 'NONE', *, *, #235, .F. ) ;
#157 = CIRCLE ( 'NONE', #4, 0.1562499999999999722 ) ;
#158 = ORIENTED_EDGE ( 'NONE', *, *, #334, .T. ) ;
#159 = DIRECTION ( 'NONE',  ( 1.285575526430241399E-16, 0.0000000000000000000, 1.000000000000000000 ) ) ;
#160 = ORIENTED_EDGE ( 'NONE', *, *, #235, .T. ) ;
#161 =( CONVERSION_BASED_UNIT ( 'INCH', #312 ) LENGTH_UNIT ( ) NAMED_UNIT ( #217 ) );
#162 = ORIENTED_EDGE ( 'NONE', *, *, #302, .T. ) ;
#163 = DIRECTION ( 'NONE',  ( -0.0000000000000000000, -0.0000000000000000000, -1.000000000000000000 ) ) ;
#164 = DIRECTION ( 'NONE',  ( -1.285575526430241399E-16, -0.0000000000000000000, 1.000000000000000000 ) ) ;
#165 = VECTOR ( 'NONE', #163, 39.37007874015748143 ) ;
#166 = EDGE_CURVE ( 'NONE', #219, #99, #187, .T. ) ;
#167 = CARTESIAN_POINT ( 'NONE',  ( 0.0000000000000000000, 0.0000000000000000000, 2.125000000000000000 ) ) ;
#168 = VERTEX_POINT ( 'NONE', #118 ) ;
#169 = LINE ( 'NONE', #202, #165 ) ;
#170 = ORIENTED_EDGE ( 'NONE', *, *, #189, .T. ) ;
#171 = PRESENTATION_STYLE_ASSIGNMENT (( #270 ) ) ;
#172 = DIRECTION ( 'NONE',  ( 1.000000000000000000, 0.0000000000000000000, -1.334178587669835812E-16 ) ) ;
#173 = CARTESIAN_POINT ( 'NONE',  ( 0.06250000000000001388, 7.654042494670959086E-18, 0.1625537886892222950 ) ) ;
#174 = APPLICATION_PROTOCOL_DEFINITION ( 'draft international standard', 'automotive_design', 1998, #89 ) ;
#175 = CARTESIAN_POINT ( 'NONE',  ( 0.0000000000000000000, 0.0000000000000000000, 2.125000000000000000 ) ) ;
#176 =( NAMED_UNIT ( * ) SI_UNIT ( $, .STERADIAN. ) SOLID_ANGLE_UNIT ( ) );
#177 = AXIS2_PLACEMENT_3D ( 'NONE', #200, #159, #36 ) ;
#178 = DIRECTION ( 'NONE',  ( -0.0000000000000000000, -0.0000000000000000000, -1.000000000000000000 ) ) ;
#179 = CARTESIAN_POINT ( 'NONE',  ( 0.0000000000000000000, 0.0000000000000000000, 0.0000000000000000000 ) ) ;
#180 = ORIENTED_EDGE ( 'NONE', *, *, #111, .T. ) ;
#181 = FACE_OUTER_BOUND ( 'NONE', #5, .T. ) ;
#182 = LINE ( 'NONE', #391, #320 ) ;
#183 = UNCERTAINTY_MEASURE_WITH_UNIT (LENGTH_MEASURE( 1.000000000000000082E-05 ), #161, 'distance_accuracy_value', 'NONE');
#184 = CARTESIAN_POINT ( 'NONE',  ( 0.0000000000000000000, 0.0000000000000000000, 2.125000000000000000 ) ) ;
#185 = EDGE_LOOP ( 'NONE', ( #129, #23, #311 ) ) ;
#186 = VERTEX_POINT ( 'NONE', #82 ) ;
#187 = CIRCLE ( 'NONE', #309, 0.06249999999999999306 ) ;
#188 = ORIENTED_EDGE ( 'NONE', *, *, #334, .F. ) ;
#189 = EDGE_CURVE ( 'NONE', #374, #103, #182, .T. ) ;
#190 = STYLED_ITEM ( 'NONE', ( #171 ), #67 ) ;
#191 = ORIENTED_EDGE ( 'NONE', *, *, #166, .F. ) ;
#192 =( LENGTH_UNIT ( ) NAMED_UNIT ( * ) SI_UNIT ( $, .METRE. ) );
#193 = EDGE_LOOP ( 'NONE', ( #284, #170, #368, #303 ) ) ;
#194 = DIRECTION ( 'NONE',  ( 1.000000000000000000, 0.0000000000000000000, 0.0000000000000000000 ) ) ;
#195 = AXIS2_PLACEMENT_3D ( 'NONE', #119, #1, #273 ) ;
#196 = ADVANCED_FACE ( 'NONE', ( #149 ), #132, .T. ) ;
#197 = PRESENTATION_STYLE_ASSIGNMENT (( #344 ) ) ;
#198 = CIRCLE ( 'NONE', #299, 0.06249999999999999306 ) ;
#199 = VECTOR ( 'NONE', #215, 39.37007874015748143 ) ;
#200 = CARTESIAN_POINT ( 'NONE',  ( 2.089751724673771771E-17, 0.0000000000000000000, 0.1625537886892222950 ) ) ;
#201 = DIRECTION ( 'NONE',  ( 1.285575526430241399E-16, 0.0000000000000000000, -1.000000000000000000 ) ) ;
#202 = CARTESIAN_POINT ( 'NONE',  ( -0.1562500000000000000, 0.0000000000000000000, 2.125000000000000000 ) ) ;
#203 = CARTESIAN_POINT ( 'NONE',  ( 4.827823166359698686E-18, 0.0000000000000000000, 2.087446211310777677 ) ) ;
#204 = ADVANCED_FACE ( 'NONE', ( #181 ), #246, .T. ) ;
#205 =( LENGTH_UNIT ( ) NAMED_UNIT ( * ) SI_UNIT ( $, .METRE. ) );
#206 = AXIS2_PLACEMENT_3D ( 'NONE', #262, #382, #25 ) ;
#207 = DIRECTION ( 'NONE',  ( -1.000000000000000000, 0.0000000000000000000, 0.0000000000000000000 ) ) ;
#208 =( CONVERSION_BASED_UNIT ( 'INCH', #117 ) LENGTH_UNIT ( ) NAMED_UNIT ( #395 ) );
#209 = COLOUR_RGB ( '',0.7921568627450980005, 0.8196078431372548767, 0.9333333333333333481 ) ;
#210 = CARTESIAN_POINT ( 'NONE',  ( -0.06249999999999997224, 0.0000000000000000000, 0.1625537886892222950 ) ) ;
#211 = SURFACE_STYLE_FILL_AREA ( #145 ) ;
#212 = DIRECTION ( 'NONE',  ( -1.000000000000000000, 0.0000000000000000000, 1.285575526430241399E-16 ) ) ;
#213 = DIRECTION ( 'NONE',  ( 1.000000000000000000, 0.0000000000000000000, 1.334178587669835812E-16 ) ) ;
#214 = APPLICATION_CONTEXT ( 'automotive_design' ) ;
#215 = DIRECTION ( 'NONE',  ( 0.8571673007021137769, 0.0000000000000000000, 0.5150380749100517130 ) ) ;
#216 = CARTESIAN_POINT ( 'NONE',  ( 0.0000000000000000000, 0.0000000000000000000, 0.0000000000000000000 ) ) ;
#217 = DIMENSIONAL_EXPONENTS ( 1.000000000000000000, 0.0000000000000000000, 0.0000000000000000000, 0.0000000000000000000, 0.0000000000000000000, 0.0000000000000000000, 0.0000000000000000000 ) ;
#218 = ORIENTED_EDGE ( 'NONE', *, *, #81, .F. ) ;
#219 = VERTEX_POINT ( 'NONE', #210 ) ;
#220 = ADVANCED_FACE ( 'NONE', ( #242 ), #16, .T. ) ;
#221 = AXIS2_PLACEMENT_3D ( 'NONE', #265, #289, #316 ) ;
#222 = ORIENTED_EDGE ( 'NONE', *, *, #340, .F. ) ;
#223 = DIRECTION ( 'NONE',  ( -1.000000000000000000, 0.0000000000000000000, 0.0000000000000000000 ) ) ;
#224 = ORIENTED_EDGE ( 'NONE', *, *, #59, .T. ) ;
#225 = CARTESIAN_POINT ( 'NONE',  ( 0.06249999999999999306, 7.654042494670956004E-18, -8.034847040189007200E-18 ) ) ;
#226 = ADVANCED_FACE ( 'NONE', ( #22 ), #32, .T. ) ;
#227 = ORIENTED_EDGE ( 'NONE', *, *, #276, .F. ) ;
#228 = LINE ( 'NONE', #62, #261 ) ;
#229 = STYLED_ITEM ( 'NONE', ( #197 ), #122 ) ;
#230 = LINE ( 'NONE', #140, #259 ) ;
#231 = CIRCLE ( 'NONE', #24, 0.06249999999999999306 ) ;
#232 = CONICAL_SURFACE ( 'NONE', #18, 65.52281426576882950, 1.029744258676657198 ) ;
#233 = DIRECTION ( 'NONE',  ( -1.285575526430241399E-16, -0.0000000000000000000, -1.000000000000000000 ) ) ;
#234 = DIRECTION ( 'NONE',  ( -1.000000000000000000, 0.0000000000000000000, 0.0000000000000000000 ) ) ;
#235 = EDGE_CURVE ( 'NONE', #27, #186, #157, .T. ) ;
#236 = ORIENTED_EDGE ( 'NONE', *, *, #340, .T. ) ;
#237 = EDGE_CURVE ( 'NONE', #278, #148, #154, .T. ) ;
#238 =( NAMED_UNIT ( * ) PLANE_ANGLE_UNIT ( ) SI_UNIT ( $, .RADIAN. ) );
#239 = CARTESIAN_POINT ( 'NONE',  ( 0.1562500000000000000, 1.913510623667739463E-17, 1.800066448101195871 ) ) ;
#240 = CARTESIAN_POINT ( 'NONE',  ( 4.827823166359698686E-18, 0.0000000000000000000, 2.087446211310777677 ) ) ;
#241 = EDGE_CURVE ( 'NONE', #219, #95, #358, .T. ) ;
#242 = FACE_OUTER_BOUND ( 'NONE', #281, .T. ) ;
#243 = CARTESIAN_POINT ( 'NONE',  ( 0.0000000000000000000, 0.0000000000000000000, 0.0000000000000000000 ) ) ;
#244 = AXIS2_PLACEMENT_3D ( 'NONE', #353, #354, #207 ) ;
#245 = CARTESIAN_POINT ( 'NONE',  ( 0.0000000000000000000, 0.0000000000000000000, 0.0000000000000000000 ) ) ;
#246 = CONICAL_SURFACE ( 'NONE', #54, 0.06249999999999999306, 0.5235987755983003700 ) ;
#247 = CIRCLE ( 'NONE', #365, 0.1562499999999999722 ) ;
#248 = ORIENTED_EDGE ( 'NONE', *, *, #38, .F. ) ;
#249 = ORIENTED_EDGE ( 'NONE', *, *, #394, .T. ) ;
#250 = ORIENTED_EDGE ( 'NONE', *, *, #50, .F. ) ;
#251 = CONICAL_SURFACE ( 'NONE', #113, 65.52281426576882950, 1.029744258676657198 ) ;
#252 = DIRECTION ( 'NONE',  ( -1.000000000000000000, 0.0000000000000000000, 1.365923996832131856E-16 ) ) ;
#253 = ORIENTED_EDGE ( 'NONE', *, *, #241, .F. ) ;
#254 = CARTESIAN_POINT ( 'NONE',  ( -0.06249999999999997224, -7.654042494670956004E-18, 1.962446211310777677 ) ) ;
#255 = EDGE_LOOP ( 'NONE', ( #37, #224, #34, #39 ) ) ;
#256 = CARTESIAN_POINT ( 'NONE',  ( 2.089751724673771771E-17, 0.0000000000000000000, 0.1625537886892222950 ) ) ;
#257 = SURFACE_SIDE_STYLE ('',( #116 ) ) ;
#258 = CARTESIAN_POINT ( 'NONE',  ( 4.177266220371530732E-17, 0.0000000000000000000, 0.3249335518988039628 ) ) ;
#259 = VECTOR ( 'NONE', #13, 39.37007874015748143 ) ;
#260 = LENGTH_MEASURE_WITH_UNIT ( LENGTH_MEASURE( 0.02539999999999999897 ), #377 );
#261 = VECTOR ( 'NONE', #12, 39.37007874015748143 ) ;
#262 = CARTESIAN_POINT ( 'NONE',  ( 0.0000000000000000000, 0.0000000000000000000, 0.0000000000000000000 ) ) ;
#263 = ADVANCED_FACE ( 'NONE', ( #53 ), #232, .T. ) ;
#264 = FACE_OUTER_BOUND ( 'NONE', #101, .T. ) ;
#265 = CARTESIAN_POINT ( 'NONE',  ( 4.827823166359698686E-18, 0.0000000000000000000, 0.03755378868922228802 ) ) ;
#266 = ADVANCED_FACE ( 'NONE', ( #327 ), #88, .T. ) ;
#267 = COLOUR_RGB ( '',0.7921568627450980005, 0.8196078431372548767, 0.9333333333333333481 ) ;
#268 = FACE_OUTER_BOUND ( 'NONE', #8, .T. ) ;
#269 = EDGE_CURVE ( 'NONE', #95, #319, #349, .T. ) ;
#270 = SURFACE_STYLE_USAGE ( .BOTH. , #357 ) ;
#271 = VECTOR ( 'NONE', #379, 39.37007874015748854 ) ;
#272 = CYLINDRICAL_SURFACE ( 'NONE', #98, 0.1562500000000000000 ) ;
#273 = DIRECTION ( 'NONE',  ( 1.000000000000000000, 0.0000000000000000000, 0.0000000000000000000 ) ) ;
#274 = AXIS2_PLACEMENT_3D ( 'NONE', #383, #164, #293 ) ;
#275 = DIRECTION ( 'NONE',  ( 1.285575526430241399E-16, 0.0000000000000000000, -1.000000000000000000 ) ) ;
#276 = EDGE_CURVE ( 'NONE', #374, #27, #93, .T. ) ;
#277 = DIRECTION ( 'NONE',  ( -1.000000000000000000, 0.0000000000000000000, 1.285575526430241399E-16 ) ) ;
#278 = VERTEX_POINT ( 'NONE', #216 ) ;
#279 = ADVANCED_FACE ( 'NONE', ( #288 ), #9, .T. ) ;
#280 = VECTOR ( 'NONE', #7, 39.37007874015748854 ) ;
#281 = EDGE_LOOP ( 'NONE', ( #310, #141, #248 ) ) ;
#282 = ORIENTED_EDGE ( 'NONE', *, *, #361, .T. ) ;
#283 = CARTESIAN_POINT ( 'NONE',  ( -0.06249999999999999306, 0.0000000000000000000, 8.034847040189007200E-18 ) ) ;
#284 = ORIENTED_EDGE ( 'NONE', *, *, #394, .F. ) ;
#285 = ORIENTED_EDGE ( 'NONE', *, *, #317, .F. ) ;
#286 = DIRECTION ( 'NONE',  ( -0.8571673007021136659, 1.049727191138620298E-16, 0.5150380749100519351 ) ) ;
#287 = DIRECTION ( 'NONE',  ( -1.000000000000000000, 0.0000000000000000000, 0.0000000000000000000 ) ) ;
#288 = FACE_OUTER_BOUND ( 'NONE', #193, .T. ) ;
#289 = DIRECTION ( 'NONE',  ( -1.285575526430241399E-16, -0.0000000000000000000, -1.000000000000000000 ) ) ;
#290 = EDGE_CURVE ( 'NONE', #33, #103, #228, .T. ) ;
#291 = CARTESIAN_POINT ( 'NONE',  ( 0.0000000000000000000, 0.0000000000000000000, 2.125000000000000000 ) ) ;
#292 = DIRECTION ( 'NONE',  ( -1.000000000000000000, 0.0000000000000000000, 0.0000000000000000000 ) ) ;
#293 = DIRECTION ( 'NONE',  ( -1.000000000000000000, 0.0000000000000000000, 0.0000000000000000000 ) ) ;
#294 = ADVANCED_FACE ( 'NONE', ( #362 ), #146, .T. ) ;
#295 = AXIS2_PLACEMENT_3D ( 'NONE', #52, #46, #292 ) ;
#296 = DIRECTION ( 'NONE',  ( 1.285575526430241399E-16, 0.0000000000000000000, -1.000000000000000000 ) ) ;
#297 = ORIENTED_EDGE ( 'NONE', *, *, #31, .T. ) ;
#298 =( NAMED_UNIT ( * ) PLANE_ANGLE_UNIT ( ) SI_UNIT ( $, .RADIAN. ) );
#299 = AXIS2_PLACEMENT_3D ( 'NONE', #256, #315, #102 ) ;
#300 = DIMENSIONAL_EXPONENTS ( 1.000000000000000000, 0.0000000000000000000, 0.0000000000000000000, 0.0000000000000000000, 0.0000000000000000000, 0.0000000000000000000, 0.0000000000000000000 ) ;
#301 = DIRECTION ( 'NONE',  ( -1.285575526430241399E-16, -0.0000000000000000000, -1.000000000000000000 ) ) ;
#302 = EDGE_CURVE ( 'NONE', #308, #186, #371, .T. ) ;
#303 = ORIENTED_EDGE ( 'NONE', *, *, #125, .F. ) ;
#304 = FACE_OUTER_BOUND ( 'NONE', #29, .T. ) ;
#305 = DIRECTION ( 'NONE',  ( 1.000000000000000000, 0.0000000000000000000, 0.0000000000000000000 ) ) ;
#306 = CARTESIAN_POINT ( 'NONE',  ( 0.06250000000000001388, 0.0000000000000000000, 1.962446211310777677 ) ) ;
#307 = ORIENTED_EDGE ( 'NONE', *, *, #81, .T. ) ;
#308 = VERTEX_POINT ( 'NONE', #373 ) ;
#309 = AXIS2_PLACEMENT_3D ( 'NONE', #147, #60, #356 ) ;
#310 = ORIENTED_EDGE ( 'NONE', *, *, #290, .F. ) ;
#311 = ORIENTED_EDGE ( 'NONE', *, *, #142, .F. ) ;
#312 = LENGTH_MEASURE_WITH_UNIT ( LENGTH_MEASURE( 0.02539999999999999897 ), #192 );
#313 = ORIENTED_EDGE ( 'NONE', *, *, #329, .F. ) ;
#314 = CARTESIAN_POINT ( 'NONE',  ( -0.06249999999999997918, 7.654042494670956004E-18, 0.03755378868922228802 ) ) ;
#315 = DIRECTION ( 'NONE',  ( -1.285575526430241399E-16, -0.0000000000000000000, -1.000000000000000000 ) ) ;
#316 = DIRECTION ( 'NONE',  ( -1.000000000000000000, 0.0000000000000000000, 1.365923996832131856E-16 ) ) ;
#317 = EDGE_CURVE ( 'NONE', #319, #95, #247, .T. ) ;
#318 = CARTESIAN_POINT ( 'NONE',  ( 0.0000000000000000000, 0.0000000000000000000, 0.0000000000000000000 ) ) ;
#319 = VERTEX_POINT ( 'NONE', #376 ) ;
#320 = VECTOR ( 'NONE', #123, 39.37007874015748143 ) ;
#321 = DIRECTION ( 'NONE',  ( 1.285575526430241399E-16, 0.0000000000000000000, 1.000000000000000000 ) ) ;
#322 = LINE ( 'NONE', #17, #345 ) ;
#323 = DIRECTION ( 'NONE',  ( -0.5000000000000012212, 6.123233995736780827E-17, 0.8660254037844379305 ) ) ;
#324 = PRESENTATION_LAYER_ASSIGNMENT (  '', '', ( #229 ) ) ;
#325 = CARTESIAN_POINT ( 'NONE',  ( 4.177266220371530732E-17, 0.0000000000000000000, 1.800066448101195871 ) ) ;
#326 = AXIS2_PLACEMENT_3D ( 'NONE', #258, #135, #347 ) ;
#327 = FACE_OUTER_BOUND ( 'NONE', #255, .T. ) ;
#328 = ORIENTED_EDGE ( 'NONE', *, *, #329, .T. ) ;
#329 = EDGE_CURVE ( 'NONE', #99, #219, #198, .T. ) ;
#330 = CARTESIAN_POINT ( 'NONE',  ( -0.06249999999999999306, 0.0000000000000000000, 2.125000000000000000 ) ) ;
#331 =( NAMED_UNIT ( * ) PLANE_ANGLE_UNIT ( ) SI_UNIT ( $, .RADIAN. ) );
#332 = AXIS2_PLACEMENT_3D ( 'NONE', #385, #112, #172 ) ;
#333 = CARTESIAN_POINT ( 'NONE',  ( 4.177266220371530732E-17, 0.0000000000000000000, 0.3249335518988039628 ) ) ;
#334 = EDGE_CURVE ( 'NONE', #219, #366, #75, .T. ) ;
#335 = ORIENTED_EDGE ( 'NONE', *, *, #367, .T. ) ;
#336 = ORIENTED_EDGE ( 'NONE', *, *, #189, .F. ) ;
#337 = ORIENTED_EDGE ( 'NONE', *, *, #142, .T. ) ;
#338 = EDGE_CURVE ( 'NONE', #33, #168, #107, .T. ) ;
#339 = ORIENTED_EDGE ( 'NONE', *, *, #241, .T. ) ;
#340 = EDGE_CURVE ( 'NONE', #366, #148, #231, .T. ) ;
#341 = CARTESIAN_POINT ( 'NONE',  ( 2.089751724673771771E-17, 0.0000000000000000000, 1.962446211310777677 ) ) ;
#342 = ORIENTED_EDGE ( 'NONE', *, *, #31, .F. ) ;
#343 = DIRECTION ( 'NONE',  ( -1.000000000000000000, 0.0000000000000000000, 0.0000000000000000000 ) ) ;
#344 = SURFACE_STYLE_USAGE ( .BOTH. , #257 ) ;
#345 = VECTOR ( 'NONE', #79, 39.37007874015748854 ) ;
#346 = AXIS2_PLACEMENT_3D ( 'NONE', #179, #301, #277 ) ;
#347 = DIRECTION ( 'NONE',  ( -1.000000000000000000, 0.0000000000000000000, 0.0000000000000000000 ) ) ;
#348 = CARTESIAN_POINT ( 'NONE',  ( 0.06250000000000011102, 0.0000000000000000000, 2.087446211310777677 ) ) ;
#349 = CIRCLE ( 'NONE', #326, 0.1562499999999999722 ) ;
#350 = LINE ( 'NONE', #225, #56 ) ;
#351 = CYLINDRICAL_SURFACE ( 'NONE', #274, 0.06249999999999999306 ) ;
#352 = FILL_AREA_STYLE_COLOUR ( '', #209 ) ;
#353 = CARTESIAN_POINT ( 'NONE',  ( 0.0000000000000000000, 0.0000000000000000000, 2.125000000000000000 ) ) ;
#354 = DIRECTION ( 'NONE',  ( -0.0000000000000000000, -0.0000000000000000000, -1.000000000000000000 ) ) ;
#355 = LINE ( 'NONE', #330, #126 ) ;
#356 = DIRECTION ( 'NONE',  ( -1.000000000000000000, 0.0000000000000000000, 0.0000000000000000000 ) ) ;
#357 = SURFACE_SIDE_STYLE ('',( #211 ) ) ;
#358 = LINE ( 'NONE', #87, #76 ) ;
#359 =( NAMED_UNIT ( * ) SI_UNIT ( $, .STERADIAN. ) SOLID_ANGLE_UNIT ( ) );
#360 = DIRECTION ( 'NONE',  ( -1.285575526430241399E-16, -0.0000000000000000000, -1.000000000000000000 ) ) ;
#361 = EDGE_CURVE ( 'NONE', #99, #148, #350, .T. ) ;
#362 = FACE_OUTER_BOUND ( 'NONE', #48, .T. ) ;
#363 = UNCERTAINTY_MEASURE_WITH_UNIT (LENGTH_MEASURE( 1.000000000000000082E-05 ), #208, 'distance_accuracy_value', 'NONE');
#364 = CIRCLE ( 'NONE', #86, 0.06249999999999999306 ) ;
#365 = AXIS2_PLACEMENT_3D ( 'NONE', #333, #44, #343 ) ;
#366 = VERTEX_POINT ( 'NONE', #314 ) ;
#367 = EDGE_CURVE ( 'NONE', #278, #366, #69, .T. ) ;
#368 = ORIENTED_EDGE ( 'NONE', *, *, #38, .T. ) ;
#369 = ORIENTED_EDGE ( 'NONE', *, *, #237, .T. ) ;
#370 = CIRCLE ( 'NONE', #84, 0.06249999999999999306 ) ;
#371 = LINE ( 'NONE', #254, #271 ) ;
#372 = ORIENTED_EDGE ( 'NONE', *, *, #59, .F. ) ;
#373 = CARTESIAN_POINT ( 'NONE',  ( -0.06249999999999997224, 0.0000000000000000000, 1.962446211310777677 ) ) ;
#374 = VERTEX_POINT ( 'NONE', #41 ) ;
#375 = PRODUCT_DEFINITION_SHAPE ( 'NONE', 'NONE',  #61 ) ;
#376 = CARTESIAN_POINT ( 'NONE',  ( 0.1562500000000000000, 1.913510623667739463E-17, 0.3249335518988039628 ) ) ;
#377 =( LENGTH_UNIT ( ) NAMED_UNIT ( * ) SI_UNIT ( $, .METRE. ) );
#378 =( GEOMETRIC_REPRESENTATION_CONTEXT ( 3 ) GLOBAL_UNCERTAINTY_ASSIGNED_CONTEXT ( ( #94 ) ) GLOBAL_UNIT_ASSIGNED_CONTEXT ( ( #380, #331, #359 ) ) REPRESENTATION_CONTEXT ( 'NONE', 'WORKASPACE' ) );
#379 = DIRECTION ( 'NONE',  ( -0.5000000000000012212, -6.123233995736780827E-17, -0.8660254037844379305 ) ) ;
#380 =( CONVERSION_BASED_UNIT ( 'INCH', #260 ) LENGTH_UNIT ( ) NAMED_UNIT ( #300 ) );
#381 = VECTOR ( 'NONE', #14, 39.37007874015748854 ) ;
#382 = DIRECTION ( 'NONE',  ( 0.0000000000000000000, 0.0000000000000000000, 1.000000000000000000 ) ) ;
#383 = CARTESIAN_POINT ( 'NONE',  ( 0.0000000000000000000, 0.0000000000000000000, 2.125000000000000000 ) ) ;
#384 = EDGE_CURVE ( 'NONE', #186, #95, #169, .T. ) ;
#385 = CARTESIAN_POINT ( 'NONE',  ( 5.061320970197801148E-15, 0.0000000000000000000, 39.37007874015748143 ) ) ;
#386 = PRODUCT_RELATED_PRODUCT_CATEGORY ( 'part', '', ( #110 ) ) ;
#387 = AXIS2_PLACEMENT_3D ( 'NONE', #109, #201, #234 ) ;
#388 =( GEOMETRIC_REPRESENTATION_CONTEXT ( 3 ) GLOBAL_UNCERTAINTY_ASSIGNED_CONTEXT ( ( #183 ) ) GLOBAL_UNIT_ASSIGNED_CONTEXT ( ( #161, #238, #390 ) ) REPRESENTATION_CONTEXT ( 'NONE', 'WORKASPACE' ) );
#389 = FILL_AREA_STYLE ('',( #21 ) ) ;
#390 =( NAMED_UNIT ( * ) SI_UNIT ( $, .STERADIAN. ) SOLID_ANGLE_UNIT ( ) );
#391 = CARTESIAN_POINT ( 'NONE',  ( 0.06249999999999999306, -7.654042494670956004E-18, 2.125000000000000000 ) ) ;
#392 = AXIS2_PLACEMENT_3D ( 'NONE', #341, #137, #47 ) ;
#393 = PRODUCT_CONTEXT ( 'NONE', #89, 'mechanical' ) ;
#394 = EDGE_CURVE ( 'NONE', #374, #308, #45, .T. ) ;
#395 = DIMENSIONAL_EXPONENTS ( 1.000000000000000000, 0.0000000000000000000, 0.0000000000000000000, 0.0000000000000000000, 0.0000000000000000000, 0.0000000000000000000, 0.0000000000000000000 ) ;
#396 = DIRECTION ( 'NONE',  ( -1.000000000000000000, 0.0000000000000000000, 0.0000000000000000000 ) ) ;
#397 = CARTESIAN_POINT ( 'NONE',  ( 5.061320970197801148E-15, 0.0000000000000000000, -37.24507874015748143 ) ) ;
ENDSEC;
END-ISO-10303-21;
