ISO-10303-21;
HEADER;
FILE_DESCRIPTION (( 'STEP AP214' ),
    '1' );
FILE_NAME ('Micro_RSCM-120-1.STEP',
    '2021-09-03T18:01:32',
    ( '' ),
    ( '' ),
    'SwSTEP 2.0',
    'SolidWorks 2020',
    '' );
FILE_SCHEMA (( 'AUTOMOTIVE_DESIGN' ));
ENDSEC;

DATA;
#1 = ORIENTED_EDGE ( 'NONE', *, *, #145, .F. ) ;
#2 = EDGE_LOOP ( 'NONE', ( #4, #139, #39, #174 ) ) ;
#3 = ADVANCED_FACE ( 'NONE', ( #196 ), #40, .T. ) ;
#4 = ORIENTED_EDGE ( 'NONE', *, *, #77, .T. ) ;
#5 = ORIENTED_EDGE ( 'NONE', *, *, #208, .T. ) ;
#6 = CARTESIAN_POINT ( 'NONE',  ( 0.2362204999999999999, 2.892866792179872647E-17, 3.252717000000002301 ) ) ;
#7 = CARTESIAN_POINT ( 'NONE',  ( 0.0000000000000000000, 0.0000000000000000000, 3.267717000000000649 ) ) ;
#8 = CARTESIAN_POINT ( 'NONE',  ( -0.2362204999999999999, 0.0000000000000000000, 3.267717000000000649 ) ) ;
#9 = DIRECTION ( 'NONE',  ( 0.0000000000000000000, 0.0000000000000000000, 1.000000000000000000 ) ) ;
#10 = ADVANCED_FACE ( 'NONE', ( #23 ), #147, .T. ) ;
#11 = VECTOR ( 'NONE', #95, 39.37007874015748854 ) ;
#12 = LENGTH_MEASURE_WITH_UNIT ( LENGTH_MEASURE( 0.02539999999999999897 ), #231 );
#13 = VERTEX_POINT ( 'NONE', #140 ) ;
#14 = COLOUR_RGB ( '',0.7921568627450980005, 0.8196078431372548767, 0.9333333333333333481 ) ;
#15 = ADVANCED_FACE ( 'NONE', ( #101 ), #58, .T. ) ;
#16 = ORIENTED_EDGE ( 'NONE', *, *, #150, .F. ) ;
#17 = CARTESIAN_POINT ( 'NONE',  ( -0.2362204999999999999, 0.0000000000000000000, 3.252717000000002301 ) ) ;
#18 = EDGE_CURVE ( 'NONE', #13, #117, #98, .T. ) ;
#19 = PRODUCT_CONTEXT ( 'NONE', #138, 'mechanical' ) ;
#20 = VECTOR ( 'NONE', #238, 39.37007874015748854 ) ;
#21 = DIRECTION ( 'NONE',  ( -1.000000000000000000, 0.0000000000000000000, 0.0000000000000000000 ) ) ;
#22 = ORIENTED_EDGE ( 'NONE', *, *, #127, .F. ) ;
#23 = FACE_OUTER_BOUND ( 'NONE', #106, .T. ) ;
#24 = CARTESIAN_POINT ( 'NONE',  ( -0.003936999999999995191, 4.821434448243123477E-19, 0.0000000000000000000 ) ) ;
#25 = FACE_OUTER_BOUND ( 'NONE', #123, .T. ) ;
#26 = DIRECTION ( 'NONE',  ( 0.0000000000000000000, 0.0000000000000000000, 1.000000000000000000 ) ) ;
#27 = ADVANCED_FACE ( 'NONE', ( #232 ), #71, .T. ) ;
#28 =( NAMED_UNIT ( * ) SI_UNIT ( $, .STERADIAN. ) SOLID_ANGLE_UNIT ( ) );
#29 = AXIS2_PLACEMENT_3D ( 'NONE', #122, #89, #156 ) ;
#30 = CARTESIAN_POINT ( 'NONE',  ( 0.0000000000000000000, 0.0000000000000000000, 0.0000000000000000000 ) ) ;
#31 = CARTESIAN_POINT ( 'NONE',  ( 0.0000000000000000000, 0.0000000000000000000, 0.0000000000000000000 ) ) ;
#32 = ORIENTED_EDGE ( 'NONE', *, *, #176, .T. ) ;
#33 = FILL_AREA_STYLE ('',( #75 ) ) ;
#34 = PRESENTATION_LAYER_ASSIGNMENT (  '', '', ( #47 ) ) ;
#35 = SHAPE_DEFINITION_REPRESENTATION ( #133, #230 ) ;
#36 = CARTESIAN_POINT ( 'NONE',  ( 0.0000000000000000000, 0.0000000000000000000, 0.4023268237599238462 ) ) ;
#37 = VERTEX_POINT ( 'NONE', #17 ) ;
#38 = AXIS2_PLACEMENT_3D ( 'NONE', #162, #241, #69 ) ;
#39 = ORIENTED_EDGE ( 'NONE', *, *, #191, .F. ) ;
#40 = CYLINDRICAL_SURFACE ( 'NONE', #29, 0.2362204999999999999 ) ;
#41 = EDGE_LOOP ( 'NONE', ( #1, #99, #86, #218 ) ) ;
#42 = DIRECTION ( 'NONE',  ( -0.0000000000000000000, -0.0000000000000000000, -1.000000000000000000 ) ) ;
#43 = FACE_OUTER_BOUND ( 'NONE', #175, .T. ) ;
#44 = ADVANCED_FACE ( 'NONE', ( #102 ), #187, .T. ) ;
#45 = CARTESIAN_POINT ( 'NONE',  ( 0.2212205000000019295, 2.801018282243833685E-17, 3.267717000000000649 ) ) ;
#46 =( CONVERSION_BASED_UNIT ( 'INCH', #65 ) LENGTH_UNIT ( ) NAMED_UNIT ( #51 ) );
#47 = STYLED_ITEM ( 'NONE', ( #48 ), #130 ) ;
#48 = PRESENTATION_STYLE_ASSIGNMENT (( #243 ) ) ;
#49 = DIRECTION ( 'NONE',  ( 1.000000000000000000, 0.0000000000000000000, 0.0000000000000000000 ) ) ;
#50 = EDGE_CURVE ( 'NONE', #200, #37, #233, .T. ) ;
#51 = DIMENSIONAL_EXPONENTS ( 1.000000000000000000, 0.0000000000000000000, 0.0000000000000000000, 0.0000000000000000000, 0.0000000000000000000, 0.0000000000000000000, 0.0000000000000000000 ) ;
#52 = AXIS2_PLACEMENT_3D ( 'NONE', #203, #143, #220 ) ;
#53 = PRODUCT_DEFINITION_FORMATION_WITH_SPECIFIED_SOURCE ( 'ANY', '', #100, .NOT_KNOWN. ) ;
#54 =( LENGTH_UNIT ( ) NAMED_UNIT ( * ) SI_UNIT ( $, .METRE. ) );
#55 = UNCERTAINTY_MEASURE_WITH_UNIT (LENGTH_MEASURE( 1.000000000000000082E-05 ), #46, 'distance_accuracy_value', 'NONE');
#56 = SURFACE_SIDE_STYLE ('',( #186 ) ) ;
#57 = VECTOR ( 'NONE', #179, 39.37007874015748143 ) ;
#58 = CYLINDRICAL_SURFACE ( 'NONE', #182, 0.2362204999999999999 ) ;
#59 = CARTESIAN_POINT ( 'NONE',  ( -0.2212205000000019295, 0.0000000000000000000, 3.267717000000000649 ) ) ;
#60 = ORIENTED_EDGE ( 'NONE', *, *, #145, .T. ) ;
#61 = VECTOR ( 'NONE', #141, 39.37007874015748143 ) ;
#62 =( GEOMETRIC_REPRESENTATION_CONTEXT ( 3 ) GLOBAL_UNCERTAINTY_ASSIGNED_CONTEXT ( ( #81 ) ) GLOBAL_UNIT_ASSIGNED_CONTEXT ( ( #92, #190, #193 ) ) REPRESENTATION_CONTEXT ( 'NONE', 'WORKASPACE' ) );
#63 = EDGE_LOOP ( 'NONE', ( #199, #137, #219, #152 ) ) ;
#64 = DIRECTION ( 'NONE',  ( 0.0000000000000000000, 0.0000000000000000000, -1.000000000000000000 ) ) ;
#65 = LENGTH_MEASURE_WITH_UNIT ( LENGTH_MEASURE( 0.02539999999999999897 ), #70 );
#66 = CARTESIAN_POINT ( 'NONE',  ( -0.2362204999999999999, 0.0000000000000000000, 0.4023268237599238462 ) ) ;
#67 = EDGE_CURVE ( 'NONE', #235, #13, #90, .T. ) ;
#68 = FILL_AREA_STYLE ('',( #223 ) ) ;
#69 = DIRECTION ( 'NONE',  ( 1.000000000000000000, 0.0000000000000000000, 0.0000000000000000000 ) ) ;
#70 =( LENGTH_UNIT ( ) NAMED_UNIT ( * ) SI_UNIT ( $, .METRE. ) );
#71 = CONICAL_SURFACE ( 'NONE', #142, 0.2212205000000019295, 0.7853981633974482790 ) ;
#72 = AXIS2_PLACEMENT_3D ( 'NONE', #31, #244, #206 ) ;
#73 = LINE ( 'NONE', #129, #11 ) ;
#74 = ORIENTED_EDGE ( 'NONE', *, *, #180, .F. ) ;
#75 = FILL_AREA_STYLE_COLOUR ( '', #207 ) ;
#76 = DIMENSIONAL_EXPONENTS ( 1.000000000000000000, 0.0000000000000000000, 0.0000000000000000000, 0.0000000000000000000, 0.0000000000000000000, 0.0000000000000000000, 0.0000000000000000000 ) ;
#77 = EDGE_CURVE ( 'NONE', #37, #155, #216, .T. ) ;
#78 = CLOSED_SHELL ( 'NONE', ( #107, #27, #3, #15, #136, #10, #44, #84 ) ) ;
#79 = DIRECTION ( 'NONE',  ( -1.000000000000000000, 0.0000000000000000000, 0.0000000000000000000 ) ) ;
#80 = DIRECTION ( 'NONE',  ( -1.000000000000000000, 0.0000000000000000000, 0.0000000000000000000 ) ) ;
#81 = UNCERTAINTY_MEASURE_WITH_UNIT (LENGTH_MEASURE( 1.000000000000000082E-05 ), #92, 'distance_accuracy_value', 'NONE');
#82 = VECTOR ( 'NONE', #224, 39.37007874015748854 ) ;
#83 = DIRECTION ( 'NONE',  ( 1.000000000000000000, 0.0000000000000000000, 0.0000000000000000000 ) ) ;
#84 = ADVANCED_FACE ( 'NONE', ( #158 ), #185, .F. ) ;
#85 = DIRECTION ( 'NONE',  ( 1.000000000000000000, 0.0000000000000000000, 0.0000000000000000000 ) ) ;
#86 = ORIENTED_EDGE ( 'NONE', *, *, #67, .T. ) ;
#87 = ORIENTED_EDGE ( 'NONE', *, *, #67, .F. ) ;
#88 = AXIS2_PLACEMENT_3D ( 'NONE', #171, #213, #85 ) ;
#89 = DIRECTION ( 'NONE',  ( -0.0000000000000000000, -0.0000000000000000000, -1.000000000000000000 ) ) ;
#90 = LINE ( 'NONE', #160, #128 ) ;
#91 = PLANE ( 'NONE',  #177 ) ;
#92 =( CONVERSION_BASED_UNIT ( 'INCH', #116 ) LENGTH_UNIT ( ) NAMED_UNIT ( #246 ) );
#93 = ORIENTED_EDGE ( 'NONE', *, *, #228, .T. ) ;
#94 =( NAMED_UNIT ( * ) SI_UNIT ( $, .STERADIAN. ) SOLID_ANGLE_UNIT ( ) );
#95 = DIRECTION ( 'NONE',  ( 0.7071067811865474617, 8.659560562354932858E-17, -0.7071067811865474617 ) ) ;
#96 = EDGE_CURVE ( 'NONE', #37, #117, #242, .T. ) ;
#97 = DIRECTION ( 'NONE',  ( 0.0000000000000000000, 0.0000000000000000000, -1.000000000000000000 ) ) ;
#98 = CIRCLE ( 'NONE', #194, 0.2362204999999999999 ) ;
#99 = ORIENTED_EDGE ( 'NONE', *, *, #165, .F. ) ;
#100 = PRODUCT ( 'Micro_RSCM-120-1', 'Micro_RSCM-120-1', '', ( #19 ) ) ;
#101 = FACE_OUTER_BOUND ( 'NONE', #227, .T. ) ;
#102 = FACE_OUTER_BOUND ( 'NONE', #41, .T. ) ;
#103 = UNCERTAINTY_MEASURE_WITH_UNIT (LENGTH_MEASURE( 1.000000000000000082E-05 ), #188, 'distance_accuracy_value', 'NONE');
#104 = APPLICATION_PROTOCOL_DEFINITION ( 'draft international standard', 'automotive_design', 1998, #173 ) ;
#105 = DIRECTION ( 'NONE',  ( -1.000000000000000000, 0.0000000000000000000, 0.0000000000000000000 ) ) ;
#106 = EDGE_LOOP ( 'NONE', ( #74, #22, #195, #135 ) ) ;
#107 = ADVANCED_FACE ( 'NONE', ( #43 ), #118, .T. ) ;
#108 = ORIENTED_EDGE ( 'NONE', *, *, #228, .F. ) ;
#109 = CARTESIAN_POINT ( 'NONE',  ( 0.2362204999999999999, 2.892866792179872647E-17, 3.267717000000000649 ) ) ;
#110 = DIRECTION ( 'NONE',  ( -1.000000000000000000, 0.0000000000000000000, 0.0000000000000000000 ) ) ;
#111 = DIRECTION ( 'NONE',  ( 0.5000000000000013323, 0.0000000000000000000, 0.8660254037844377084 ) ) ;
#112 = AXIS2_PLACEMENT_3D ( 'NONE', #7, #126, #49 ) ;
#113 = APPLICATION_PROTOCOL_DEFINITION ( 'draft international standard', 'automotive_design', 1998, #138 ) ;
#114 = SURFACE_STYLE_USAGE ( .BOTH. , #56 ) ;
#115 = CIRCLE ( 'NONE', #112, 0.2212205000000019295 ) ;
#116 = LENGTH_MEASURE_WITH_UNIT ( LENGTH_MEASURE( 0.02539999999999999897 ), #54 );
#117 = VERTEX_POINT ( 'NONE', #66 ) ;
#118 = CONICAL_SURFACE ( 'NONE', #38, 0.003936999999999995191, 0.5235987755983005920 ) ;
#119 = CARTESIAN_POINT ( 'NONE',  ( 0.0000000000000000000, 0.0000000000000000000, 3.267717000000000649 ) ) ;
#120 = ORIENTED_EDGE ( 'NONE', *, *, #18, .F. ) ;
#121 = EDGE_LOOP ( 'NONE', ( #215, #93 ) ) ;
#122 = CARTESIAN_POINT ( 'NONE',  ( 0.0000000000000000000, 0.0000000000000000000, 3.267717000000000649 ) ) ;
#123 = EDGE_LOOP ( 'NONE', ( #234, #32 ) ) ;
#124 = DIRECTION ( 'NONE',  ( 1.000000000000000000, 0.0000000000000000000, 0.0000000000000000000 ) ) ;
#125 = CARTESIAN_POINT ( 'NONE',  ( 0.0000000000000000000, 0.0000000000000000000, 3.252717000000002301 ) ) ;
#126 = DIRECTION ( 'NONE',  ( 0.0000000000000000000, 0.0000000000000000000, 1.000000000000000000 ) ) ;
#127 = EDGE_CURVE ( 'NONE', #200, #154, #205, .T. ) ;
#128 = VECTOR ( 'NONE', #111, 39.37007874015748854 ) ;
#129 = CARTESIAN_POINT ( 'NONE',  ( 0.2212205000000019295, 2.709169772307794108E-17, 3.267717000000000649 ) ) ;
#130 = MANIFOLD_SOLID_BREP ( 'Cut-Revolve1', #78 ) ;
#131 = ORIENTED_EDGE ( 'NONE', *, *, #191, .T. ) ;
#132 = CARTESIAN_POINT ( 'NONE',  ( 0.0000000000000000000, 0.0000000000000000000, 0.4023268237599238462 ) ) ;
#133 = PRODUCT_DEFINITION_SHAPE ( 'NONE', 'NONE',  #217 ) ;
#134 = VERTEX_POINT ( 'NONE', #148 ) ;
#135 = ORIENTED_EDGE ( 'NONE', *, *, #208, .F. ) ;
#136 = ADVANCED_FACE ( 'NONE', ( #25 ), #91, .T. ) ;
#137 = ORIENTED_EDGE ( 'NONE', *, *, #180, .T. ) ;
#138 = APPLICATION_CONTEXT ( 'automotive_design' ) ;
#139 = ORIENTED_EDGE ( 'NONE', *, *, #150, .T. ) ;
#140 = CARTESIAN_POINT ( 'NONE',  ( 0.2362204999999999999, 2.892866792179872647E-17, 0.4023268237599238462 ) ) ;
#141 = DIRECTION ( 'NONE',  ( -0.0000000000000000000, -0.0000000000000000000, -1.000000000000000000 ) ) ;
#142 = AXIS2_PLACEMENT_3D ( 'NONE', #119, #197, #21 ) ;
#143 = DIRECTION ( 'NONE',  ( 0.0000000000000000000, 0.0000000000000000000, 1.000000000000000000 ) ) ;
#144 = LINE ( 'NONE', #24, #82 ) ;
#145 = EDGE_CURVE ( 'NONE', #134, #117, #144, .T. ) ;
#146 = SURFACE_STYLE_FILL_AREA ( #68 ) ;
#147 = CONICAL_SURFACE ( 'NONE', #239, 0.2212205000000019295, 0.7853981633974482790 ) ;
#148 = CARTESIAN_POINT ( 'NONE',  ( -0.003936999999999995191, 1.470540568331152663E-17, 0.0000000000000000000 ) ) ;
#149 = DIRECTION ( 'NONE',  ( -0.0000000000000000000, -0.0000000000000000000, -1.000000000000000000 ) ) ;
#150 = EDGE_CURVE ( 'NONE', #155, #13, #202, .T. ) ;
#151 = AXIS2_PLACEMENT_3D ( 'NONE', #226, #97, #166 ) ;
#152 = ORIENTED_EDGE ( 'NONE', *, *, #50, .F. ) ;
#153 = CIRCLE ( 'NONE', #72, 0.003936999999999995191 ) ;
#154 = VERTEX_POINT ( 'NONE', #45 ) ;
#155 = VERTEX_POINT ( 'NONE', #6 ) ;
#156 = DIRECTION ( 'NONE',  ( -1.000000000000000000, 0.0000000000000000000, 0.0000000000000000000 ) ) ;
#157 = SURFACE_SIDE_STYLE ('',( #146 ) ) ;
#158 = FACE_OUTER_BOUND ( 'NONE', #121, .T. ) ;
#159 = STYLED_ITEM ( 'NONE', ( #164 ), #230 ) ;
#160 = CARTESIAN_POINT ( 'NONE',  ( 0.003936999999999995191, 0.0000000000000000000, 0.0000000000000000000 ) ) ;
#161 = DIRECTION ( 'NONE',  ( 1.000000000000000000, 0.0000000000000000000, -0.0000000000000000000 ) ) ;
#162 = CARTESIAN_POINT ( 'NONE',  ( 0.0000000000000000000, 0.0000000000000000000, 0.0000000000000000000 ) ) ;
#163 =( GEOMETRIC_REPRESENTATION_CONTEXT ( 3 ) GLOBAL_UNCERTAINTY_ASSIGNED_CONTEXT ( ( #55 ) ) GLOBAL_UNIT_ASSIGNED_CONTEXT ( ( #46, #204, #28 ) ) REPRESENTATION_CONTEXT ( 'NONE', 'WORKASPACE' ) );
#164 = PRESENTATION_STYLE_ASSIGNMENT (( #114 ) ) ;
#165 = EDGE_CURVE ( 'NONE', #235, #134, #221, .T. ) ;
#166 = DIRECTION ( 'NONE',  ( 1.000000000000000000, 0.0000000000000000000, 0.0000000000000000000 ) ) ;
#167 = AXIS2_PLACEMENT_3D ( 'NONE', #30, #9, #161 ) ;
#168 = CIRCLE ( 'NONE', #178, 0.2362204999999999999 ) ;
#169 = PRODUCT_RELATED_PRODUCT_CATEGORY ( 'part', '', ( #100 ) ) ;
#170 = DIRECTION ( 'NONE',  ( -0.0000000000000000000, -0.0000000000000000000, -1.000000000000000000 ) ) ;
#171 = CARTESIAN_POINT ( 'NONE',  ( 0.0000000000000000000, 0.0000000000000000000, 0.0000000000000000000 ) ) ;
#172 = DIRECTION ( 'NONE',  ( -0.0000000000000000000, -0.0000000000000000000, -1.000000000000000000 ) ) ;
#173 = APPLICATION_CONTEXT ( 'automotive_design' ) ;
#174 = ORIENTED_EDGE ( 'NONE', *, *, #96, .F. ) ;
#175 = EDGE_LOOP ( 'NONE', ( #108, #60, #131, #87 ) ) ;
#176 = EDGE_CURVE ( 'NONE', #154, #200, #115, .T. ) ;
#177 = AXIS2_PLACEMENT_3D ( 'NONE', #225, #26, #181 ) ;
#178 = AXIS2_PLACEMENT_3D ( 'NONE', #132, #149, #79 ) ;
#179 = DIRECTION ( 'NONE',  ( -0.0000000000000000000, -0.0000000000000000000, -1.000000000000000000 ) ) ;
#180 = EDGE_CURVE ( 'NONE', #154, #155, #73, .T. ) ;
#181 = DIRECTION ( 'NONE',  ( 1.000000000000000000, 0.0000000000000000000, -0.0000000000000000000 ) ) ;
#182 = AXIS2_PLACEMENT_3D ( 'NONE', #212, #170, #249 ) ;
#183 = PRESENTATION_LAYER_ASSIGNMENT (  '', '', ( #159 ) ) ;
#184 = DIRECTION ( 'NONE',  ( 0.0000000000000000000, 0.0000000000000000000, -1.000000000000000000 ) ) ;
#185 = PLANE ( 'NONE',  #167 ) ;
#186 = SURFACE_STYLE_FILL_AREA ( #33 ) ;
#187 = CONICAL_SURFACE ( 'NONE', #88, 0.003936999999999995191, 0.5235987755983005920 ) ;
#188 =( CONVERSION_BASED_UNIT ( 'INCH', #12 ) LENGTH_UNIT ( ) NAMED_UNIT ( #76 ) );
#189 = CARTESIAN_POINT ( 'NONE',  ( 0.0000000000000000000, 0.0000000000000000000, 0.0000000000000000000 ) ) ;
#190 =( NAMED_UNIT ( * ) PLANE_ANGLE_UNIT ( ) SI_UNIT ( $, .RADIAN. ) );
#191 = EDGE_CURVE ( 'NONE', #117, #13, #168, .T. ) ;
#192 = ORIENTED_EDGE ( 'NONE', *, *, #96, .T. ) ;
#193 =( NAMED_UNIT ( * ) SI_UNIT ( $, .STERADIAN. ) SOLID_ANGLE_UNIT ( ) );
#194 = AXIS2_PLACEMENT_3D ( 'NONE', #36, #172, #80 ) ;
#195 = ORIENTED_EDGE ( 'NONE', *, *, #50, .T. ) ;
#196 = FACE_OUTER_BOUND ( 'NONE', #2, .T. ) ;
#197 = DIRECTION ( 'NONE',  ( 0.0000000000000000000, 0.0000000000000000000, -1.000000000000000000 ) ) ;
#198 = MECHANICAL_DESIGN_GEOMETRIC_PRESENTATION_REPRESENTATION (  '', ( #47 ), #163 ) ;
#199 = ORIENTED_EDGE ( 'NONE', *, *, #176, .F. ) ;
#200 = VERTEX_POINT ( 'NONE', #209 ) ;
#201 = AXIS2_PLACEMENT_3D ( 'NONE', #237, #42, #110 ) ;
#202 = LINE ( 'NONE', #109, #57 ) ;
#203 = CARTESIAN_POINT ( 'NONE',  ( 0.0000000000000000000, 0.0000000000000000000, 3.267717000000000649 ) ) ;
#204 =( NAMED_UNIT ( * ) PLANE_ANGLE_UNIT ( ) SI_UNIT ( $, .RADIAN. ) );
#205 = CIRCLE ( 'NONE', #52, 0.2212205000000019295 ) ;
#206 = DIRECTION ( 'NONE',  ( -1.000000000000000000, 0.0000000000000000000, 0.0000000000000000000 ) ) ;
#207 = COLOUR_RGB ( '',0.7921568627450980005, 0.8196078431372548767, 0.9333333333333333481 ) ;
#208 = EDGE_CURVE ( 'NONE', #155, #37, #240, .T. ) ;
#209 = CARTESIAN_POINT ( 'NONE',  ( -0.2212205000000019295, 0.0000000000000000000, 3.267717000000000649 ) ) ;
#210 = AXIS2_PLACEMENT_3D ( 'NONE', #125, #184, #124 ) ;
#211 =( GEOMETRIC_REPRESENTATION_CONTEXT ( 3 ) GLOBAL_UNCERTAINTY_ASSIGNED_CONTEXT ( ( #103 ) ) GLOBAL_UNIT_ASSIGNED_CONTEXT ( ( #188, #248, #94 ) ) REPRESENTATION_CONTEXT ( 'NONE', 'WORKASPACE' ) );
#212 = CARTESIAN_POINT ( 'NONE',  ( 0.0000000000000000000, 0.0000000000000000000, 3.267717000000000649 ) ) ;
#213 = DIRECTION ( 'NONE',  ( 0.0000000000000000000, 0.0000000000000000000, 1.000000000000000000 ) ) ;
#214 = PRODUCT_DEFINITION_CONTEXT ( 'detailed design', #173, 'design' ) ;
#215 = ORIENTED_EDGE ( 'NONE', *, *, #165, .T. ) ;
#216 = CIRCLE ( 'NONE', #210, 0.2362204999999999999 ) ;
#217 = PRODUCT_DEFINITION ( 'UNKNOWN', '', #53, #214 ) ;
#218 = ORIENTED_EDGE ( 'NONE', *, *, #18, .T. ) ;
#219 = ORIENTED_EDGE ( 'NONE', *, *, #77, .F. ) ;
#220 = DIRECTION ( 'NONE',  ( 1.000000000000000000, 0.0000000000000000000, 0.0000000000000000000 ) ) ;
#221 = CIRCLE ( 'NONE', #201, 0.003936999999999995191 ) ;
#222 = MECHANICAL_DESIGN_GEOMETRIC_PRESENTATION_REPRESENTATION (  '', ( #159 ), #211 ) ;
#223 = FILL_AREA_STYLE_COLOUR ( '', #14 ) ;
#224 = DIRECTION ( 'NONE',  ( -0.5000000000000013323, 6.123233995736782060E-17, 0.8660254037844377084 ) ) ;
#225 = CARTESIAN_POINT ( 'NONE',  ( 0.0000000000000000000, 0.0000000000000000000, 3.267717000000000649 ) ) ;
#226 = CARTESIAN_POINT ( 'NONE',  ( 0.0000000000000000000, 0.0000000000000000000, 3.252717000000002301 ) ) ;
#227 = EDGE_LOOP ( 'NONE', ( #16, #5, #192, #120 ) ) ;
#228 = EDGE_CURVE ( 'NONE', #134, #235, #153, .T. ) ;
#229 = DIRECTION ( 'NONE',  ( 0.0000000000000000000, 0.0000000000000000000, 1.000000000000000000 ) ) ;
#230 = ADVANCED_BREP_SHAPE_REPRESENTATION ( 'Micro_RSCM-120-1', ( #130, #247 ), #62 ) ;
#231 =( LENGTH_UNIT ( ) NAMED_UNIT ( * ) SI_UNIT ( $, .METRE. ) );
#232 = FACE_OUTER_BOUND ( 'NONE', #63, .T. ) ;
#233 = LINE ( 'NONE', #59, #20 ) ;
#234 = ORIENTED_EDGE ( 'NONE', *, *, #127, .T. ) ;
#235 = VERTEX_POINT ( 'NONE', #245 ) ;
#236 = CARTESIAN_POINT ( 'NONE',  ( 0.0000000000000000000, 0.0000000000000000000, 3.267717000000000649 ) ) ;
#237 = CARTESIAN_POINT ( 'NONE',  ( 0.0000000000000000000, 0.0000000000000000000, 0.0000000000000000000 ) ) ;
#238 = DIRECTION ( 'NONE',  ( -0.7071067811865474617, 0.0000000000000000000, -0.7071067811865474617 ) ) ;
#239 = AXIS2_PLACEMENT_3D ( 'NONE', #236, #64, #105 ) ;
#240 = CIRCLE ( 'NONE', #151, 0.2362204999999999999 ) ;
#241 = DIRECTION ( 'NONE',  ( 0.0000000000000000000, 0.0000000000000000000, 1.000000000000000000 ) ) ;
#242 = LINE ( 'NONE', #8, #61 ) ;
#243 = SURFACE_STYLE_USAGE ( .BOTH. , #157 ) ;
#244 = DIRECTION ( 'NONE',  ( -0.0000000000000000000, -0.0000000000000000000, -1.000000000000000000 ) ) ;
#245 = CARTESIAN_POINT ( 'NONE',  ( 0.003936999999999995191, 0.0000000000000000000, 0.0000000000000000000 ) ) ;
#246 = DIMENSIONAL_EXPONENTS ( 1.000000000000000000, 0.0000000000000000000, 0.0000000000000000000, 0.0000000000000000000, 0.0000000000000000000, 0.0000000000000000000, 0.0000000000000000000 ) ;
#247 = AXIS2_PLACEMENT_3D ( 'NONE', #189, #229, #83 ) ;
#248 =( NAMED_UNIT ( * ) PLANE_ANGLE_UNIT ( ) SI_UNIT ( $, .RADIAN. ) );
#249 = DIRECTION ( 'NONE',  ( -1.000000000000000000, 0.0000000000000000000, 0.0000000000000000000 ) ) ;
ENDSEC;
END-ISO-10303-21;
