ISO-10303-21;
HEADER;
FILE_DESCRIPTION (( 'STEP AP214' ),
    '1' );
FILE_NAME ('01360.STEP',
    '2023-06-22T14:28:06',
    ( '' ),
    ( '' ),
    'SwSTEP 2.0',
    'SolidWorks 2023',
    '' );
FILE_SCHEMA (( 'AUTOMOTIVE_DESIGN' ));
ENDSEC;

DATA;
#1 = CARTESIAN_POINT ( 'NONE',  ( 2.296212748401287726E-17, 0.000000000000000000, 0.1875000000000000278 ) ) ;
#2 = VERTEX_POINT ( 'NONE', #36 ) ;
#3 = COLOUR_RGB ( '',1.000000000000000000, 0.000000000000000000, 0.000000000000000000 ) ;
#4 = PRESENTATION_STYLE_ASSIGNMENT (( #122 ) ) ;
#5 = CARTESIAN_POINT ( 'NONE',  ( 0.000000000000000000, 0.000000000000000000, 0.000000000000000000 ) ) ;
#6 = FILL_AREA_STYLE_COLOUR ( '', #3 ) ;
#7 = DIRECTION ( 'NONE',  ( -2.721437331438560389E-17, 1.000000000000000000, -0.000000000000000000 ) ) ;
#8 = PLANE ( 'NONE',  #219 ) ;
#9 = AXIS2_PLACEMENT_3D ( 'NONE', #5, #175, #169 ) ;
#10 = FACE_OUTER_BOUND ( 'NONE', #192, .T. ) ;
#11 = LINE ( 'NONE', #16, #148 ) ;
#12 =( LENGTH_UNIT ( ) NAMED_UNIT ( * ) SI_UNIT ( $, .METRE. ) );
#13 = STYLED_ITEM ( 'NONE', ( #293 ), #27 ) ;
#14 = SURFACE_STYLE_FILL_AREA ( #159 ) ;
#15 = COLOUR_RGB ( '',0.7921568627450980005, 0.8196078431372548767, 0.9333333333333333481 ) ;
#16 = CARTESIAN_POINT ( 'NONE',  ( 2.296212748401287726E-17, 0.000000000000000000, 0.1875000000000000278 ) ) ;
#17 = UNCERTAINTY_MEASURE_WITH_UNIT (LENGTH_MEASURE( 1.000000000000000082E-05 ), #212, 'distance_accuracy_value', 'NONE');
#18 =( CONVERSION_BASED_UNIT ( 'INCH', #275 ) LENGTH_UNIT ( ) NAMED_UNIT ( #273 ) );
#19 = EDGE_CURVE ( 'NONE', #109, #83, #11, .T. ) ;
#20 = STYLED_ITEM ( 'NONE', ( #104 ), #264 ) ;
#21 = APPLICATION_CONTEXT ( 'automotive_design' ) ;
#22 = DIMENSIONAL_EXPONENTS ( 1.000000000000000000, 0.000000000000000000, 0.000000000000000000, 0.000000000000000000, 0.000000000000000000, 0.000000000000000000, 0.000000000000000000 ) ;
#23 = FACE_OUTER_BOUND ( 'NONE', #128, .T. ) ;
#24 = ORIENTED_EDGE ( 'NONE', *, *, #202, .F. ) ;
#25 = SURFACE_SIDE_STYLE ('',( #201 ) ) ;
#26 = DIRECTION ( 'NONE',  ( 0.000000000000000000, 0.000000000000000000, -1.000000000000000000 ) ) ;
#27 = ADVANCED_FACE ( 'NONE', ( #226 ), #296, .T. ) ;
#28 = FILL_AREA_STYLE_COLOUR ( '', #111 ) ;
#29 = CIRCLE ( 'NONE', #9, 0.1875000000000000278 ) ;
#30 = AXIS2_PLACEMENT_3D ( 'NONE', #43, #114, #115 ) ;
#31 = DIRECTION ( 'NONE',  ( 0.000000000000000000, 0.000000000000000000, -1.000000000000000000 ) ) ;
#32 = DIRECTION ( 'NONE',  ( -2.721437331438560697E-17, 1.000000000000000000, -0.000000000000000000 ) ) ;
#33 = SURFACE_STYLE_USAGE ( .BOTH. , #249 ) ;
#34 = CIRCLE ( 'NONE', #196, 0.1875000000000000278 ) ;
#35 = SURFACE_STYLE_USAGE ( .BOTH. , #272 ) ;
#36 = CARTESIAN_POINT ( 'NONE',  ( -0.1875000000000001388, 3.500000000000000000, 0.000000000000000000 ) ) ;
#37 = EDGE_CURVE ( 'NONE', #136, #217, #102, .T. ) ;
#38 = EDGE_CURVE ( 'NONE', #2, #217, #158, .T. ) ;
#39 = EDGE_CURVE ( 'NONE', #74, #83, #34, .T. ) ;
#40 =( NAMED_UNIT ( * ) SI_UNIT ( $, .STERADIAN. ) SOLID_ANGLE_UNIT ( ) );
#41 = FILL_AREA_STYLE_COLOUR ( '', #15 ) ;
#42 = MANIFOLD_SOLID_BREP ( 'Revolve - Tool Body (Straight Shanked)', #244 ) ;
#43 = CARTESIAN_POINT ( 'NONE',  ( 0.000000000000000000, 0.000000000000000000, 0.000000000000000000 ) ) ;
#44 = APPLICATION_PROTOCOL_DEFINITION ( 'draft international standard', 'automotive_design', 1998, #156 ) ;
#45 =( NAMED_UNIT ( * ) PLANE_ANGLE_UNIT ( ) SI_UNIT ( $, .RADIAN. ) );
#46 = STYLED_ITEM ( 'NONE', ( #188 ), #42 ) ;
#47 = CARTESIAN_POINT ( 'NONE',  ( -0.1875000000000001110, 3.500000000000000000, 0.000000000000000000 ) ) ;
#48 = SURFACE_SIDE_STYLE ('',( #149 ) ) ;
#49 = ORIENTED_EDGE ( 'NONE', *, *, #82, .F. ) ;
#50 = ADVANCED_FACE ( 'NONE', ( #278 ), #300, .F. ) ;
#51 = CARTESIAN_POINT ( 'NONE',  ( 0.1875000000000000278, 1.250000000000000000, 2.296212748401288342E-17 ) ) ;
#52 = CLOSED_SHELL ( 'NONE', ( #264, #27, #166, #302 ) ) ;
#53 = PRESENTATION_LAYER_ASSIGNMENT (  '', '', ( #298 ) ) ;
#54 = FILL_AREA_STYLE ('',( #6 ) ) ;
#55 = ORIENTED_EDGE ( 'NONE', *, *, #277, .T. ) ;
#56 = UNCERTAINTY_MEASURE_WITH_UNIT (LENGTH_MEASURE( 1.000000000000000082E-05 ), #306, 'distance_accuracy_value', 'NONE');
#57 =( NAMED_UNIT ( * ) PLANE_ANGLE_UNIT ( ) SI_UNIT ( $, .RADIAN. ) );
#58 = FILL_AREA_STYLE ('',( #268 ) ) ;
#59 = DIRECTION ( 'NONE',  ( 0.000000000000000000, 1.000000000000000000, 0.000000000000000000 ) ) ;
#60 = CARTESIAN_POINT ( 'NONE',  ( 0.000000000000000000, 1.250000000000000000, 0.000000000000000000 ) ) ;
#61 = AXIS2_PLACEMENT_3D ( 'NONE', #182, #248, #31 ) ;
#62 = FILL_AREA_STYLE_COLOUR ( '', #152 ) ;
#63 = CARTESIAN_POINT ( 'NONE',  ( 0.1875000000000000278, 3.500000000000000000, 2.296212748401288342E-17 ) ) ;
#64 = CARTESIAN_POINT ( 'NONE',  ( 0.1875000000000000278, 3.500000000000000000, 0.000000000000000000 ) ) ;
#65 = UNCERTAINTY_MEASURE_WITH_UNIT (LENGTH_MEASURE( 1.000000000000000082E-05 ), #179, 'distance_accuracy_value', 'NONE');
#66 = STYLED_ITEM ( 'NONE', ( #280 ), #302 ) ;
#67 = AXIS2_PLACEMENT_3D ( 'NONE', #117, #187, #164 ) ;
#68 = ADVANCED_FACE ( 'NONE', ( #23 ), #123, .T. ) ;
#69 = PRODUCT_CONTEXT ( 'NONE', #21, 'mechanical' ) ;
#70 = ORIENTED_EDGE ( 'NONE', *, *, #73, .F. ) ;
#71 = ORIENTED_EDGE ( 'NONE', *, *, #129, .F. ) ;
#72 = AXIS2_PLACEMENT_3D ( 'NONE', #220, #7, #146 ) ;
#73 = EDGE_CURVE ( 'NONE', #282, #136, #262, .T. ) ;
#74 = VERTEX_POINT ( 'NONE', #259 ) ;
#75 = DIRECTION ( 'NONE',  ( 2.721437331438560697E-17, -1.000000000000000000, 0.000000000000000000 ) ) ;
#76 = CARTESIAN_POINT ( 'NONE',  ( 0.000000000000000000, 1.250000000000000000, 0.000000000000000000 ) ) ;
#77 = CYLINDRICAL_SURFACE ( 'NONE', #72, 0.1875000000000000555 ) ;
#78 = SHAPE_DEFINITION_REPRESENTATION ( #95, #84 ) ;
#79 = ORIENTED_EDGE ( 'NONE', *, *, #19, .T. ) ;
#80 =( LENGTH_UNIT ( ) NAMED_UNIT ( * ) SI_UNIT ( $, .METRE. ) );
#81 = SURFACE_STYLE_USAGE ( .BOTH. , #205 ) ;
#82 = EDGE_CURVE ( 'NONE', #217, #2, #258, .T. ) ;
#83 = VERTEX_POINT ( 'NONE', #1 ) ;
#84 = ADVANCED_BREP_SHAPE_REPRESENTATION ( '01360', ( #252, #42, #67 ), #153 ) ;
#85 = DIRECTION ( 'NONE',  ( -1.000000000000000000, 0.000000000000000000, 0.000000000000000000 ) ) ;
#86 = DIRECTION ( 'NONE',  ( -2.721437331438560389E-17, 1.000000000000000000, -0.000000000000000000 ) ) ;
#87 = COLOUR_RGB ( '',1.000000000000000000, 0.000000000000000000, 0.000000000000000000 ) ;
#88 = ORIENTED_EDGE ( 'NONE', *, *, #230, .T. ) ;
#89 = APPLICATION_PROTOCOL_DEFINITION ( 'draft international standard', 'automotive_design', 1998, #21 ) ;
#90 = FILL_AREA_STYLE ('',( #41 ) ) ;
#91 = DIRECTION ( 'NONE',  ( 1.000000000000000000, 2.721437331438560697E-17, 0.000000000000000000 ) ) ;
#92 = EDGE_LOOP ( 'NONE', ( #167, #79, #247, #150 ) ) ;
#93 = CIRCLE ( 'NONE', #266, 0.1875000000000000278 ) ;
#94 = FACE_OUTER_BOUND ( 'NONE', #162, .T. ) ;
#95 = PRODUCT_DEFINITION_SHAPE ( 'NONE', 'NONE',  #151 ) ;
#96 = UNCERTAINTY_MEASURE_WITH_UNIT (LENGTH_MEASURE( 1.000000000000000082E-05 ), #305, 'distance_accuracy_value', 'NONE');
#97 = FACE_OUTER_BOUND ( 'NONE', #172, .T. ) ;
#98 = MECHANICAL_DESIGN_GEOMETRIC_PRESENTATION_REPRESENTATION (  '', ( #66 ), #143 ) ;
#99 = FILL_AREA_STYLE ('',( #28 ) ) ;
#100 = FACE_OUTER_BOUND ( 'NONE', #251, .T. ) ;
#101 = VECTOR ( 'NONE', #32, 39.37007874015748143 ) ;
#102 = LINE ( 'NONE', #154, #101 ) ;
#103 = UNCERTAINTY_MEASURE_WITH_UNIT (LENGTH_MEASURE( 1.000000000000000082E-05 ), #18, 'distance_accuracy_value', 'NONE');
#104 = PRESENTATION_STYLE_ASSIGNMENT (( #35 ) ) ;
#105 =( GEOMETRIC_REPRESENTATION_CONTEXT ( 3 ) GLOBAL_UNCERTAINTY_ASSIGNED_CONTEXT ( ( #103 ) ) GLOBAL_UNIT_ASSIGNED_CONTEXT ( ( #18, #232, #110 ) ) REPRESENTATION_CONTEXT ( 'NONE', 'WORKASPACE' ) );
#106 = VERTEX_POINT ( 'NONE', #193 ) ;
#107 =( NAMED_UNIT ( * ) PLANE_ANGLE_UNIT ( ) SI_UNIT ( $, .RADIAN. ) );
#108 =( NAMED_UNIT ( * ) SI_UNIT ( $, .STERADIAN. ) SOLID_ANGLE_UNIT ( ) );
#109 = VERTEX_POINT ( 'NONE', #285 ) ;
#110 =( NAMED_UNIT ( * ) SI_UNIT ( $, .STERADIAN. ) SOLID_ANGLE_UNIT ( ) );
#111 = COLOUR_RGB ( '',0.7921568627450980005, 0.8196078431372548767, 0.9333333333333333481 ) ;
#112 = DIMENSIONAL_EXPONENTS ( 1.000000000000000000, 0.000000000000000000, 0.000000000000000000, 0.000000000000000000, 0.000000000000000000, 0.000000000000000000, 0.000000000000000000 ) ;
#113 = DIRECTION ( 'NONE',  ( -1.000000000000000000, 0.000000000000000000, 0.000000000000000000 ) ) ;
#114 = DIRECTION ( 'NONE',  ( 0.000000000000000000, -1.000000000000000000, -0.000000000000000000 ) ) ;
#115 = DIRECTION ( 'NONE',  ( 0.000000000000000000, 0.000000000000000000, -1.000000000000000000 ) ) ;
#116 = AXIS2_PLACEMENT_3D ( 'NONE', #211, #86, #113 ) ;
#117 = CARTESIAN_POINT ( 'NONE',  ( 0.000000000000000000, 0.000000000000000000, 0.000000000000000000 ) ) ;
#118 = DIRECTION ( 'NONE',  ( -0.000000000000000000, -1.000000000000000000, -0.000000000000000000 ) ) ;
#119 = CARTESIAN_POINT ( 'NONE',  ( 0.000000000000000000, 0.000000000000000000, 0.000000000000000000 ) ) ;
#120 = ORIENTED_EDGE ( 'NONE', *, *, #202, .T. ) ;
#121 = ORIENTED_EDGE ( 'NONE', *, *, #37, .T. ) ;
#122 = SURFACE_STYLE_USAGE ( .BOTH. , #25 ) ;
#123 = CYLINDRICAL_SURFACE ( 'NONE', #139, 0.1875000000000000555 ) ;
#124 = AXIS2_PLACEMENT_3D ( 'NONE', #64, #75, #91 ) ;
#125 = SURFACE_STYLE_USAGE ( .BOTH. , #48 ) ;
#126 = CARTESIAN_POINT ( 'NONE',  ( 0.000000000000000000, 0.000000000000000000, 0.000000000000000000 ) ) ;
#127 = CIRCLE ( 'NONE', #116, 0.1875000000000000278 ) ;
#128 = EDGE_LOOP ( 'NONE', ( #297, #265, #120, #49 ) ) ;
#129 = EDGE_CURVE ( 'NONE', #106, #109, #304, .T. ) ;
#130 = DIRECTION ( 'NONE',  ( -0.000000000000000000, -1.000000000000000000, -0.000000000000000000 ) ) ;
#131 =( LENGTH_UNIT ( ) NAMED_UNIT ( * ) SI_UNIT ( $, .METRE. ) );
#132 = MECHANICAL_DESIGN_GEOMETRIC_PRESENTATION_REPRESENTATION (  '', ( #178 ), #267 ) ;
#133 = ORIENTED_EDGE ( 'NONE', *, *, #144, .F. ) ;
#134 = DIRECTION ( 'NONE',  ( -2.721437331438560697E-17, 1.000000000000000000, -0.000000000000000000 ) ) ;
#135 = UNCERTAINTY_MEASURE_WITH_UNIT (LENGTH_MEASURE( 1.000000000000000082E-05 ), #270, 'distance_accuracy_value', 'NONE');
#136 = VERTEX_POINT ( 'NONE', #51 ) ;
#137 = DIMENSIONAL_EXPONENTS ( 1.000000000000000000, 0.000000000000000000, 0.000000000000000000, 0.000000000000000000, 0.000000000000000000, 0.000000000000000000, 0.000000000000000000 ) ;
#138 = MECHANICAL_DESIGN_GEOMETRIC_PRESENTATION_REPRESENTATION (  '', ( #46 ), #105 ) ;
#139 = AXIS2_PLACEMENT_3D ( 'NONE', #243, #147, #241 ) ;
#140 = DIMENSIONAL_EXPONENTS ( 1.000000000000000000, 0.000000000000000000, 0.000000000000000000, 0.000000000000000000, 0.000000000000000000, 0.000000000000000000, 0.000000000000000000 ) ;
#141 = CARTESIAN_POINT ( 'NONE',  ( 0.000000000000000000, 0.000000000000000000, -0.1875000000000000278 ) ) ;
#142 =( NAMED_UNIT ( * ) SI_UNIT ( $, .STERADIAN. ) SOLID_ANGLE_UNIT ( ) );
#143 =( GEOMETRIC_REPRESENTATION_CONTEXT ( 3 ) GLOBAL_UNCERTAINTY_ASSIGNED_CONTEXT ( ( #17 ) ) GLOBAL_UNIT_ASSIGNED_CONTEXT ( ( #212, #309, #235 ) ) REPRESENTATION_CONTEXT ( 'NONE', 'WORKASPACE' ) );
#144 = EDGE_CURVE ( 'NONE', #83, #74, #29, .T. ) ;
#145 = PRESENTATION_STYLE_ASSIGNMENT (( #125 ) ) ;
#146 = DIRECTION ( 'NONE',  ( -1.000000000000000000, 0.000000000000000000, 0.000000000000000000 ) ) ;
#147 = DIRECTION ( 'NONE',  ( -2.721437331438560389E-17, 1.000000000000000000, -0.000000000000000000 ) ) ;
#148 = VECTOR ( 'NONE', #269, 39.37007874015748143 ) ;
#149 = SURFACE_STYLE_FILL_AREA ( #54 ) ;
#150 = ORIENTED_EDGE ( 'NONE', *, *, #230, .F. ) ;
#151 = PRODUCT_DEFINITION ( 'UNKNOWN', '', #209, #200 ) ;
#152 = COLOUR_RGB ( '',1.000000000000000000, 0.000000000000000000, 0.000000000000000000 ) ;
#153 =( GEOMETRIC_REPRESENTATION_CONTEXT ( 3 ) GLOBAL_UNCERTAINTY_ASSIGNED_CONTEXT ( ( #96 ) ) GLOBAL_UNIT_ASSIGNED_CONTEXT ( ( #305, #168, #40 ) ) REPRESENTATION_CONTEXT ( 'NONE', 'WORKASPACE' ) );
#154 = CARTESIAN_POINT ( 'NONE',  ( 0.1874999999999999722, 3.500000000000000000, 2.296212748401288034E-17 ) ) ;
#155 = SURFACE_STYLE_FILL_AREA ( #58 ) ;
#156 = APPLICATION_CONTEXT ( 'automotive_design' ) ;
#157 = CARTESIAN_POINT ( 'NONE',  ( -6.123233995736759873E-17, 3.500000000000000000, 0.000000000000000000 ) ) ;
#158 = CIRCLE ( 'NONE', #198, 0.1875000000000000833 ) ;
#159 = FILL_AREA_STYLE ('',( #62 ) ) ;
#160 = ORIENTED_EDGE ( 'NONE', *, *, #277, .F. ) ;
#161 = CARTESIAN_POINT ( 'NONE',  ( -0.1875000000000000278, 1.250000000000000000, 0.000000000000000000 ) ) ;
#162 = EDGE_LOOP ( 'NONE', ( #190, #55, #88, #133 ) ) ;
#163 = CARTESIAN_POINT ( 'NONE',  ( 0.000000000000000000, 1.250000000000000000, 0.000000000000000000 ) ) ;
#164 = DIRECTION ( 'NONE',  ( 1.000000000000000000, 0.000000000000000000, 0.000000000000000000 ) ) ;
#165 = VECTOR ( 'NONE', #222, 39.37007874015748143 ) ;
#166 = ADVANCED_FACE ( 'NONE', ( #94 ), #261, .T. ) ;
#167 = ORIENTED_EDGE ( 'NONE', *, *, #129, .T. ) ;
#168 =( NAMED_UNIT ( * ) PLANE_ANGLE_UNIT ( ) SI_UNIT ( $, .RADIAN. ) );
#169 = DIRECTION ( 'NONE',  ( 0.000000000000000000, 0.000000000000000000, -1.000000000000000000 ) ) ;
#170 = MECHANICAL_DESIGN_GEOMETRIC_PRESENTATION_REPRESENTATION (  '', ( #298 ), #227 ) ;
#171 = DIRECTION ( 'NONE',  ( -2.721437331438560389E-17, 1.000000000000000000, -0.000000000000000000 ) ) ;
#172 = EDGE_LOOP ( 'NONE', ( #70, #308 ) ) ;
#173 = CYLINDRICAL_SURFACE ( 'NONE', #61, 0.1875000000000000278 ) ;
#174 = PRODUCT ( '01360', '01360', '', ( #69 ) ) ;
#175 = DIRECTION ( 'NONE',  ( -0.000000000000000000, -1.000000000000000000, -0.000000000000000000 ) ) ;
#176 = PRESENTATION_LAYER_ASSIGNMENT (  '', '', ( #178 ) ) ;
#177 = LINE ( 'NONE', #47, #294 ) ;
#178 = STYLED_ITEM ( 'NONE', ( #145 ), #166 ) ;
#179 =( CONVERSION_BASED_UNIT ( 'INCH', #181 ) LENGTH_UNIT ( ) NAMED_UNIT ( #299 ) );
#180 = LENGTH_MEASURE_WITH_UNIT ( LENGTH_MEASURE( 0.02539999999999999897 ), #80 );
#181 = LENGTH_MEASURE_WITH_UNIT ( LENGTH_MEASURE( 0.02539999999999999897 ), #12 );
#182 = CARTESIAN_POINT ( 'NONE',  ( 0.000000000000000000, 0.000000000000000000, 0.000000000000000000 ) ) ;
#183 = ORIENTED_EDGE ( 'NONE', *, *, #38, .F. ) ;
#184 =( NAMED_UNIT ( * ) PLANE_ANGLE_UNIT ( ) SI_UNIT ( $, .RADIAN. ) );
#185 =( CONVERSION_BASED_UNIT ( 'INCH', #204 ) LENGTH_UNIT ( ) NAMED_UNIT ( #140 ) );
#186 = ADVANCED_FACE ( 'NONE', ( #97 ), #8, .F. ) ;
#187 = DIRECTION ( 'NONE',  ( 0.000000000000000000, 0.000000000000000000, 1.000000000000000000 ) ) ;
#188 = PRESENTATION_STYLE_ASSIGNMENT (( #255 ) ) ;
#189 = AXIS2_PLACEMENT_3D ( 'NONE', #126, #221, #246 ) ;
#190 = ORIENTED_EDGE ( 'NONE', *, *, #19, .F. ) ;
#191 = PRODUCT_RELATED_PRODUCT_CATEGORY ( 'part', '', ( #174 ) ) ;
#192 = EDGE_LOOP ( 'NONE', ( #215, #121, #183, #24 ) ) ;
#193 = CARTESIAN_POINT ( 'NONE',  ( 0.000000000000000000, 1.250000000000000000, -0.1875000000000000278 ) ) ;
#194 = MECHANICAL_DESIGN_GEOMETRIC_PRESENTATION_REPRESENTATION (  '', ( #20 ), #234 ) ;
#195 = EDGE_LOOP ( 'NONE', ( #288, #257 ) ) ;
#196 = AXIS2_PLACEMENT_3D ( 'NONE', #119, #286, #210 ) ;
#197 = CARTESIAN_POINT ( 'NONE',  ( 0.000000000000000000, 1.250000000000000000, 0.000000000000000000 ) ) ;
#198 = AXIS2_PLACEMENT_3D ( 'NONE', #157, #250, #85 ) ;
#199 = CARTESIAN_POINT ( 'NONE',  ( 6.943332327138218856E-35, 1.250000000000000000, 0.000000000000000000 ) ) ;
#200 = PRODUCT_DEFINITION_CONTEXT ( 'detailed design', #156, 'design' ) ;
#201 = SURFACE_STYLE_FILL_AREA ( #99 ) ;
#202 = EDGE_CURVE ( 'NONE', #282, #2, #177, .T. ) ;
#203 = UNCERTAINTY_MEASURE_WITH_UNIT (LENGTH_MEASURE( 1.000000000000000082E-05 ), #185, 'distance_accuracy_value', 'NONE');
#204 = LENGTH_MEASURE_WITH_UNIT ( LENGTH_MEASURE( 0.02539999999999999897 ), #131 );
#205 = SURFACE_SIDE_STYLE ('',( #207 ) ) ;
#206 = COLOUR_RGB ( '',1.000000000000000000, 0.000000000000000000, 0.000000000000000000 ) ;
#207 = SURFACE_STYLE_FILL_AREA ( #276 ) ;
#208 =( NAMED_UNIT ( * ) SI_UNIT ( $, .STERADIAN. ) SOLID_ANGLE_UNIT ( ) );
#209 = PRODUCT_DEFINITION_FORMATION_WITH_SPECIFIED_SOURCE ( 'ANY', '', #174, .NOT_KNOWN. ) ;
#210 = DIRECTION ( 'NONE',  ( 0.000000000000000000, 0.000000000000000000, -1.000000000000000000 ) ) ;
#211 = CARTESIAN_POINT ( 'NONE',  ( 0.000000000000000000, 1.250000000000000000, 0.000000000000000000 ) ) ;
#212 =( CONVERSION_BASED_UNIT ( 'INCH', #242 ) LENGTH_UNIT ( ) NAMED_UNIT ( #281 ) );
#213 = PRESENTATION_LAYER_ASSIGNMENT (  '', '', ( #46 ) ) ;
#214 = LENGTH_MEASURE_WITH_UNIT ( LENGTH_MEASURE( 0.02539999999999999897 ), #256 );
#215 = ORIENTED_EDGE ( 'NONE', *, *, #73, .T. ) ;
#216 = DIRECTION ( 'NONE',  ( -1.000000000000000000, 0.000000000000000000, 0.000000000000000000 ) ) ;
#217 = VERTEX_POINT ( 'NONE', #63 ) ;
#218 = EDGE_CURVE ( 'NONE', #136, #282, #127, .T. ) ;
#219 = AXIS2_PLACEMENT_3D ( 'NONE', #199, #290, #263 ) ;
#220 = CARTESIAN_POINT ( 'NONE',  ( -6.123233995736759873E-17, 3.500000000000000000, 0.000000000000000000 ) ) ;
#221 = DIRECTION ( 'NONE',  ( -0.000000000000000000, -1.000000000000000000, -0.000000000000000000 ) ) ;
#222 = DIRECTION ( 'NONE',  ( -0.000000000000000000, -1.000000000000000000, -0.000000000000000000 ) ) ;
#223 = EDGE_LOOP ( 'NONE', ( #71, #160 ) ) ;
#224 = DIRECTION ( 'NONE',  ( 0.000000000000000000, 0.000000000000000000, -1.000000000000000000 ) ) ;
#225 =( NAMED_UNIT ( * ) SI_UNIT ( $, .STERADIAN. ) SOLID_ANGLE_UNIT ( ) );
#226 = FACE_OUTER_BOUND ( 'NONE', #223, .T. ) ;
#227 =( GEOMETRIC_REPRESENTATION_CONTEXT ( 3 ) GLOBAL_UNCERTAINTY_ASSIGNED_CONTEXT ( ( #203 ) ) GLOBAL_UNIT_ASSIGNED_CONTEXT ( ( #185, #57, #225 ) ) REPRESENTATION_CONTEXT ( 'NONE', 'WORKASPACE' ) );
#228 =( LENGTH_UNIT ( ) NAMED_UNIT ( * ) SI_UNIT ( $, .METRE. ) );
#229 = FILL_AREA_STYLE_COLOUR ( '', #87 ) ;
#230 = EDGE_CURVE ( 'NONE', #106, #74, #301, .T. ) ;
#231 = ADVANCED_FACE ( 'NONE', ( #10 ), #77, .T. ) ;
#232 =( NAMED_UNIT ( * ) PLANE_ANGLE_UNIT ( ) SI_UNIT ( $, .RADIAN. ) );
#233 = SURFACE_SIDE_STYLE ('',( #284 ) ) ;
#234 =( GEOMETRIC_REPRESENTATION_CONTEXT ( 3 ) GLOBAL_UNCERTAINTY_ASSIGNED_CONTEXT ( ( #135 ) ) GLOBAL_UNIT_ASSIGNED_CONTEXT ( ( #270, #107, #208 ) ) REPRESENTATION_CONTEXT ( 'NONE', 'WORKASPACE' ) );
#235 =( NAMED_UNIT ( * ) SI_UNIT ( $, .STERADIAN. ) SOLID_ANGLE_UNIT ( ) );
#236 = LENGTH_MEASURE_WITH_UNIT ( LENGTH_MEASURE( 0.02539999999999999897 ), #239 );
#237 = PRESENTATION_LAYER_ASSIGNMENT (  '', '', ( #13 ) ) ;
#238 = ORIENTED_EDGE ( 'NONE', *, *, #39, .T. ) ;
#239 =( LENGTH_UNIT ( ) NAMED_UNIT ( * ) SI_UNIT ( $, .METRE. ) );
#240 = AXIS2_PLACEMENT_3D ( 'NONE', #76, #171, #260 ) ;
#241 = DIRECTION ( 'NONE',  ( -1.000000000000000000, 0.000000000000000000, 0.000000000000000000 ) ) ;
#242 = LENGTH_MEASURE_WITH_UNIT ( LENGTH_MEASURE( 0.02539999999999999897 ), #283 );
#243 = CARTESIAN_POINT ( 'NONE',  ( -6.123233995736759873E-17, 3.500000000000000000, 0.000000000000000000 ) ) ;
#244 = CLOSED_SHELL ( 'NONE', ( #231, #186, #68, #50 ) ) ;
#245 = PRESENTATION_LAYER_ASSIGNMENT (  '', '', ( #66 ) ) ;
#246 = DIRECTION ( 'NONE',  ( 0.000000000000000000, 0.000000000000000000, -1.000000000000000000 ) ) ;
#247 = ORIENTED_EDGE ( 'NONE', *, *, #39, .F. ) ;
#248 = DIRECTION ( 'NONE',  ( -0.000000000000000000, -1.000000000000000000, -0.000000000000000000 ) ) ;
#249 = SURFACE_SIDE_STYLE ('',( #155 ) ) ;
#250 = DIRECTION ( 'NONE',  ( -2.721437331438560389E-17, 1.000000000000000000, -0.000000000000000000 ) ) ;
#251 = EDGE_LOOP ( 'NONE', ( #238, #274 ) ) ;
#252 = MANIFOLD_SOLID_BREP ( 'Revolve - Cutting Edge', #52 ) ;
#253 = DIRECTION ( 'NONE',  ( 0.000000000000000000, -0.000000000000000000, 1.000000000000000000 ) ) ;
#254 = AXIS2_PLACEMENT_3D ( 'NONE', #163, #59, #253 ) ;
#255 = SURFACE_STYLE_USAGE ( .BOTH. , #233 ) ;
#256 =( LENGTH_UNIT ( ) NAMED_UNIT ( * ) SI_UNIT ( $, .METRE. ) );
#257 = ORIENTED_EDGE ( 'NONE', *, *, #82, .T. ) ;
#258 = CIRCLE ( 'NONE', #279, 0.1875000000000000833 ) ;
#259 = CARTESIAN_POINT ( 'NONE',  ( 0.000000000000000000, 0.000000000000000000, -0.1875000000000000278 ) ) ;
#260 = DIRECTION ( 'NONE',  ( -1.000000000000000000, 0.000000000000000000, 0.000000000000000000 ) ) ;
#261 = CYLINDRICAL_SURFACE ( 'NONE', #189, 0.1875000000000000278 ) ;
#262 = CIRCLE ( 'NONE', #240, 0.1875000000000000278 ) ;
#263 = DIRECTION ( 'NONE',  ( -1.000000000000000000, -2.721437331438560697E-17, 0.000000000000000000 ) ) ;
#264 = ADVANCED_FACE ( 'NONE', ( #295 ), #173, .T. ) ;
#265 = ORIENTED_EDGE ( 'NONE', *, *, #218, .T. ) ;
#266 = AXIS2_PLACEMENT_3D ( 'NONE', #60, #130, #224 ) ;
#267 =( GEOMETRIC_REPRESENTATION_CONTEXT ( 3 ) GLOBAL_UNCERTAINTY_ASSIGNED_CONTEXT ( ( #56 ) ) GLOBAL_UNIT_ASSIGNED_CONTEXT ( ( #306, #45, #142 ) ) REPRESENTATION_CONTEXT ( 'NONE', 'WORKASPACE' ) );
#268 = FILL_AREA_STYLE_COLOUR ( '', #206 ) ;
#269 = DIRECTION ( 'NONE',  ( -0.000000000000000000, -1.000000000000000000, -0.000000000000000000 ) ) ;
#270 =( CONVERSION_BASED_UNIT ( 'INCH', #180 ) LENGTH_UNIT ( ) NAMED_UNIT ( #112 ) );
#271 =( GEOMETRIC_REPRESENTATION_CONTEXT ( 3 ) GLOBAL_UNCERTAINTY_ASSIGNED_CONTEXT ( ( #65 ) ) GLOBAL_UNIT_ASSIGNED_CONTEXT ( ( #179, #184, #108 ) ) REPRESENTATION_CONTEXT ( 'NONE', 'WORKASPACE' ) );
#272 = SURFACE_SIDE_STYLE ('',( #14 ) ) ;
#273 = DIMENSIONAL_EXPONENTS ( 1.000000000000000000, 0.000000000000000000, 0.000000000000000000, 0.000000000000000000, 0.000000000000000000, 0.000000000000000000, 0.000000000000000000 ) ;
#274 = ORIENTED_EDGE ( 'NONE', *, *, #144, .T. ) ;
#275 = LENGTH_MEASURE_WITH_UNIT ( LENGTH_MEASURE( 0.02539999999999999897 ), #228 );
#276 = FILL_AREA_STYLE ('',( #229 ) ) ;
#277 = EDGE_CURVE ( 'NONE', #109, #106, #93, .T. ) ;
#278 = FACE_OUTER_BOUND ( 'NONE', #195, .T. ) ;
#279 = AXIS2_PLACEMENT_3D ( 'NONE', #289, #307, #216 ) ;
#280 = PRESENTATION_STYLE_ASSIGNMENT (( #33 ) ) ;
#281 = DIMENSIONAL_EXPONENTS ( 1.000000000000000000, 0.000000000000000000, 0.000000000000000000, 0.000000000000000000, 0.000000000000000000, 0.000000000000000000, 0.000000000000000000 ) ;
#282 = VERTEX_POINT ( 'NONE', #161 ) ;
#283 =( LENGTH_UNIT ( ) NAMED_UNIT ( * ) SI_UNIT ( $, .METRE. ) );
#284 = SURFACE_STYLE_FILL_AREA ( #90 ) ;
#285 = CARTESIAN_POINT ( 'NONE',  ( 2.296212748401287726E-17, 1.250000000000000000, 0.1875000000000000278 ) ) ;
#286 = DIRECTION ( 'NONE',  ( -0.000000000000000000, -1.000000000000000000, -0.000000000000000000 ) ) ;
#287 = AXIS2_PLACEMENT_3D ( 'NONE', #197, #118, #26 ) ;
#288 = ORIENTED_EDGE ( 'NONE', *, *, #38, .T. ) ;
#289 = CARTESIAN_POINT ( 'NONE',  ( -6.123233995736759873E-17, 3.500000000000000000, 0.000000000000000000 ) ) ;
#290 = DIRECTION ( 'NONE',  ( -2.721437331438560697E-17, 1.000000000000000000, 0.000000000000000000 ) ) ;
#291 = PRESENTATION_LAYER_ASSIGNMENT (  '', '', ( #20 ) ) ;
#292 = PLANE ( 'NONE',  #30 ) ;
#293 = PRESENTATION_STYLE_ASSIGNMENT (( #81 ) ) ;
#294 = VECTOR ( 'NONE', #134, 39.37007874015748143 ) ;
#295 = FACE_OUTER_BOUND ( 'NONE', #92, .T. ) ;
#296 = PLANE ( 'NONE',  #254 ) ;
#297 = ORIENTED_EDGE ( 'NONE', *, *, #37, .F. ) ;
#298 = STYLED_ITEM ( 'NONE', ( #4 ), #252 ) ;
#299 = DIMENSIONAL_EXPONENTS ( 1.000000000000000000, 0.000000000000000000, 0.000000000000000000, 0.000000000000000000, 0.000000000000000000, 0.000000000000000000, 0.000000000000000000 ) ;
#300 = PLANE ( 'NONE',  #124 ) ;
#301 = LINE ( 'NONE', #141, #165 ) ;
#302 = ADVANCED_FACE ( 'NONE', ( #100 ), #292, .T. ) ;
#303 = MECHANICAL_DESIGN_GEOMETRIC_PRESENTATION_REPRESENTATION (  '', ( #13 ), #271 ) ;
#304 = CIRCLE ( 'NONE', #287, 0.1875000000000000278 ) ;
#305 =( CONVERSION_BASED_UNIT ( 'INCH', #236 ) LENGTH_UNIT ( ) NAMED_UNIT ( #22 ) );
#306 =( CONVERSION_BASED_UNIT ( 'INCH', #214 ) LENGTH_UNIT ( ) NAMED_UNIT ( #137 ) );
#307 = DIRECTION ( 'NONE',  ( -2.721437331438560389E-17, 1.000000000000000000, -0.000000000000000000 ) ) ;
#308 = ORIENTED_EDGE ( 'NONE', *, *, #218, .F. ) ;
#309 =( NAMED_UNIT ( * ) PLANE_ANGLE_UNIT ( ) SI_UNIT ( $, .RADIAN. ) );
ENDSEC;
END-ISO-10303-21;
