ISO-10303-21;
HEADER;
FILE_DESCRIPTION (( 'STEP AP214' ),
    '1' );
FILE_NAME ('59789.STEP',
    '2023-07-24T15:39:57',
    ( '' ),
    ( '' ),
    'SwSTEP 2.0',
    'SolidWorks 2023',
    '' );
FILE_SCHEMA (( 'AUTOMOTIVE_DESIGN' ));
ENDSEC;

DATA;
#1 = DIRECTION ( 'NONE',  ( -1.252807796048505441E-16, 1.000000000000000000, -0.000000000000000000 ) ) ;
#2 =( NAMED_UNIT ( * ) SI_UNIT ( $, .STERADIAN. ) SOLID_ANGLE_UNIT ( ) );
#3 =( NAMED_UNIT ( * ) SI_UNIT ( $, .STERADIAN. ) SOLID_ANGLE_UNIT ( ) );
#4 = AXIS2_PLACEMENT_3D ( 'NONE', #120, #199, #312 ) ;
#5 = EDGE_CURVE ( 'NONE', #132, #71, #272, .T. ) ;
#6 =( NAMED_UNIT ( * ) PLANE_ANGLE_UNIT ( ) SI_UNIT ( $, .RADIAN. ) );
#7 = CARTESIAN_POINT ( 'NONE',  ( 1.224646799147353454E-15, 0.000000000000000000, 10.00000000000000178 ) ) ;
#8 = AXIS2_PLACEMENT_3D ( 'NONE', #141, #352, #35 ) ;
#9 = AXIS2_PLACEMENT_3D ( 'NONE', #246, #347, #320 ) ;
#10 = EDGE_LOOP ( 'NONE', ( #334, #278 ) ) ;
#11 = PRODUCT_DEFINITION_CONTEXT ( 'detailed design', #284, 'design' ) ;
#12 =( LENGTH_UNIT ( ) NAMED_UNIT ( * ) SI_UNIT ( .MILLI., .METRE. ) );
#13 = FACE_OUTER_BOUND ( 'NONE', #10, .T. ) ;
#14 = DIRECTION ( 'NONE',  ( 1.000000000000000000, 0.000000000000000000, 0.000000000000000000 ) ) ;
#15 = ORIENTED_EDGE ( 'NONE', *, *, #287, .F. ) ;
#16 = UNCERTAINTY_MEASURE_WITH_UNIT (LENGTH_MEASURE( 1.000000000000000082E-05 ), #154, 'distance_accuracy_value', 'NONE');
#17 = CIRCLE ( 'NONE', #322, 10.00000000000000000 ) ;
#18 = SURFACE_SIDE_STYLE ('',( #275 ) ) ;
#19 = CARTESIAN_POINT ( 'NONE',  ( 0.000000000000000000, 50.00000000000000000, 0.000000000000000000 ) ) ;
#20 = ORIENTED_EDGE ( 'NONE', *, *, #248, .T. ) ;
#21 =( NAMED_UNIT ( * ) PLANE_ANGLE_UNIT ( ) SI_UNIT ( $, .RADIAN. ) );
#22 =( NAMED_UNIT ( * ) SI_UNIT ( $, .STERADIAN. ) SOLID_ANGLE_UNIT ( ) );
#23 = STYLED_ITEM ( 'NONE', ( #339 ), #76 ) ;
#24 = AXIS2_PLACEMENT_3D ( 'NONE', #296, #306, #251 ) ;
#25 = ADVANCED_FACE ( 'NONE', ( #13 ), #40, .F. ) ;
#26 =( GEOMETRIC_REPRESENTATION_CONTEXT ( 3 ) GLOBAL_UNCERTAINTY_ASSIGNED_CONTEXT ( ( #298 ) ) GLOBAL_UNIT_ASSIGNED_CONTEXT ( ( #58, #81, #83 ) ) REPRESENTATION_CONTEXT ( 'NONE', 'WORKASPACE' ) );
#27 = AXIS2_PLACEMENT_3D ( 'NONE', #78, #55, #247 ) ;
#28 = SURFACE_STYLE_USAGE ( .BOTH. , #209 ) ;
#29 = PRESENTATION_LAYER_ASSIGNMENT (  '', '', ( #23 ) ) ;
#30 = MECHANICAL_DESIGN_GEOMETRIC_PRESENTATION_REPRESENTATION (  '', ( #65 ), #124 ) ;
#31 = CARTESIAN_POINT ( 'NONE',  ( 0.000000000000000000, 0.000000000000000000, 0.000000000000000000 ) ) ;
#32 =( LENGTH_UNIT ( ) NAMED_UNIT ( * ) SI_UNIT ( .MILLI., .METRE. ) );
#33 = UNCERTAINTY_MEASURE_WITH_UNIT (LENGTH_MEASURE( 1.000000000000000082E-05 ), #300, 'distance_accuracy_value', 'NONE');
#34 = ORIENTED_EDGE ( 'NONE', *, *, #205, .T. ) ;
#35 = DIRECTION ( 'NONE',  ( 0.000000000000000000, 0.000000000000000000, -1.000000000000000000 ) ) ;
#36 = CARTESIAN_POINT ( 'NONE',  ( -4.408728476930469278E-15, 124.9999999999999858, 0.000000000000000000 ) ) ;
#37 = DIRECTION ( 'NONE',  ( -0.000000000000000000, -1.000000000000000000, -0.000000000000000000 ) ) ;
#38 = ORIENTED_EDGE ( 'NONE', *, *, #197, .F. ) ;
#39 = PRESENTATION_STYLE_ASSIGNMENT (( #92 ) ) ;
#40 = PLANE ( 'NONE',  #87 ) ;
#41 = DIRECTION ( 'NONE',  ( 0.000000000000000000, 0.000000000000000000, -1.000000000000000000 ) ) ;
#42 = CARTESIAN_POINT ( 'NONE',  ( 4.987329993433320396E-15, 50.00000000000000000, 0.000000000000000000 ) ) ;
#43 = DIRECTION ( 'NONE',  ( -0.000000000000000000, -1.000000000000000000, -0.000000000000000000 ) ) ;
#44 = SURFACE_STYLE_USAGE ( .BOTH. , #75 ) ;
#45 = AXIS2_PLACEMENT_3D ( 'NONE', #148, #319, #126 ) ;
#46 = CARTESIAN_POINT ( 'NONE',  ( 10.00000000000000355, 50.00000000000000000, 1.224646799147353848E-15 ) ) ;
#47 = CIRCLE ( 'NONE', #174, 10.00000000000000178 ) ;
#48 = CARTESIAN_POINT ( 'NONE',  ( -4.408728476930469278E-15, 124.9999999999999858, 0.000000000000000000 ) ) ;
#49 = FACE_OUTER_BOUND ( 'NONE', #321, .T. ) ;
#50 = ADVANCED_FACE ( 'NONE', ( #105 ), #159, .T. ) ;
#51 = CARTESIAN_POINT ( 'NONE',  ( 0.000000000000000000, 50.00000000000000000, -10.00000000000000000 ) ) ;
#52 = SURFACE_SIDE_STYLE ('',( #170 ) ) ;
#53 =( GEOMETRIC_REPRESENTATION_CONTEXT ( 3 ) GLOBAL_UNCERTAINTY_ASSIGNED_CONTEXT ( ( #172 ) ) GLOBAL_UNIT_ASSIGNED_CONTEXT ( ( #175, #91, #3 ) ) REPRESENTATION_CONTEXT ( 'NONE', 'WORKASPACE' ) );
#54 = CARTESIAN_POINT ( 'NONE',  ( 10.00000000000000000, 124.9999999999999858, 0.000000000000000000 ) ) ;
#55 = DIRECTION ( 'NONE',  ( -0.000000000000000000, -1.000000000000000000, -0.000000000000000000 ) ) ;
#56 = ADVANCED_FACE ( 'NONE', ( #163 ), #361, .T. ) ;
#57 =( NAMED_UNIT ( * ) PLANE_ANGLE_UNIT ( ) SI_UNIT ( $, .RADIAN. ) );
#58 =( LENGTH_UNIT ( ) NAMED_UNIT ( * ) SI_UNIT ( .MILLI., .METRE. ) );
#59 = LINE ( 'NONE', #178, #185 ) ;
#60 = UNCERTAINTY_MEASURE_WITH_UNIT (LENGTH_MEASURE( 1.000000000000000082E-05 ), #32, 'distance_accuracy_value', 'NONE');
#61 = DIRECTION ( 'NONE',  ( -1.000000000000000000, 0.000000000000000000, 0.000000000000000000 ) ) ;
#62 = AXIS2_PLACEMENT_3D ( 'NONE', #85, #200, #314 ) ;
#63 = FILL_AREA_STYLE_COLOUR ( '', #309 ) ;
#64 = EDGE_CURVE ( 'NONE', #129, #297, #289, .T. ) ;
#65 = STYLED_ITEM ( 'NONE', ( #250 ), #270 ) ;
#66 =( LENGTH_UNIT ( ) NAMED_UNIT ( * ) SI_UNIT ( .MILLI., .METRE. ) );
#67 = MANIFOLD_SOLID_BREP ( 'Revolve - Tool Body (Straight Shanked)', #171 ) ;
#68 = MANIFOLD_SOLID_BREP ( 'Revolve - Cutting Edge', #207 ) ;
#69 = ORIENTED_EDGE ( 'NONE', *, *, #64, .F. ) ;
#70 = DIRECTION ( 'NONE',  ( 0.000000000000000000, 0.000000000000000000, 1.000000000000000000 ) ) ;
#71 = VERTEX_POINT ( 'NONE', #116 ) ;
#72 = SURFACE_STYLE_FILL_AREA ( #146 ) ;
#73 = ORIENTED_EDGE ( 'NONE', *, *, #84, .F. ) ;
#74 = ORIENTED_EDGE ( 'NONE', *, *, #142, .F. ) ;
#75 = SURFACE_SIDE_STYLE ('',( #115 ) ) ;
#76 = ADVANCED_FACE ( 'NONE', ( #369 ), #311, .T. ) ;
#77 = FACE_OUTER_BOUND ( 'NONE', #151, .T. ) ;
#78 = CARTESIAN_POINT ( 'NONE',  ( 0.000000000000000000, 0.000000000000000000, 0.000000000000000000 ) ) ;
#79 = PRODUCT_RELATED_PRODUCT_CATEGORY ( 'part', '', ( #121 ) ) ;
#80 = AXIS2_PLACEMENT_3D ( 'NONE', #288, #228, #221 ) ;
#81 =( NAMED_UNIT ( * ) PLANE_ANGLE_UNIT ( ) SI_UNIT ( $, .RADIAN. ) );
#82 = CARTESIAN_POINT ( 'NONE',  ( 0.000000000000000000, 0.000000000000000000, 0.000000000000000000 ) ) ;
#83 =( NAMED_UNIT ( * ) SI_UNIT ( $, .STERADIAN. ) SOLID_ANGLE_UNIT ( ) );
#84 = EDGE_CURVE ( 'NONE', #249, #129, #157, .T. ) ;
#85 = CARTESIAN_POINT ( 'NONE',  ( 4.987329993433318819E-15, 50.00000000000000000, 0.000000000000000000 ) ) ;
#86 =( LENGTH_UNIT ( ) NAMED_UNIT ( * ) SI_UNIT ( .MILLI., .METRE. ) );
#87 = AXIS2_PLACEMENT_3D ( 'NONE', #42, #222, #187 ) ;
#88 = FILL_AREA_STYLE ('',( #63 ) ) ;
#89 = PRESENTATION_STYLE_ASSIGNMENT (( #28 ) ) ;
#90 = EDGE_CURVE ( 'NONE', #71, #133, #280, .T. ) ;
#91 =( NAMED_UNIT ( * ) PLANE_ANGLE_UNIT ( ) SI_UNIT ( $, .RADIAN. ) );
#92 = SURFACE_STYLE_USAGE ( .BOTH. , #186 ) ;
#93 = SURFACE_STYLE_FILL_AREA ( #329 ) ;
#94 = MECHANICAL_DESIGN_GEOMETRIC_PRESENTATION_REPRESENTATION (  '', ( #152 ), #345 ) ;
#95 = COLOUR_RGB ( '',0.7921568627450980005, 0.8196078431372548767, 0.9333333333333333481 ) ;
#96 = AXIS2_PLACEMENT_3D ( 'NONE', #366, #112, #224 ) ;
#97 = CARTESIAN_POINT ( 'NONE',  ( 9.999999999999994671, 124.9999999999999858, 1.224646799147353256E-15 ) ) ;
#98 =( NAMED_UNIT ( * ) PLANE_ANGLE_UNIT ( ) SI_UNIT ( $, .RADIAN. ) );
#99 = DIRECTION ( 'NONE',  ( -0.000000000000000000, -1.000000000000000000, -0.000000000000000000 ) ) ;
#100 = ORIENTED_EDGE ( 'NONE', *, *, #232, .F. ) ;
#101 = CARTESIAN_POINT ( 'NONE',  ( 10.00000000000000000, 124.9999999999999858, 1.224646799147353454E-15 ) ) ;
#102 = FILL_AREA_STYLE_COLOUR ( '', #136 ) ;
#103 = STYLED_ITEM ( 'NONE', ( #336 ), #68 ) ;
#104 = VERTEX_POINT ( 'NONE', #273 ) ;
#105 = FACE_OUTER_BOUND ( 'NONE', #305, .T. ) ;
#106 = FILL_AREA_STYLE_COLOUR ( '', #292 ) ;
#107 = CARTESIAN_POINT ( 'NONE',  ( -10.00000000000001066, 124.9999999999999858, 0.000000000000000000 ) ) ;
#108 = AXIS2_PLACEMENT_3D ( 'NONE', #19, #43, #41 ) ;
#109 = AXIS2_PLACEMENT_3D ( 'NONE', #363, #111, #332 ) ;
#110 = VERTEX_POINT ( 'NONE', #149 ) ;
#111 = DIRECTION ( 'NONE',  ( -0.000000000000000000, -1.000000000000000000, -0.000000000000000000 ) ) ;
#112 = DIRECTION ( 'NONE',  ( -1.000000000000000000, 0.000000000000000000, 0.000000000000000000 ) ) ;
#113 = DIRECTION ( 'NONE',  ( 0.000000000000000000, 0.000000000000000000, -1.000000000000000000 ) ) ;
#114 = ORIENTED_EDGE ( 'NONE', *, *, #215, .T. ) ;
#115 = SURFACE_STYLE_FILL_AREA ( #253 ) ;
#116 = CARTESIAN_POINT ( 'NONE',  ( 1.224646799147353256E-15, 1.000000000000000000, 10.00000000000000178 ) ) ;
#117 = EDGE_CURVE ( 'NONE', #368, #132, #17, .T. ) ;
#118 = CARTESIAN_POINT ( 'NONE',  ( 0.000000000000000000, 0.000000000000000000, -10.00000000000000178 ) ) ;
#119 = MECHANICAL_DESIGN_GEOMETRIC_PRESENTATION_REPRESENTATION (  '', ( #23 ), #176 ) ;
#120 = CARTESIAN_POINT ( 'NONE',  ( 0.000000000000000000, 1.000000000000000000, 0.000000000000000000 ) ) ;
#121 = PRODUCT ( '59789', '59789', '', ( #206 ) ) ;
#122 = ORIENTED_EDGE ( 'NONE', *, *, #349, .T. ) ;
#123 = AXIS2_PLACEMENT_3D ( 'NONE', #183, #37, #155 ) ;
#124 =( GEOMETRIC_REPRESENTATION_CONTEXT ( 3 ) GLOBAL_UNCERTAINTY_ASSIGNED_CONTEXT ( ( #33 ) ) GLOBAL_UNIT_ASSIGNED_CONTEXT ( ( #300, #57, #22 ) ) REPRESENTATION_CONTEXT ( 'NONE', 'WORKASPACE' ) );
#125 = ORIENTED_EDGE ( 'NONE', *, *, #242, .T. ) ;
#126 = DIRECTION ( 'NONE',  ( 0.000000000000000000, 0.000000000000000000, -1.000000000000000000 ) ) ;
#127 = DIRECTION ( 'NONE',  ( -1.252807796048505441E-16, 1.000000000000000000, -0.000000000000000000 ) ) ;
#128 = UNCERTAINTY_MEASURE_WITH_UNIT (LENGTH_MEASURE( 1.000000000000000082E-05 ), #66, 'distance_accuracy_value', 'NONE');
#129 = VERTEX_POINT ( 'NONE', #101 ) ;
#130 = DIRECTION ( 'NONE',  ( -0.000000000000000000, -1.000000000000000000, -0.000000000000000000 ) ) ;
#131 = FILL_AREA_STYLE ('',( #134 ) ) ;
#132 = VERTEX_POINT ( 'NONE', #179 ) ;
#133 = VERTEX_POINT ( 'NONE', #235 ) ;
#134 = FILL_AREA_STYLE_COLOUR ( '', #310 ) ;
#135 = AXIS2_PLACEMENT_3D ( 'NONE', #82, #337, #113 ) ;
#136 = COLOUR_RGB ( '',1.000000000000000000, 0.000000000000000000, 0.000000000000000000 ) ;
#137 = PRODUCT_DEFINITION_SHAPE ( 'NONE', 'NONE',  #230 ) ;
#138 = ORIENTED_EDGE ( 'NONE', *, *, #215, .F. ) ;
#139 = AXIS2_PLACEMENT_3D ( 'NONE', #219, #99, #316 ) ;
#140 = ADVANCED_FACE ( 'NONE', ( #244 ), #238, .T. ) ;
#141 = CARTESIAN_POINT ( 'NONE',  ( 0.000000000000000000, 0.000000000000000000, 0.000000000000000000 ) ) ;
#142 = EDGE_CURVE ( 'NONE', #263, #71, #346, .T. ) ;
#143 = COLOUR_RGB ( '',1.000000000000000000, 0.000000000000000000, 0.000000000000000000 ) ;
#144 =( GEOMETRIC_REPRESENTATION_CONTEXT ( 3 ) GLOBAL_UNCERTAINTY_ASSIGNED_CONTEXT ( ( #128 ) ) GLOBAL_UNIT_ASSIGNED_CONTEXT ( ( #66, #6, #258 ) ) REPRESENTATION_CONTEXT ( 'NONE', 'WORKASPACE' ) );
#145 = FILL_AREA_STYLE_COLOUR ( '', #167 ) ;
#146 = FILL_AREA_STYLE ('',( #102 ) ) ;
#147 = ORIENTED_EDGE ( 'NONE', *, *, #205, .F. ) ;
#148 = CARTESIAN_POINT ( 'NONE',  ( 0.000000000000000000, 0.000000000000000000, 0.000000000000000000 ) ) ;
#149 = CARTESIAN_POINT ( 'NONE',  ( -9.999999999999991118, 50.00000000000000000, 0.000000000000000000 ) ) ;
#150 =( NAMED_UNIT ( * ) PLANE_ANGLE_UNIT ( ) SI_UNIT ( $, .RADIAN. ) );
#151 = EDGE_LOOP ( 'NONE', ( #20, #162 ) ) ;
#152 = STYLED_ITEM ( 'NONE', ( #156 ), #50 ) ;
#153 = PRESENTATION_LAYER_ASSIGNMENT (  '', '', ( #103 ) ) ;
#154 =( LENGTH_UNIT ( ) NAMED_UNIT ( * ) SI_UNIT ( .MILLI., .METRE. ) );
#155 = DIRECTION ( 'NONE',  ( 0.000000000000000000, 0.000000000000000000, -1.000000000000000000 ) ) ;
#156 = PRESENTATION_STYLE_ASSIGNMENT (( #291 ) ) ;
#157 = LINE ( 'NONE', #97, #218 ) ;
#158 = FACE_OUTER_BOUND ( 'NONE', #354, .T. ) ;
#159 = CYLINDRICAL_SURFACE ( 'NONE', #135, 10.00000000000000178 ) ;
#160 = MECHANICAL_DESIGN_GEOMETRIC_PRESENTATION_REPRESENTATION (  '', ( #173 ), #286 ) ;
#161 = CIRCLE ( 'NONE', #27, 9.000000000000001776 ) ;
#162 = ORIENTED_EDGE ( 'NONE', *, *, #64, .T. ) ;
#163 = FACE_OUTER_BOUND ( 'NONE', #220, .T. ) ;
#164 =( LENGTH_UNIT ( ) NAMED_UNIT ( * ) SI_UNIT ( .MILLI., .METRE. ) );
#165 = SURFACE_STYLE_USAGE ( .BOTH. , #52 ) ;
#166 = STYLED_ITEM ( 'NONE', ( #89 ), #56 ) ;
#167 = COLOUR_RGB ( '',1.000000000000000000, 0.000000000000000000, 0.000000000000000000 ) ;
#168 = DIRECTION ( 'NONE',  ( 1.000000000000000000, 1.252807796048505441E-16, 0.000000000000000000 ) ) ;
#169 = CARTESIAN_POINT ( 'NONE',  ( 0.000000000000000000, 1.000000000000000000, -10.00000000000000178 ) ) ;
#170 = SURFACE_STYLE_FILL_AREA ( #364 ) ;
#171 = CLOSED_SHELL ( 'NONE', ( #326, #25, #344, #281 ) ) ;
#172 = UNCERTAINTY_MEASURE_WITH_UNIT (LENGTH_MEASURE( 1.000000000000000082E-05 ), #175, 'distance_accuracy_value', 'NONE');
#173 = STYLED_ITEM ( 'NONE', ( #355 ), #140 ) ;
#174 = AXIS2_PLACEMENT_3D ( 'NONE', #194, #193, #254 ) ;
#175 =( LENGTH_UNIT ( ) NAMED_UNIT ( * ) SI_UNIT ( .MILLI., .METRE. ) );
#176 =( GEOMETRIC_REPRESENTATION_CONTEXT ( 3 ) GLOBAL_UNCERTAINTY_ASSIGNED_CONTEXT ( ( #285 ) ) GLOBAL_UNIT_ASSIGNED_CONTEXT ( ( #86, #202, #2 ) ) REPRESENTATION_CONTEXT ( 'NONE', 'WORKASPACE' ) );
#177 = AXIS2_PLACEMENT_3D ( 'NONE', #54, #195, #168 ) ;
#178 = CARTESIAN_POINT ( 'NONE',  ( -10.00000000000000533, 124.9999999999999858, 0.000000000000000000 ) ) ;
#179 = CARTESIAN_POINT ( 'NONE',  ( 1.224646799147353256E-15, 50.00000000000000000, 10.00000000000000000 ) ) ;
#180 = ORIENTED_EDGE ( 'NONE', *, *, #90, .T. ) ;
#181 = CARTESIAN_POINT ( 'NONE',  ( 0.000000000000000000, 50.00000000000000000, 0.000000000000000000 ) ) ;
#182 = APPLICATION_PROTOCOL_DEFINITION ( 'draft international standard', 'automotive_design', 1998, #367 ) ;
#183 = CARTESIAN_POINT ( 'NONE',  ( 0.000000000000000000, 1.000000000000000000, 0.000000000000000000 ) ) ;
#184 = ORIENTED_EDGE ( 'NONE', *, *, #197, .T. ) ;
#185 = VECTOR ( 'NONE', #290, 1000.000000000000000 ) ;
#186 = SURFACE_SIDE_STYLE ('',( #72 ) ) ;
#187 = DIRECTION ( 'NONE',  ( -1.000000000000000000, -1.252807796048505441E-16, 0.000000000000000000 ) ) ;
#188 = ADVANCED_FACE ( 'NONE', ( #212 ), #210, .T. ) ;
#189 = DIRECTION ( 'NONE',  ( -1.252807796048505441E-16, 1.000000000000000000, -0.000000000000000000 ) ) ;
#190 = EDGE_LOOP ( 'NONE', ( #73, #360, #184, #69 ) ) ;
#191 = ORIENTED_EDGE ( 'NONE', *, *, #90, .F. ) ;
#192 = SURFACE_STYLE_USAGE ( .BOTH. , #328 ) ;
#193 = DIRECTION ( 'NONE',  ( -0.000000000000000000, -1.000000000000000000, -0.000000000000000000 ) ) ;
#194 = CARTESIAN_POINT ( 'NONE',  ( 0.000000000000000000, 1.000000000000000000, 0.000000000000000000 ) ) ;
#195 = DIRECTION ( 'NONE',  ( 1.252807796048505441E-16, -1.000000000000000000, 0.000000000000000000 ) ) ;
#196 = PRESENTATION_LAYER_ASSIGNMENT (  '', '', ( #356 ) ) ;
#197 = EDGE_CURVE ( 'NONE', #110, #297, #59, .T. ) ;
#198 = UNCERTAINTY_MEASURE_WITH_UNIT (LENGTH_MEASURE( 1.000000000000000082E-05 ), #164, 'distance_accuracy_value', 'NONE');
#199 = DIRECTION ( 'NONE',  ( -0.000000000000000000, -1.000000000000000000, -0.000000000000000000 ) ) ;
#200 = DIRECTION ( 'NONE',  ( -1.252807796048505441E-16, 1.000000000000000000, -0.000000000000000000 ) ) ;
#201 =( GEOMETRIC_REPRESENTATION_CONTEXT ( 3 ) GLOBAL_UNCERTAINTY_ASSIGNED_CONTEXT ( ( #198 ) ) GLOBAL_UNIT_ASSIGNED_CONTEXT ( ( #164, #21, #365 ) ) REPRESENTATION_CONTEXT ( 'NONE', 'WORKASPACE' ) );
#202 =( NAMED_UNIT ( * ) PLANE_ANGLE_UNIT ( ) SI_UNIT ( $, .RADIAN. ) );
#203 = PRESENTATION_LAYER_ASSIGNMENT (  '', '', ( #65 ) ) ;
#204 = SURFACE_STYLE_FILL_AREA ( #88 ) ;
#205 = EDGE_CURVE ( 'NONE', #104, #133, #208, .T. ) ;
#206 = PRODUCT_CONTEXT ( 'NONE', #367, 'mechanical' ) ;
#207 = CLOSED_SHELL ( 'NONE', ( #50, #56, #188, #270, #140, #76 ) ) ;
#208 = CIRCLE ( 'NONE', #45, 9.000000000000001776 ) ;
#209 = SURFACE_SIDE_STYLE ('',( #93 ) ) ;
#210 = PLANE ( 'NONE',  #8 ) ;
#211 = SURFACE_STYLE_FILL_AREA ( #264 ) ;
#212 = FACE_OUTER_BOUND ( 'NONE', #348, .T. ) ;
#213 = EDGE_LOOP ( 'NONE', ( #359, #323, #114, #325 ) ) ;
#214 = DIRECTION ( 'NONE',  ( -1.224646799147353454E-16, 0.000000000000000000, -1.000000000000000000 ) ) ;
#215 = EDGE_CURVE ( 'NONE', #368, #263, #236, .T. ) ;
#216 = PRESENTATION_LAYER_ASSIGNMENT (  '', '', ( #166 ) ) ;
#217 = ORIENTED_EDGE ( 'NONE', *, *, #117, .F. ) ;
#218 = VECTOR ( 'NONE', #127, 1000.000000000000000 ) ;
#219 = CARTESIAN_POINT ( 'NONE',  ( 0.000000000000000000, 0.000000000000000000, 0.000000000000000000 ) ) ;
#220 = EDGE_LOOP ( 'NONE', ( #239, #180, #147, #15 ) ) ;
#221 = DIRECTION ( 'NONE',  ( 0.000000000000000000, -0.000000000000000000, 1.000000000000000000 ) ) ;
#222 = DIRECTION ( 'NONE',  ( -1.252807796048505441E-16, 1.000000000000000000, 0.000000000000000000 ) ) ;
#223 = MECHANICAL_DESIGN_GEOMETRIC_PRESENTATION_REPRESENTATION (  '', ( #103 ), #26 ) ;
#224 = DIRECTION ( 'NONE',  ( 0.000000000000000000, 0.000000000000000000, 1.000000000000000000 ) ) ;
#225 = EDGE_CURVE ( 'NONE', #249, #110, #304, .T. ) ;
#226 = PRESENTATION_LAYER_ASSIGNMENT (  '', '', ( #293 ) ) ;
#227 = TOROIDAL_SURFACE ( 'NONE', #109, 9.000000000000001776, 1.000000000000000444 ) ;
#228 = DIRECTION ( 'NONE',  ( 0.000000000000000000, 1.000000000000000000, 0.000000000000000000 ) ) ;
#229 = DIRECTION ( 'NONE',  ( -1.000000000000000000, 0.000000000000000000, 0.000000000000000000 ) ) ;
#230 = PRODUCT_DEFINITION ( 'UNKNOWN', '', #257, #11 ) ;
#231 = SURFACE_SIDE_STYLE ('',( #204 ) ) ;
#232 = EDGE_CURVE ( 'NONE', #132, #368, #266, .T. ) ;
#233 =( NAMED_UNIT ( * ) SI_UNIT ( $, .STERADIAN. ) SOLID_ANGLE_UNIT ( ) );
#234 = DIRECTION ( 'NONE',  ( -0.000000000000000000, -1.000000000000000000, -0.000000000000000000 ) ) ;
#235 = CARTESIAN_POINT ( 'NONE',  ( 1.163414459189985682E-15, 0.000000000000000000, 9.000000000000001776 ) ) ;
#236 = LINE ( 'NONE', #118, #256 ) ;
#237 = UNCERTAINTY_MEASURE_WITH_UNIT (LENGTH_MEASURE( 1.000000000000000082E-05 ), #12, 'distance_accuracy_value', 'NONE');
#238 = CYLINDRICAL_SURFACE ( 'NONE', #139, 10.00000000000000178 ) ;
#239 = ORIENTED_EDGE ( 'NONE', *, *, #142, .T. ) ;
#240 = DIRECTION ( 'NONE',  ( 1.000000000000000000, 0.000000000000000000, -1.224646799147353207E-16 ) ) ;
#241 = CYLINDRICAL_SURFACE ( 'NONE', #277, 10.00000000000000000 ) ;
#242 = EDGE_CURVE ( 'NONE', #110, #249, #313, .T. ) ;
#243 = EDGE_LOOP ( 'NONE', ( #217, #100 ) ) ;
#244 = FACE_OUTER_BOUND ( 'NONE', #213, .T. ) ;
#245 = CYLINDRICAL_SURFACE ( 'NONE', #24, 10.00000000000000000 ) ;
#246 = CARTESIAN_POINT ( 'NONE',  ( 4.987329993433318819E-15, 50.00000000000000000, 0.000000000000000000 ) ) ;
#247 = DIRECTION ( 'NONE',  ( 0.000000000000000000, 0.000000000000000000, -1.000000000000000000 ) ) ;
#248 = EDGE_CURVE ( 'NONE', #297, #129, #335, .T. ) ;
#249 = VERTEX_POINT ( 'NONE', #46 ) ;
#250 = PRESENTATION_STYLE_ASSIGNMENT (( #192 ) ) ;
#251 = DIRECTION ( 'NONE',  ( -1.000000000000000000, 0.000000000000000000, 0.000000000000000000 ) ) ;
#252 =( NAMED_UNIT ( * ) SI_UNIT ( $, .STERADIAN. ) SOLID_ANGLE_UNIT ( ) );
#253 = FILL_AREA_STYLE ('',( #283 ) ) ;
#254 = DIRECTION ( 'NONE',  ( 0.000000000000000000, 0.000000000000000000, -1.000000000000000000 ) ) ;
#255 = ORIENTED_EDGE ( 'NONE', *, *, #84, .T. ) ;
#256 = VECTOR ( 'NONE', #338, 1000.000000000000000 ) ;
#257 = PRODUCT_DEFINITION_FORMATION_WITH_SPECIFIED_SOURCE ( 'ANY', '', #121, .NOT_KNOWN. ) ;
#258 =( NAMED_UNIT ( * ) SI_UNIT ( $, .STERADIAN. ) SOLID_ANGLE_UNIT ( ) );
#259 = PRESENTATION_LAYER_ASSIGNMENT (  '', '', ( #152 ) ) ;
#260 = AXIS2_PLACEMENT_3D ( 'NONE', #269, #240, #214 ) ;
#261 = EDGE_CURVE ( 'NONE', #133, #104, #161, .T. ) ;
#262 = SURFACE_STYLE_USAGE ( .BOTH. , #350 ) ;
#263 = VERTEX_POINT ( 'NONE', #169 ) ;
#264 = FILL_AREA_STYLE ('',( #145 ) ) ;
#265 = VECTOR ( 'NONE', #234, 1000.000000000000000 ) ;
#266 = CIRCLE ( 'NONE', #108, 10.00000000000000000 ) ;
#267 = AXIS2_PLACEMENT_3D ( 'NONE', #31, #70, #14 ) ;
#268 = ORIENTED_EDGE ( 'NONE', *, *, #261, .F. ) ;
#269 = CARTESIAN_POINT ( 'NONE',  ( 1.102182119232617911E-15, 1.000000000000000000, 9.000000000000001776 ) ) ;
#270 = ADVANCED_FACE ( 'NONE', ( #158 ), #227, .T. ) ;
#271 =( NAMED_UNIT ( * ) PLANE_ANGLE_UNIT ( ) SI_UNIT ( $, .RADIAN. ) );
#272 = LINE ( 'NONE', #7, #265 ) ;
#273 = CARTESIAN_POINT ( 'NONE',  ( 0.000000000000000000, 0.000000000000000000, -9.000000000000001776 ) ) ;
#274 = SHAPE_DEFINITION_REPRESENTATION ( #137, #302 ) ;
#275 = SURFACE_STYLE_FILL_AREA ( #327 ) ;
#276 = AXIS2_PLACEMENT_3D ( 'NONE', #48, #1, #229 ) ;
#277 = AXIS2_PLACEMENT_3D ( 'NONE', #324, #189, #61 ) ;
#278 = ORIENTED_EDGE ( 'NONE', *, *, #225, .F. ) ;
#279 = DIRECTION ( 'NONE',  ( -1.252807796048505441E-16, 1.000000000000000000, -0.000000000000000000 ) ) ;
#280 = CIRCLE ( 'NONE', #260, 1.000000000000000888 ) ;
#281 = ADVANCED_FACE ( 'NONE', ( #77 ), #307, .F. ) ;
#282 = PRESENTATION_STYLE_ASSIGNMENT (( #315 ) ) ;
#283 = FILL_AREA_STYLE_COLOUR ( '', #95 ) ;
#284 = APPLICATION_CONTEXT ( 'automotive_design' ) ;
#285 = UNCERTAINTY_MEASURE_WITH_UNIT (LENGTH_MEASURE( 1.000000000000000082E-05 ), #86, 'distance_accuracy_value', 'NONE');
#286 =( GEOMETRIC_REPRESENTATION_CONTEXT ( 3 ) GLOBAL_UNCERTAINTY_ASSIGNED_CONTEXT ( ( #237 ) ) GLOBAL_UNIT_ASSIGNED_CONTEXT ( ( #12, #271, #233 ) ) REPRESENTATION_CONTEXT ( 'NONE', 'WORKASPACE' ) );
#287 = EDGE_CURVE ( 'NONE', #263, #104, #331, .T. ) ;
#288 = CARTESIAN_POINT ( 'NONE',  ( 0.000000000000000000, 50.00000000000000000, 0.000000000000000000 ) ) ;
#289 = CIRCLE ( 'NONE', #276, 10.00000000000000533 ) ;
#290 = DIRECTION ( 'NONE',  ( -1.252807796048505441E-16, 1.000000000000000000, -0.000000000000000000 ) ) ;
#291 = SURFACE_STYLE_USAGE ( .BOTH. , #18 ) ;
#292 = COLOUR_RGB ( '',1.000000000000000000, 0.000000000000000000, 0.000000000000000000 ) ;
#293 = STYLED_ITEM ( 'NONE', ( #282 ), #67 ) ;
#294 =( NAMED_UNIT ( * ) SI_UNIT ( $, .STERADIAN. ) SOLID_ANGLE_UNIT ( ) );
#295 = FILL_AREA_STYLE_COLOUR ( '', #301 ) ;
#296 = CARTESIAN_POINT ( 'NONE',  ( -4.408728476930469278E-15, 124.9999999999999858, 0.000000000000000000 ) ) ;
#297 = VERTEX_POINT ( 'NONE', #107 ) ;
#298 = UNCERTAINTY_MEASURE_WITH_UNIT (LENGTH_MEASURE( 1.000000000000000082E-05 ), #58, 'distance_accuracy_value', 'NONE');
#299 = ORIENTED_EDGE ( 'NONE', *, *, #287, .T. ) ;
#300 =( LENGTH_UNIT ( ) NAMED_UNIT ( * ) SI_UNIT ( .MILLI., .METRE. ) );
#301 = COLOUR_RGB ( '',1.000000000000000000, 0.000000000000000000, 0.000000000000000000 ) ;
#302 = ADVANCED_BREP_SHAPE_REPRESENTATION ( '59789', ( #68, #67, #267 ), #144 ) ;
#303 = ORIENTED_EDGE ( 'NONE', *, *, #261, .T. ) ;
#304 = CIRCLE ( 'NONE', #62, 9.999999999999996447 ) ;
#305 = EDGE_LOOP ( 'NONE', ( #357, #351, #74, #138 ) ) ;
#306 = DIRECTION ( 'NONE',  ( -1.252807796048505441E-16, 1.000000000000000000, -0.000000000000000000 ) ) ;
#307 = PLANE ( 'NONE',  #177 ) ;
#308 = FILL_AREA_STYLE_COLOUR ( '', #143 ) ;
#309 = COLOUR_RGB ( '',0.7921568627450980005, 0.8196078431372548767, 0.9333333333333333481 ) ;
#310 = COLOUR_RGB ( '',1.000000000000000000, 0.000000000000000000, 0.000000000000000000 ) ;
#311 = PLANE ( 'NONE',  #80 ) ;
#312 = DIRECTION ( 'NONE',  ( 0.000000000000000000, 0.000000000000000000, -1.000000000000000000 ) ) ;
#313 = CIRCLE ( 'NONE', #9, 9.999999999999996447 ) ;
#314 = DIRECTION ( 'NONE',  ( -1.000000000000000000, 0.000000000000000000, 0.000000000000000000 ) ) ;
#315 = SURFACE_STYLE_USAGE ( .BOTH. , #231 ) ;
#316 = DIRECTION ( 'NONE',  ( 0.000000000000000000, 0.000000000000000000, -1.000000000000000000 ) ) ;
#317 = AXIS2_PLACEMENT_3D ( 'NONE', #36, #279, #333 ) ;
#318 = ORIENTED_EDGE ( 'NONE', *, *, #248, .F. ) ;
#319 = DIRECTION ( 'NONE',  ( -0.000000000000000000, -1.000000000000000000, -0.000000000000000000 ) ) ;
#320 = DIRECTION ( 'NONE',  ( -1.000000000000000000, 0.000000000000000000, 0.000000000000000000 ) ) ;
#321 = EDGE_LOOP ( 'NONE', ( #125, #255, #318, #38 ) ) ;
#322 = AXIS2_PLACEMENT_3D ( 'NONE', #181, #130, #353 ) ;
#323 = ORIENTED_EDGE ( 'NONE', *, *, #232, .T. ) ;
#324 = CARTESIAN_POINT ( 'NONE',  ( -4.408728476930469278E-15, 124.9999999999999858, 0.000000000000000000 ) ) ;
#325 = ORIENTED_EDGE ( 'NONE', *, *, #349, .F. ) ;
#326 = ADVANCED_FACE ( 'NONE', ( #49 ), #245, .T. ) ;
#327 = FILL_AREA_STYLE ('',( #295 ) ) ;
#328 = SURFACE_SIDE_STYLE ('',( #358 ) ) ;
#329 = FILL_AREA_STYLE ('',( #106 ) ) ;
#330 = MECHANICAL_DESIGN_GEOMETRIC_PRESENTATION_REPRESENTATION (  '', ( #356 ), #370 ) ;
#331 = CIRCLE ( 'NONE', #96, 1.000000000000000888 ) ;
#332 = DIRECTION ( 'NONE',  ( 0.000000000000000000, 0.000000000000000000, -1.000000000000000000 ) ) ;
#333 = DIRECTION ( 'NONE',  ( -1.000000000000000000, 0.000000000000000000, 0.000000000000000000 ) ) ;
#334 = ORIENTED_EDGE ( 'NONE', *, *, #242, .F. ) ;
#335 = CIRCLE ( 'NONE', #317, 10.00000000000000533 ) ;
#336 = PRESENTATION_STYLE_ASSIGNMENT (( #44 ) ) ;
#337 = DIRECTION ( 'NONE',  ( -0.000000000000000000, -1.000000000000000000, -0.000000000000000000 ) ) ;
#338 = DIRECTION ( 'NONE',  ( -0.000000000000000000, -1.000000000000000000, -0.000000000000000000 ) ) ;
#339 = PRESENTATION_STYLE_ASSIGNMENT (( #165 ) ) ;
#340 = APPLICATION_PROTOCOL_DEFINITION ( 'draft international standard', 'automotive_design', 1998, #284 ) ;
#341 = MECHANICAL_DESIGN_GEOMETRIC_PRESENTATION_REPRESENTATION (  '', ( #166 ), #53 ) ;
#342 = MECHANICAL_DESIGN_GEOMETRIC_PRESENTATION_REPRESENTATION (  '', ( #293 ), #201 ) ;
#343 = PRESENTATION_LAYER_ASSIGNMENT (  '', '', ( #173 ) ) ;
#344 = ADVANCED_FACE ( 'NONE', ( #362 ), #241, .T. ) ;
#345 =( GEOMETRIC_REPRESENTATION_CONTEXT ( 3 ) GLOBAL_UNCERTAINTY_ASSIGNED_CONTEXT ( ( #16 ) ) GLOBAL_UNIT_ASSIGNED_CONTEXT ( ( #154, #98, #252 ) ) REPRESENTATION_CONTEXT ( 'NONE', 'WORKASPACE' ) );
#346 = CIRCLE ( 'NONE', #123, 10.00000000000000178 ) ;
#347 = DIRECTION ( 'NONE',  ( -1.252807796048505441E-16, 1.000000000000000000, -0.000000000000000000 ) ) ;
#348 = EDGE_LOOP ( 'NONE', ( #34, #303 ) ) ;
#349 = EDGE_CURVE ( 'NONE', #71, #263, #47, .T. ) ;
#350 = SURFACE_SIDE_STYLE ('',( #211 ) ) ;
#351 = ORIENTED_EDGE ( 'NONE', *, *, #5, .T. ) ;
#352 = DIRECTION ( 'NONE',  ( 0.000000000000000000, -1.000000000000000000, -0.000000000000000000 ) ) ;
#353 = DIRECTION ( 'NONE',  ( 0.000000000000000000, 0.000000000000000000, -1.000000000000000000 ) ) ;
#354 = EDGE_LOOP ( 'NONE', ( #191, #122, #299, #268 ) ) ;
#355 = PRESENTATION_STYLE_ASSIGNMENT (( #262 ) ) ;
#356 = STYLED_ITEM ( 'NONE', ( #39 ), #188 ) ;
#357 = ORIENTED_EDGE ( 'NONE', *, *, #117, .T. ) ;
#358 = SURFACE_STYLE_FILL_AREA ( #131 ) ;
#359 = ORIENTED_EDGE ( 'NONE', *, *, #5, .F. ) ;
#360 = ORIENTED_EDGE ( 'NONE', *, *, #225, .T. ) ;
#361 = TOROIDAL_SURFACE ( 'NONE', #4, 9.000000000000001776, 1.000000000000000444 ) ;
#362 = FACE_OUTER_BOUND ( 'NONE', #190, .T. ) ;
#363 = CARTESIAN_POINT ( 'NONE',  ( 0.000000000000000000, 1.000000000000000000, 0.000000000000000000 ) ) ;
#364 = FILL_AREA_STYLE ('',( #308 ) ) ;
#365 =( NAMED_UNIT ( * ) SI_UNIT ( $, .STERADIAN. ) SOLID_ANGLE_UNIT ( ) );
#366 = CARTESIAN_POINT ( 'NONE',  ( 0.000000000000000000, 1.000000000000000000, -9.000000000000001776 ) ) ;
#367 = APPLICATION_CONTEXT ( 'automotive_design' ) ;
#368 = VERTEX_POINT ( 'NONE', #51 ) ;
#369 = FACE_OUTER_BOUND ( 'NONE', #243, .T. ) ;
#370 =( GEOMETRIC_REPRESENTATION_CONTEXT ( 3 ) GLOBAL_UNCERTAINTY_ASSIGNED_CONTEXT ( ( #60 ) ) GLOBAL_UNIT_ASSIGNED_CONTEXT ( ( #32, #150, #294 ) ) REPRESENTATION_CONTEXT ( 'NONE', 'WORKASPACE' ) );
ENDSEC;
END-ISO-10303-21;
